999
     Created by SWS GmbH, Paderborn, Germany, www.sws-online.de
999
     and  Soft Gold Ltd. www.cadsofttools.com
999

999
SWS-intern Ausgabemassstab:
999
   0.0500
999

999
SWS-intern Koordinatenwerte 1:1:
999
1
999

  0
SECTION
  2
HEADER
  9
$ACADVER
  1
AC1018
  9
$DWGCODEPAGE
  3
ANSI_1252
  9
$CLAYER
  8
0
  9
$CELTYPE
  6
BYLAYER
  9
$CELTSCALE
 40
1
  9
$CELWEIGHT
370
-1
  9
$DIMALT
 70
0
  9
$DIMALTF
 40
1
  9
$DIMPOST
  1

  9
$DIMAPOST
  1

  9
$DIMSCALE
 40
1
  9
$DIMASZ
 40
0.18
  9
$DIMCLRD
 70
0
  9
$DIMCLRE
 70
0
  9
$DIMCLRT
 70
0
  9
$DIMEXE
 40
0.18
  9
$DIMEXO
 40
0.0625
  9
$DIMGAP
 40
0.0625
  9
$DIMLFAC
 40
1
  9
$DIMDEC
 70
4
  9
$DIMTAD
 70
0
  9
$DIMCEN
 40
0.09
  9
$DIMTIH
 70
1
  9
$DIMTIX
 70
0
  9
$DIMTOH
 70
1
  9
$DIMSE1
 70
0
  9
$DIMSE2
 70
0
  9
$DIMSD1
 70
0
  9
$DIMSD2
 70
0
  9
$DIMLWD
 70
-1
  9
$DIMLWE
 70
-1
  9
$DIMSAH
 70
0
  9
$DIMBLK
  1

  9
$DIMBLK1
  1

  9
$DIMBLK2
  1

  9
$DIMLDRBLK
  1

  9
$DIMSTYLE
  2
STANDARD
  9
$DIMTP
 40
0
  9
$DIMTM
 40
0
  9
$DIMTXT
 40
0.18
  9
$DIMLUNIT
 70
2
  9
$DIMDSEP
 70
46
  9
$DIMTXSTY
  7
STANDARD
  9
$TEXTSIZE
 40
0.18
  9
$TEXTSTYLE
  7
STANDARD
  9
$HANDSEED
  5
0000000000000054
  9
$FILLETRAD
 40
0.5
  9
$INSUNITS
 70
4
  9
$LIMMIN
 10
-217.04
 20
-81.875
  9
$LIMMAX
 10
1953.36
 20
736.875
  9
$FILLMODE
 70
1
  9
$LTSCALE
 40
1
  9
$PSLTSCALE
 70
0
  9
$MEASUREMENT
 70
0
  9
$ATTMODE
 70
1
  9
$PDMODE
 70
0
  9
$PDSIZE
 40
0
  9
$TILEMODE
 70
1
  9
$UCSORG
 10
0
 20
0
 30
0
  9
$UCSXDIR
 10
1
 20
0
 30
0
  9
$UCSYDIR
 10
0
 20
1
 30
0
  9
$INSBASE
 10
0
 20
0
 30
0
  9
$XCLIPFRAME
290
1
  9
$DIMASSOC
280
2
  9
$TDCREATE
 40
2459104.64909016
  9
$TDINDWG
 40
9.25925925925926E-8
  9
$TDUPDATE
 40
2459104.64909025
  0
ENDSEC
  0
SECTION
  2
CLASSES
  0
CLASS
  1
IMAGE
  2
AcDbRasterImage
  3
ISM
 90
2175
 91
1
280
0
281
1
  0
CLASS
  1
IMAGEDEF
  2
AcDbRasterImageDef
  3
ISM
 90
0
 91
1
280
0
281
0
  0
CLASS
  1
WIPEOUT
  2
AcDbWipeout
  3
"WipeOut"
 90
2175
 91
1
280
0
281
1
  0
CLASS
  1
WIPEOUTVARIABLES
  2
AcDbWipeoutVariables
  3
"WipeOut"
 90
0
 91
1
280
0
281
0
  0
CLASS
  1
MPOLYGON
  2
AcDbMPolygon
  3
"AcMPolygonObj15"
 90
3071
 91
1
280
0
281
1
  0
ENDSEC
  0
SECTION
  2
TABLES
  0
TABLE
  2
APPID
  5
37
100
AcDbSymbolTable
  0
APPID
  5
38
100
AcDbSymbolTableRecord
100
AcDbRegAppTableRecord
  2
ACAD
 70
0
  0
APPID
  5
12
100
AcDbSymbolTableRecord
100
AcDbRegAppTableRecord
  2
CSTINVENTORY
 70
0
  0
APPID
  5
39
100
AcDbSymbolTableRecord
100
AcDbRegAppTableRecord
  2
AcDbAttr
 70
0
  0
APPID
  5
3A
100
AcDbSymbolTableRecord
100
AcDbRegAppTableRecord
  2
PE_URL
 70
0
  0
ENDTAB
  0
TABLE
  2
BLOCK_RECORD
  5
3B
100
AcDbSymbolTable
  0
BLOCK_RECORD
  5
1E
100
AcDbSymbolTableRecord
100
AcDbBlockTableRecord
  2
*MODEL_SPACE
  0
BLOCK_RECORD
  5
3C
100
AcDbSymbolTableRecord
100
AcDbBlockTableRecord
  2
*PAPER_SPACE
  0
BLOCK_RECORD
  5
10
100
AcDbSymbolTableRecord
100
AcDbBlockTableRecord
  2
_CLOSEDFILLED
  0
BLOCK_RECORD
  5
2C
100
AcDbSymbolTableRecord
100
AcDbBlockTableRecord
  2
GER_BLOCK_00001
  0
BLOCK_RECORD
  5
31
100
AcDbSymbolTableRecord
100
AcDbBlockTableRecord
  2
INST_BLOCK_00001
  0
ENDTAB
  0
TABLE
  2
STYLE
  5
3
100
AcDbSymbolTable
  0
STYLE
  5
A
100
AcDbSymbolTableRecord
100
AcDbTextStyleTableRecord
  2
STANDARD
 70
0
 40
0
 41
1
 50
0
 71
0
 42
30
  3
TXT.SHX
  4

1001
ACAD
1000
txt
1071
0
  0
ENDTAB
  0
TABLE
  2
LTYPE
  5
1
100
AcDbSymbolTable
  0
LTYPE
  5
9
100
AcDbSymbolTableRecord
100
AcDbLinetypeTableRecord
  2
CONTINUOUS
 70
0
  3

 72
65
 73
0
 40
0
  0
LTYPE
  5
7
100
AcDbSymbolTableRecord
100
AcDbLinetypeTableRecord
  2
BYLAYER
 70
0
  3

 72
65
 73
0
 40
0
  0
LTYPE
  5
8
100
AcDbSymbolTableRecord
100
AcDbLinetypeTableRecord
  2
BYBLOCK
 70
0
  3

 72
65
 73
0
 40
0
  0
LTYPE
  5
13
100
AcDbSymbolTableRecord
100
AcDbLinetypeTableRecord
  2
AUSGEZOGEN
 70
0
  3
.
 72
65
 73
1
 40
0
 49
0
 74
0
  0
LTYPE
  5
14
100
AcDbSymbolTableRecord
100
AcDbLinetypeTableRecord
  2
PUNKTIERT
 70
0
  3
. 
 72
65
 73
2
 40
30
 49
0
 74
0
 49
-30
 74
0
  0
LTYPE
  5
15
100
AcDbSymbolTableRecord
100
AcDbLinetypeTableRecord
  2
GESTRICHELT
 70
0
  3
_ 
 72
65
 73
2
 40
80
 49
50
 74
0
 49
-30
 74
0
  0
LTYPE
  5
16
100
AcDbSymbolTableRecord
100
AcDbLinetypeTableRecord
  2
STRICHPUNKT
 70
0
  3
_ . 
 72
65
 73
4
 40
160
 49
100
 74
0
 49
-30
 74
0
 49
0
 74
0
 49
-30
 74
0
  0
LTYPE
  5
17
100
AcDbSymbolTableRecord
100
AcDbLinetypeTableRecord
  2
GETRENNT
 70
0
  3
_ . . 
 72
65
 73
6
 40
190
 49
100
 74
0
 49
-30
 74
0
 49
0
 74
0
 49
-30
 74
0
 49
0
 74
0
 49
-30
 74
0
  0
ENDTAB
  0
TABLE
  2
LAYER
  5
2
100
AcDbSymbolTable
  0
LAYER
  5
E
100
AcDbSymbolTableRecord
100
AcDbLayerTableRecord
  2
0
 70
0
 62
1
420
16711680
  6
AUSGEZOGEN
290
1
370
-3
390
0
  0
LAYER
  5
18
100
AcDbSymbolTableRecord
100
AcDbLayerTableRecord
  2
550
 70
0
 62
2
420
16776960
  6
AUSGEZOGEN
290
1
370
-3
390
0
  0
LAYER
  5
19
100
AcDbSymbolTableRecord
100
AcDbLayerTableRecord
  2
510
 70
0
 62
2
420
16776960
  6
AUSGEZOGEN
290
1
370
-3
390
0
  0
LAYER
  5
1A
100
AcDbSymbolTableRecord
100
AcDbLayerTableRecord
  2
200
 70
0
 62
7
  6
AUSGEZOGEN
290
1
370
-3
390
0
  0
LAYER
  5
1B
100
AcDbSymbolTableRecord
100
AcDbLayerTableRecord
  2
400
 70
0
 62
4
420
65535
  6
AUSGEZOGEN
290
1
370
-3
390
0
  0
ENDTAB
  0
TABLE
  2
VPORT
  5
3D
100
AcDbSymbolTable
  0
VPORT
  5
3F
100
AcDbSymbolTableRecord
100
AcDbViewportTableRecord
  2
*ACTIVE
 70
0
 10
0
 20
0
 11
1
 21
1
 12
868.16
 22
327.5
 32
0
 13
0
 23
0
 14
1
 24
1
 15
1
 25
1
 16
0
 26
0
 36
1
 17
0
 27
0
 37
0
 40
655
 41
2.65087022900763
 42
50
 43
0
 44
0
 50
0
 51
0
 71
0
 72
100
 73
1
 74
1
 75
0
 76
0
 77
0
 78
0
  0
ENDTAB
  0
TABLE
  2
VIEW
  5
40
100
AcDbSymbolTable
  0
ENDTAB
  0
TABLE
  2
UCS
  5
41
100
AcDbSymbolTable
  0
ENDTAB
  0
TABLE
  2
DIMSTYLE
  5
4
100
AcDbSymbolTable
 70
1
100
AcDbDimStyleTable
 71
0
  0
DIMSTYLE
105
B
100
AcDbSymbolTableRecord
100
AcDbDimStyleTableRecord
  2
STANDARD
 70
0
  3

 40
1
 41
0.18
 42
0.0625
 44
0.18
 47
0
 48
0
 73
1
 74
1
 75
0
 76
0
 77
0
140
0.18
141
0.09
144
1
147
0.0625
173
0
174
0
176
0
177
0
178
0
277
2
278
46
281
0
282
0
271
4
340
A
371
-1
372
-1
  0
ENDTAB
  0
ENDSEC
  0
SECTION
  2
BLOCKS
  0
BLOCK
  5
42
100
AcDbEntity
  8
0
100
AcDbBlockBegin
  2
*MODEL_SPACE
 70
0
 10
0
 20
0
  0
ENDBLK
  5
43
100
AcDbEntity
  8
0
100
AcDbBlockEnd
  0
BLOCK
  5
44
100
AcDbEntity
  8
0
100
AcDbBlockBegin
  2
*PAPER_SPACE
 70
0
 10
0
 20
0
  0
ENDBLK
  5
45
100
AcDbEntity
  8
0
100
AcDbBlockEnd
  0
BLOCK
  5
F
100
AcDbEntity
  8
0
100
AcDbBlockBegin
  2
_CLOSEDFILLED
 70
0
 10
0
 20
0
 30
0
  3
_CLOSEDFILLED
  1

  0
SOLID
  5
C
100
AcDbEntity
  8
0
100
AcDbTrace
370
-2
 62
0
 10
-1
 20
0.166666666666667
 30
0
 11
0
 21
0
 31
0
 12
-1
 22
0.166666666666667
 32
0
 13
-1
 23
-0.166666666666667
 33
0
  0
LINE
  5
D
100
AcDbEntity
  8
0
100
AcDbLine
370
-2
 62
0
 10
-1
 20
0
 30
0
 11
-2
 21
0
 31
0
  0
ENDBLK
  5
46
100
AcDbEntity
  8
0
100
AcDbBlockEnd
  0
BLOCK
  5
2B
100
AcDbEntity
  8
200
100
AcDbBlockBegin
  2
GER_BLOCK_00001
 70
2
 10
0
 20
0
 30
0
  3
GER_BLOCK_00001
  1

  0
LINE
  5
25
100
AcDbEntity
  8
200
100
AcDbLine
370
-1
  6
GESTRICHELT
 10
0
 20
0
 30
0
 11
0
 21
290
 31
0
  0
LINE
  5
26
100
AcDbEntity
  8
200
100
AcDbLine
370
-1
  6
AUSGEZOGEN
 10
58
 20
0
 30
0
 11
0
 21
0
 31
0
  0
LINE
  5
27
100
AcDbEntity
  8
200
100
AcDbLine
370
-1
  6
GESTRICHELT
 10
1000
 20
580
 30
0
 11
1000
 21
290
 31
0
  0
LINE
  5
28
100
AcDbEntity
  8
200
100
AcDbLine
370
-1
  6
AUSGEZOGEN
 10
942
 20
580
 30
0
 11
1000
 21
580
 31
0
  0
ATTDEF
  5
2A
100
AcDbEntity
  8
0
100
AcDbText
370
-1
 10
0
 20
0
 30
0
 40
1
  1

 50
0
 41
1
 51
0
  7
STANDARD
 71
0
 72
0
 11
0
 21
0
 31
0
100
AcDbAttributeDefinition
  3

  2

 70
0
 74
0
1001
AcDbAttr
1070
0
1070
0
  0
ENDBLK
  5
47
100
AcDbEntity
  8
0
100
AcDbBlockEnd
  0
BLOCK
  5
30
100
AcDbEntity
  8
400
100
AcDbBlockBegin
  2
INST_BLOCK_00001
 70
2
 10
0
 20
0
 30
0
  3
INST_BLOCK_00001
  1

  0
CIRCLE
  5
20
100
AcDbEntity
  8
400
100
AcDbCircle
370
-1
  6
AUSGEZOGEN
 10
900
 20
580
 30
0
 40
50
  0
LINE
  5
21
100
AcDbEntity
  8
400
100
AcDbLine
370
-1
  6
AUSGEZOGEN
 10
975
 20
580
 30
0
 11
900
 21
580
 31
0
  0
LINE
  5
22
100
AcDbEntity
  8
400
100
AcDbLine
370
-1
  6
AUSGEZOGEN
 10
825
 20
580
 30
0
 11
900
 21
580
 31
0
  0
LINE
  5
23
100
AcDbEntity
  8
400
100
AcDbLine
370
-1
  6
AUSGEZOGEN
 10
900
 20
655
 30
0
 11
900
 21
580
 31
0
  0
LINE
  5
24
100
AcDbEntity
  8
400
100
AcDbLine
370
-1
  6
AUSGEZOGEN
 10
900
 20
505
 30
0
 11
900
 21
580
 31
0
  0
ATTDEF
  5
2F
100
AcDbEntity
  8
0
100
AcDbText
370
-1
 10
0
 20
0
 30
0
 40
1
  1

 50
0
 41
1
 51
0
  7
STANDARD
 71
0
 72
0
 11
0
 21
0
 31
0
100
AcDbAttributeDefinition
  3

  2

 70
0
 74
0
1001
AcDbAttr
1070
0
1070
0
  0
ENDBLK
  5
48
100
AcDbEntity
  8
0
100
AcDbBlockEnd
  0
ENDSEC
  0
SECTION
  2
ENTITIES
  0
LINE
  5
1C
100
AcDbEntity
  8
400
100
AcDbLine
370
-1
  6
AUSGEZOGEN
 10
900
 20
580
 30
0
 11
1236.5
 21
446.5
 31
0
  0
LINE
  5
1F
100
AcDbEntity
  8
400
100
AcDbLine
370
-1
  6
AUSGEZOGEN
 10
1736.32
 20
446.5
 30
0
 11
1236.5
 21
446.5
 31
0
  0
TEXT
  5
29
100
AcDbEntity
  8
400
100
AcDbText
370
-1
 10
1250
 20
460
 30
0
 40
45
  1
EZ: 230V 50Hz 1,2kW
 50
0
 41
0.600000023841858
 51
0
  7
STANDARD
 71
0
 72
0
 11
0
 21
0
 31
0
100
AcDbText
 73
0
  0
INSERT
  5
2E
100
AcDbEntity
  8
200
100
AcDbBlockReference
370
-1
  6
BYLAYER
 66
1
  2
GER_BLOCK_00001
 10
0
 20
0
 30
0
 41
1
 42
1
 43
1
  0
ATTRIB
  5
2D
100
AcDbEntity
  8
0
100
AcDbText
370
-1
 10
0
 20
0
 30
0
 40
20
  1

 50
0
 41
1
 51
0
  7
STANDARD
 71
0
 72
0
 11
0
 21
0
 31
0
100
AcDbAttribute
  2

 70
0
 74
0
1001
AcDbAttr
1070
0
1070
0
  0
SEQEND
  5
49
100
AcDbEntity
  8
0
  0
INSERT
  5
33
100
AcDbEntity
  8
400
100
AcDbBlockReference
370
-1
  6
BYLAYER
 66
1
  2
INST_BLOCK_00001
 10
0
 20
0
 30
0
 41
1
 42
1
 43
1
  0
ATTRIB
  5
32
100
AcDbEntity
  8
0
100
AcDbText
370
-1
 10
0
 20
0
 30
0
 40
20
  1

 50
0
 41
1
 51
0
  7
STANDARD
 71
0
 72
0
 11
0
 21
0
 31
0
100
AcDbAttribute
  2

 70
0
 74
0
1001
AcDbAttr
1070
0
1070
0
  0
SEQEND
  5
4A
100
AcDbEntity
  8
0
  0
ATTDEF
  5
34
100
AcDbEntity
  8
550
100
AcDbText
370
-1
 10
10
 20
100
 30
0
 40
30
  1

 50
0
 41
1
 51
0
  7
STANDARD
 71
0
 72
0
 11
0
 21
0
 31
0
100
AcDbAttributeDefinition
  3
KBS-93027101
  2
KBS-93027101
 70
1
 74
0
1001
AcDbAttr
1070
0
1070
0
  0
TEXT
  5
35
100
AcDbEntity
  8
510
100
AcDbText
370
-1
 10
10
 20
-45
 30
0
 40
30
  1

 50
0
 41
1
 51
0
  7
STANDARD
 71
0
 72
0
 11
0
 21
0
 31
0
100
AcDbText
 73
0
  0
ENDSEC
  0
SECTION
  2
OBJECTS
  0
DICTIONARY
  5
4B
100
AcDbDictionary
  3
ACAD_GROUP
350
4C
  3
ACAD_MATERIAL
350
4D
  3
ACAD_WIPEOUT_VARS
350
4E
  3
ACAD_MLINESTYLE
350
4F
  3
ACAD_LAYOUT
350
50
  0
DICTIONARY
  5
4C
330
4B
100
AcDbDictionary
  0
DICTIONARY
  5
4D
330
4B
100
AcDbDictionary
  0
WIPEOUTVARIABLES
  5
4E
330
4B
100
AcDbWipeoutVariables
 70
1
  0
DICTIONARY
  5
4F
330
4B
100
AcDbDictionary
  3
STANDARD
350
51
  0
MLINESTYLE
  5
51
100
AcDbMlineStyle
  2
STANDARD
 70
0
  3

 62
256
 51
90
 52
90
 71
2
 49
0.5
 62
256
  6
ByLayer
 49
-0.5
 62
256
  6
ByLayer
  0
DICTIONARY
  5
50
100
AcDbDictionary
281
1
  3
Model
350
36
  0
LAYOUT
  5
36
102
{ACAD_REACTORS
330
50
102
}
330
50
100
AcDbPlotSettings
  1

  2
none_device
  4

  6

 40
0
 41
0
 42
0
 43
0
 44
0
 45
0
 46
0
 47
0
 48
0
 49
0
 70
1712
 72
1
 73
0
 74
5
 75
16
 76
0
 77
0
 78
100
140
0
141
0
142
1
143
1
147
1
148
0
149
0
100
AcDbLayout
  1
Model
 70
1
 71
1
 10
0
 20
0
 11
1736.32
 21
655
 12
0
 22
0
 32
0
 14
0
 24
0
 34
0
 15
1736.32
 25
655
 35
0
146
0
 13
0
 23
0
 33
0
 16
1
 26
0
 36
0
 17
0
 27
1
 37
0
 76
0
330
1E
  0
DICTIONARY
  5
52
100
AcDbDictionary
280
1
  3
XINFO
360
53
  0
XRECORD
  5
53
102
{ACAD_REACTORS
330
52
102
}
330
52
100
AcDbXrecord
280
0
310
8F24010003000900
311
25D509D4695F399A
  0
ENDSEC
  0
EOF
