999
     Created by SWS GmbH, Paderborn, Germany, www.sws-online.de
999
     and  Soft Gold Ltd. www.cadsofttools.com
999

999
SWS-intern Ausgabemassstab:
999
   0.0500
999

999
SWS-intern Koordinatenwerte 1:1:
999
1
999

  0
SECTION
  2
HEADER
  9
$ACADVER
  1
AC1018
  9
$DWGCODEPAGE
  3
ANSI_1252
  9
$CLAYER
  8
0
  9
$CELTYPE
  6
BYLAYER
  9
$CELTSCALE
 40
1
  9
$CELWEIGHT
370
-1
  9
$DIMALT
 70
0
  9
$DIMALTF
 40
1
  9
$DIMPOST
  1

  9
$DIMAPOST
  1

  9
$DIMSCALE
 40
1
  9
$DIMASZ
 40
0.18
  9
$DIMCLRD
 70
0
  9
$DIMCLRE
 70
0
  9
$DIMCLRT
 70
0
  9
$DIMEXE
 40
0.18
  9
$DIMEXO
 40
0.0625
  9
$DIMGAP
 40
0.0625
  9
$DIMLFAC
 40
1
  9
$DIMDEC
 70
4
  9
$DIMTAD
 70
0
  9
$DIMCEN
 40
0.09
  9
$DIMTIH
 70
1
  9
$DIMTIX
 70
0
  9
$DIMTOH
 70
1
  9
$DIMSE1
 70
0
  9
$DIMSE2
 70
0
  9
$DIMSD1
 70
0
  9
$DIMSD2
 70
0
  9
$DIMLWD
 70
-1
  9
$DIMLWE
 70
-1
  9
$DIMSAH
 70
0
  9
$DIMBLK
  1

  9
$DIMBLK1
  1

  9
$DIMBLK2
  1

  9
$DIMLDRBLK
  1

  9
$DIMSTYLE
  2
STANDARD
  9
$DIMTP
 40
0
  9
$DIMTM
 40
0
  9
$DIMTXT
 40
0.18
  9
$DIMLUNIT
 70
2
  9
$DIMDSEP
 70
46
  9
$DIMTXSTY
  7
STANDARD
  9
$TEXTSIZE
 40
0.18
  9
$TEXTSTYLE
  7
STANDARD
  9
$HANDSEED
  5
0000000000000139
  9
$FILLETRAD
 40
0.5
  9
$INSUNITS
 70
4
  9
$LIMMIN
 10
-271.37
 20
-96.875
  9
$LIMMAX
 10
2442.33
 20
871.875
  9
$FILLMODE
 70
1
  9
$LTSCALE
 40
1
  9
$PSLTSCALE
 70
0
  9
$MEASUREMENT
 70
0
  9
$ATTMODE
 70
1
  9
$PDMODE
 70
0
  9
$PDSIZE
 40
0
  9
$TILEMODE
 70
1
  9
$UCSORG
 10
0
 20
0
 30
0
  9
$UCSXDIR
 10
1
 20
0
 30
0
  9
$UCSYDIR
 10
0
 20
1
 30
0
  9
$INSBASE
 10
0
 20
0
 30
0
  9
$XCLIPFRAME
290
1
  9
$DIMASSOC
280
2
  9
$TDCREATE
 40
2459104.65440378
  9
$TDINDWG
 40
1.04166666666667E-7
  9
$TDUPDATE
 40
2459104.65440389
  0
ENDSEC
  0
SECTION
  2
CLASSES
  0
CLASS
  1
IMAGE
  2
AcDbRasterImage
  3
ISM
 90
2175
 91
1
280
0
281
1
  0
CLASS
  1
IMAGEDEF
  2
AcDbRasterImageDef
  3
ISM
 90
0
 91
1
280
0
281
0
  0
CLASS
  1
WIPEOUT
  2
AcDbWipeout
  3
"WipeOut"
 90
2175
 91
1
280
0
281
1
  0
CLASS
  1
WIPEOUTVARIABLES
  2
AcDbWipeoutVariables
  3
"WipeOut"
 90
0
 91
1
280
0
281
0
  0
CLASS
  1
MPOLYGON
  2
AcDbMPolygon
  3
"AcMPolygonObj15"
 90
3071
 91
1
280
0
281
1
  0
ENDSEC
  0
SECTION
  2
TABLES
  0
TABLE
  2
APPID
  5
11C
100
AcDbSymbolTable
  0
APPID
  5
11D
100
AcDbSymbolTableRecord
100
AcDbRegAppTableRecord
  2
ACAD
 70
0
  0
APPID
  5
12
100
AcDbSymbolTableRecord
100
AcDbRegAppTableRecord
  2
CSTINVENTORY
 70
0
  0
APPID
  5
11E
100
AcDbSymbolTableRecord
100
AcDbRegAppTableRecord
  2
AcDbAttr
 70
0
  0
APPID
  5
11F
100
AcDbSymbolTableRecord
100
AcDbRegAppTableRecord
  2
PE_URL
 70
0
  0
ENDTAB
  0
TABLE
  2
BLOCK_RECORD
  5
120
100
AcDbSymbolTable
  0
BLOCK_RECORD
  5
1E
100
AcDbSymbolTableRecord
100
AcDbBlockTableRecord
  2
*MODEL_SPACE
  0
BLOCK_RECORD
  5
121
100
AcDbSymbolTableRecord
100
AcDbBlockTableRecord
  2
*PAPER_SPACE
  0
BLOCK_RECORD
  5
10
100
AcDbSymbolTableRecord
100
AcDbBlockTableRecord
  2
_CLOSEDFILLED
  0
BLOCK_RECORD
  5
111
100
AcDbSymbolTableRecord
100
AcDbBlockTableRecord
  2
GER_BLOCK_00001
  0
BLOCK_RECORD
  5
116
100
AcDbSymbolTableRecord
100
AcDbBlockTableRecord
  2
INST_BLOCK_00001
  0
ENDTAB
  0
TABLE
  2
STYLE
  5
3
100
AcDbSymbolTable
  0
STYLE
  5
A
100
AcDbSymbolTableRecord
100
AcDbTextStyleTableRecord
  2
STANDARD
 70
0
 40
0
 41
1
 50
0
 71
0
 42
30
  3
TXT.SHX
  4

1001
ACAD
1000
txt
1071
0
  0
ENDTAB
  0
TABLE
  2
LTYPE
  5
1
100
AcDbSymbolTable
  0
LTYPE
  5
9
100
AcDbSymbolTableRecord
100
AcDbLinetypeTableRecord
  2
CONTINUOUS
 70
0
  3

 72
65
 73
0
 40
0
  0
LTYPE
  5
7
100
AcDbSymbolTableRecord
100
AcDbLinetypeTableRecord
  2
BYLAYER
 70
0
  3

 72
65
 73
0
 40
0
  0
LTYPE
  5
8
100
AcDbSymbolTableRecord
100
AcDbLinetypeTableRecord
  2
BYBLOCK
 70
0
  3

 72
65
 73
0
 40
0
  0
LTYPE
  5
13
100
AcDbSymbolTableRecord
100
AcDbLinetypeTableRecord
  2
AUSGEZOGEN
 70
0
  3
.
 72
65
 73
1
 40
0
 49
0
 74
0
  0
LTYPE
  5
14
100
AcDbSymbolTableRecord
100
AcDbLinetypeTableRecord
  2
PUNKTIERT
 70
0
  3
. 
 72
65
 73
2
 40
30
 49
0
 74
0
 49
-30
 74
0
  0
LTYPE
  5
15
100
AcDbSymbolTableRecord
100
AcDbLinetypeTableRecord
  2
GESTRICHELT
 70
0
  3
_ 
 72
65
 73
2
 40
80
 49
50
 74
0
 49
-30
 74
0
  0
LTYPE
  5
16
100
AcDbSymbolTableRecord
100
AcDbLinetypeTableRecord
  2
STRICHPUNKT
 70
0
  3
_ . 
 72
65
 73
4
 40
160
 49
100
 74
0
 49
-30
 74
0
 49
0
 74
0
 49
-30
 74
0
  0
LTYPE
  5
17
100
AcDbSymbolTableRecord
100
AcDbLinetypeTableRecord
  2
GETRENNT
 70
0
  3
_ . . 
 72
65
 73
6
 40
190
 49
100
 74
0
 49
-30
 74
0
 49
0
 74
0
 49
-30
 74
0
 49
0
 74
0
 49
-30
 74
0
  0
ENDTAB
  0
TABLE
  2
LAYER
  5
2
100
AcDbSymbolTable
  0
LAYER
  5
E
100
AcDbSymbolTableRecord
100
AcDbLayerTableRecord
  2
0
 70
0
 62
1
420
16711680
  6
AUSGEZOGEN
290
1
370
-3
390
0
  0
LAYER
  5
18
100
AcDbSymbolTableRecord
100
AcDbLayerTableRecord
  2
550
 70
0
 62
2
420
16776960
  6
AUSGEZOGEN
290
1
370
-3
390
0
  0
LAYER
  5
19
100
AcDbSymbolTableRecord
100
AcDbLayerTableRecord
  2
510
 70
0
 62
2
420
16776960
  6
AUSGEZOGEN
290
1
370
-3
390
0
  0
LAYER
  5
1A
100
AcDbSymbolTableRecord
100
AcDbLayerTableRecord
  2
200
 70
0
 62
7
  6
AUSGEZOGEN
290
1
370
-3
390
0
  0
LAYER
  5
1B
100
AcDbSymbolTableRecord
100
AcDbLayerTableRecord
  2
420
 70
0
 62
2
420
16776960
  6
AUSGEZOGEN
290
1
370
-3
390
0
  0
ENDTAB
  0
TABLE
  2
VPORT
  5
122
100
AcDbSymbolTable
  0
VPORT
  5
124
100
AcDbSymbolTableRecord
100
AcDbViewportTableRecord
  2
*ACTIVE
 70
0
 10
0
 20
0
 11
1
 21
1
 12
1085.48
 22
387.5
 32
0
 13
0
 23
0
 14
1
 24
1
 15
1
 25
1
 16
0
 26
0
 36
1
 17
0
 27
0
 37
0
 40
775
 41
2.80123870967742
 42
50
 43
0
 44
0
 50
0
 51
0
 71
0
 72
100
 73
1
 74
1
 75
0
 76
0
 77
0
 78
0
  0
ENDTAB
  0
TABLE
  2
VIEW
  5
125
100
AcDbSymbolTable
  0
ENDTAB
  0
TABLE
  2
UCS
  5
126
100
AcDbSymbolTable
  0
ENDTAB
  0
TABLE
  2
DIMSTYLE
  5
4
100
AcDbSymbolTable
 70
1
100
AcDbDimStyleTable
 71
0
  0
DIMSTYLE
105
B
100
AcDbSymbolTableRecord
100
AcDbDimStyleTableRecord
  2
STANDARD
 70
0
  3

 40
1
 41
0.18
 42
0.0625
 44
0.18
 47
0
 48
0
 73
1
 74
1
 75
0
 76
0
 77
0
140
0.18
141
0.09
144
1
147
0.0625
173
0
174
0
176
0
177
0
178
0
277
2
278
46
281
0
282
0
271
4
340
A
371
-1
372
-1
  0
ENDTAB
  0
ENDSEC
  0
SECTION
  2
BLOCKS
  0
BLOCK
  5
127
100
AcDbEntity
  8
0
100
AcDbBlockBegin
  2
*MODEL_SPACE
 70
0
 10
0
 20
0
  0
ENDBLK
  5
128
100
AcDbEntity
  8
0
100
AcDbBlockEnd
  0
BLOCK
  5
129
100
AcDbEntity
  8
0
100
AcDbBlockBegin
  2
*PAPER_SPACE
 70
0
 10
0
 20
0
  0
ENDBLK
  5
12A
100
AcDbEntity
  8
0
100
AcDbBlockEnd
  0
BLOCK
  5
F
100
AcDbEntity
  8
0
100
AcDbBlockBegin
  2
_CLOSEDFILLED
 70
0
 10
0
 20
0
 30
0
  3
_CLOSEDFILLED
  1

  0
SOLID
  5
C
100
AcDbEntity
  8
0
100
AcDbTrace
370
-2
 62
0
 10
-1
 20
0.166666666666667
 30
0
 11
0
 21
0
 31
0
 12
-1
 22
0.166666666666667
 32
0
 13
-1
 23
-0.166666666666667
 33
0
  0
LINE
  5
D
100
AcDbEntity
  8
0
100
AcDbLine
370
-2
 62
0
 10
-1
 20
0
 30
0
 11
-2
 21
0
 31
0
  0
ENDBLK
  5
12B
100
AcDbEntity
  8
0
100
AcDbBlockEnd
  0
BLOCK
  5
110
100
AcDbEntity
  8
200
100
AcDbBlockBegin
  2
GER_BLOCK_00001
 70
2
 10
0
 20
0
 30
0
  3
GER_BLOCK_00001
  1

  0
LINE
  5
25
100
AcDbEntity
  8
200
100
AcDbLine
370
-1
  6
AUSGEZOGEN
 10
680
 20
82.07
 30
0
 11
677.07
 21
85
 31
0
  0
LINE
  5
26
100
AcDbEntity
  8
200
100
AcDbLine
370
-1
  6
AUSGEZOGEN
 10
677.07
 20
65
 30
0
 11
680
 21
67.93
 31
0
  0
LINE
  5
27
100
AcDbEntity
  8
200
100
AcDbLine
370
-1
  6
AUSGEZOGEN
 10
50
 20
67.93
 30
0
 11
52.93
 21
65
 31
0
  0
LINE
  5
28
100
AcDbEntity
  8
200
100
AcDbLine
370
-1
  6
AUSGEZOGEN
 10
50
 20
82.07
 30
0
 11
50
 21
67.93
 31
0
  0
LINE
  5
29
100
AcDbEntity
  8
200
100
AcDbLine
370
-1
  6
AUSGEZOGEN
 10
52.93
 20
85
 30
0
 11
50
 21
82.07
 31
0
  0
LINE
  5
2A
100
AcDbEntity
  8
200
100
AcDbLine
370
-1
  6
AUSGEZOGEN
 10
677.07
 20
85
 30
0
 11
52.93
 21
85
 31
0
  0
LINE
  5
2B
100
AcDbEntity
  8
200
100
AcDbLine
370
-1
  6
AUSGEZOGEN
 10
680
 20
67.93
 30
0
 11
680
 21
82.07
 31
0
  0
LINE
  5
2C
100
AcDbEntity
  8
200
100
AcDbLine
370
-1
  6
AUSGEZOGEN
 10
52.93
 20
65
 30
0
 11
677.07
 21
65
 31
0
  0
LINE
  5
2D
100
AcDbEntity
  8
200
100
AcDbLine
370
-1
  6
AUSGEZOGEN
 10
680
 20
122.07
 30
0
 11
677.07
 21
125
 31
0
  0
LINE
  5
2E
100
AcDbEntity
  8
200
100
AcDbLine
370
-1
  6
AUSGEZOGEN
 10
677.07
 20
105
 30
0
 11
680
 21
107.93
 31
0
  0
LINE
  5
2F
100
AcDbEntity
  8
200
100
AcDbLine
370
-1
  6
AUSGEZOGEN
 10
50
 20
107.93
 30
0
 11
52.93
 21
105
 31
0
  0
LINE
  5
30
100
AcDbEntity
  8
200
100
AcDbLine
370
-1
  6
AUSGEZOGEN
 10
50
 20
122.07
 30
0
 11
50
 21
107.93
 31
0
  0
LINE
  5
31
100
AcDbEntity
  8
200
100
AcDbLine
370
-1
  6
AUSGEZOGEN
 10
52.93
 20
125
 30
0
 11
50
 21
122.07
 31
0
  0
LINE
  5
32
100
AcDbEntity
  8
200
100
AcDbLine
370
-1
  6
AUSGEZOGEN
 10
677.07
 20
125
 30
0
 11
52.93
 21
125
 31
0
  0
LINE
  5
33
100
AcDbEntity
  8
200
100
AcDbLine
370
-1
  6
AUSGEZOGEN
 10
680
 20
107.93
 30
0
 11
680
 21
122.07
 31
0
  0
LINE
  5
34
100
AcDbEntity
  8
200
100
AcDbLine
370
-1
  6
AUSGEZOGEN
 10
52.93
 20
105
 30
0
 11
677.07
 21
105
 31
0
  0
LINE
  5
35
100
AcDbEntity
  8
200
100
AcDbLine
370
-1
  6
AUSGEZOGEN
 10
680
 20
162.07
 30
0
 11
677.07
 21
165
 31
0
  0
LINE
  5
36
100
AcDbEntity
  8
200
100
AcDbLine
370
-1
  6
AUSGEZOGEN
 10
677.07
 20
145
 30
0
 11
680
 21
147.93
 31
0
  0
LINE
  5
37
100
AcDbEntity
  8
200
100
AcDbLine
370
-1
  6
AUSGEZOGEN
 10
50
 20
147.93
 30
0
 11
52.93
 21
145
 31
0
  0
LINE
  5
38
100
AcDbEntity
  8
200
100
AcDbLine
370
-1
  6
AUSGEZOGEN
 10
50
 20
162.07
 30
0
 11
50
 21
147.93
 31
0
  0
LINE
  5
39
100
AcDbEntity
  8
200
100
AcDbLine
370
-1
  6
AUSGEZOGEN
 10
52.93
 20
165
 30
0
 11
50
 21
162.07
 31
0
  0
LINE
  5
3A
100
AcDbEntity
  8
200
100
AcDbLine
370
-1
  6
AUSGEZOGEN
 10
677.07
 20
165
 30
0
 11
52.93
 21
165
 31
0
  0
LINE
  5
3B
100
AcDbEntity
  8
200
100
AcDbLine
370
-1
  6
AUSGEZOGEN
 10
680
 20
147.93
 30
0
 11
680
 21
162.07
 31
0
  0
LINE
  5
3C
100
AcDbEntity
  8
200
100
AcDbLine
370
-1
  6
AUSGEZOGEN
 10
52.93
 20
145
 30
0
 11
677.07
 21
145
 31
0
  0
LINE
  5
3D
100
AcDbEntity
  8
200
100
AcDbLine
370
-1
  6
AUSGEZOGEN
 10
680
 20
202.07
 30
0
 11
677.07
 21
205
 31
0
  0
LINE
  5
3E
100
AcDbEntity
  8
200
100
AcDbLine
370
-1
  6
AUSGEZOGEN
 10
677.07
 20
185
 30
0
 11
680
 21
187.93
 31
0
  0
LINE
  5
3F
100
AcDbEntity
  8
200
100
AcDbLine
370
-1
  6
AUSGEZOGEN
 10
50
 20
187.93
 30
0
 11
52.93
 21
185
 31
0
  0
LINE
  5
40
100
AcDbEntity
  8
200
100
AcDbLine
370
-1
  6
AUSGEZOGEN
 10
50
 20
202.07
 30
0
 11
50
 21
187.93
 31
0
  0
LINE
  5
41
100
AcDbEntity
  8
200
100
AcDbLine
370
-1
  6
AUSGEZOGEN
 10
52.93
 20
205
 30
0
 11
50
 21
202.07
 31
0
  0
LINE
  5
42
100
AcDbEntity
  8
200
100
AcDbLine
370
-1
  6
AUSGEZOGEN
 10
677.07
 20
205
 30
0
 11
52.93
 21
205
 31
0
  0
LINE
  5
43
100
AcDbEntity
  8
200
100
AcDbLine
370
-1
  6
AUSGEZOGEN
 10
680
 20
187.93
 30
0
 11
680
 21
202.07
 31
0
  0
LINE
  5
44
100
AcDbEntity
  8
200
100
AcDbLine
370
-1
  6
AUSGEZOGEN
 10
52.93
 20
185
 30
0
 11
677.07
 21
185
 31
0
  0
LINE
  5
45
100
AcDbEntity
  8
200
100
AcDbLine
370
-1
  6
AUSGEZOGEN
 10
680
 20
242.07
 30
0
 11
677.07
 21
245
 31
0
  0
LINE
  5
46
100
AcDbEntity
  8
200
100
AcDbLine
370
-1
  6
AUSGEZOGEN
 10
677.07
 20
225
 30
0
 11
680
 21
227.93
 31
0
  0
LINE
  5
47
100
AcDbEntity
  8
200
100
AcDbLine
370
-1
  6
AUSGEZOGEN
 10
50
 20
227.93
 30
0
 11
52.93
 21
225
 31
0
  0
LINE
  5
48
100
AcDbEntity
  8
200
100
AcDbLine
370
-1
  6
AUSGEZOGEN
 10
50
 20
242.07
 30
0
 11
50
 21
227.93
 31
0
  0
LINE
  5
49
100
AcDbEntity
  8
200
100
AcDbLine
370
-1
  6
AUSGEZOGEN
 10
52.93
 20
245
 30
0
 11
50
 21
242.07
 31
0
  0
LINE
  5
4A
100
AcDbEntity
  8
200
100
AcDbLine
370
-1
  6
AUSGEZOGEN
 10
677.07
 20
245
 30
0
 11
52.93
 21
245
 31
0
  0
LINE
  5
4B
100
AcDbEntity
  8
200
100
AcDbLine
370
-1
  6
AUSGEZOGEN
 10
680
 20
227.93
 30
0
 11
680
 21
242.07
 31
0
  0
LINE
  5
4C
100
AcDbEntity
  8
200
100
AcDbLine
370
-1
  6
AUSGEZOGEN
 10
52.93
 20
225
 30
0
 11
677.07
 21
225
 31
0
  0
LINE
  5
4D
100
AcDbEntity
  8
200
100
AcDbLine
370
-1
  6
AUSGEZOGEN
 10
680
 20
282.07
 30
0
 11
677.07
 21
285
 31
0
  0
LINE
  5
4E
100
AcDbEntity
  8
200
100
AcDbLine
370
-1
  6
AUSGEZOGEN
 10
677.07
 20
265
 30
0
 11
680
 21
267.93
 31
0
  0
LINE
  5
4F
100
AcDbEntity
  8
200
100
AcDbLine
370
-1
  6
AUSGEZOGEN
 10
50
 20
267.93
 30
0
 11
52.93
 21
265
 31
0
  0
LINE
  5
50
100
AcDbEntity
  8
200
100
AcDbLine
370
-1
  6
AUSGEZOGEN
 10
50
 20
282.07
 30
0
 11
50
 21
267.93
 31
0
  0
LINE
  5
51
100
AcDbEntity
  8
200
100
AcDbLine
370
-1
  6
AUSGEZOGEN
 10
52.93
 20
285
 30
0
 11
50
 21
282.07
 31
0
  0
LINE
  5
52
100
AcDbEntity
  8
200
100
AcDbLine
370
-1
  6
AUSGEZOGEN
 10
677.07
 20
285
 30
0
 11
52.93
 21
285
 31
0
  0
LINE
  5
53
100
AcDbEntity
  8
200
100
AcDbLine
370
-1
  6
AUSGEZOGEN
 10
680
 20
267.93
 30
0
 11
680
 21
282.07
 31
0
  0
LINE
  5
54
100
AcDbEntity
  8
200
100
AcDbLine
370
-1
  6
AUSGEZOGEN
 10
52.93
 20
265
 30
0
 11
677.07
 21
265
 31
0
  0
LINE
  5
55
100
AcDbEntity
  8
200
100
AcDbLine
370
-1
  6
AUSGEZOGEN
 10
680
 20
322.07
 30
0
 11
677.07
 21
325
 31
0
  0
LINE
  5
56
100
AcDbEntity
  8
200
100
AcDbLine
370
-1
  6
AUSGEZOGEN
 10
677.07
 20
305
 30
0
 11
680
 21
307.93
 31
0
  0
LINE
  5
57
100
AcDbEntity
  8
200
100
AcDbLine
370
-1
  6
AUSGEZOGEN
 10
50
 20
307.93
 30
0
 11
52.93
 21
305
 31
0
  0
LINE
  5
58
100
AcDbEntity
  8
200
100
AcDbLine
370
-1
  6
AUSGEZOGEN
 10
50
 20
322.07
 30
0
 11
50
 21
307.93
 31
0
  0
LINE
  5
59
100
AcDbEntity
  8
200
100
AcDbLine
370
-1
  6
AUSGEZOGEN
 10
52.93
 20
325
 30
0
 11
50
 21
322.07
 31
0
  0
LINE
  5
5A
100
AcDbEntity
  8
200
100
AcDbLine
370
-1
  6
AUSGEZOGEN
 10
677.07
 20
325
 30
0
 11
52.93
 21
325
 31
0
  0
LINE
  5
5B
100
AcDbEntity
  8
200
100
AcDbLine
370
-1
  6
AUSGEZOGEN
 10
680
 20
307.93
 30
0
 11
680
 21
322.07
 31
0
  0
LINE
  5
5C
100
AcDbEntity
  8
200
100
AcDbLine
370
-1
  6
AUSGEZOGEN
 10
52.93
 20
305
 30
0
 11
677.07
 21
305
 31
0
  0
LINE
  5
5D
100
AcDbEntity
  8
200
100
AcDbLine
370
-1
  6
AUSGEZOGEN
 10
680
 20
362.07
 30
0
 11
677.07
 21
365
 31
0
  0
LINE
  5
5E
100
AcDbEntity
  8
200
100
AcDbLine
370
-1
  6
AUSGEZOGEN
 10
677.07
 20
345
 30
0
 11
680
 21
347.93
 31
0
  0
LINE
  5
5F
100
AcDbEntity
  8
200
100
AcDbLine
370
-1
  6
AUSGEZOGEN
 10
50
 20
347.93
 30
0
 11
52.93
 21
345
 31
0
  0
LINE
  5
60
100
AcDbEntity
  8
200
100
AcDbLine
370
-1
  6
AUSGEZOGEN
 10
50
 20
362.07
 30
0
 11
50
 21
347.93
 31
0
  0
LINE
  5
61
100
AcDbEntity
  8
200
100
AcDbLine
370
-1
  6
AUSGEZOGEN
 10
52.93
 20
365
 30
0
 11
50
 21
362.07
 31
0
  0
LINE
  5
62
100
AcDbEntity
  8
200
100
AcDbLine
370
-1
  6
AUSGEZOGEN
 10
677.07
 20
365
 30
0
 11
52.93
 21
365
 31
0
  0
LINE
  5
63
100
AcDbEntity
  8
200
100
AcDbLine
370
-1
  6
AUSGEZOGEN
 10
680
 20
347.93
 30
0
 11
680
 21
362.07
 31
0
  0
LINE
  5
64
100
AcDbEntity
  8
200
100
AcDbLine
370
-1
  6
AUSGEZOGEN
 10
52.93
 20
345
 30
0
 11
677.07
 21
345
 31
0
  0
LINE
  5
65
100
AcDbEntity
  8
200
100
AcDbLine
370
-1
  6
AUSGEZOGEN
 10
680
 20
402.07
 30
0
 11
677.07
 21
405
 31
0
  0
LINE
  5
66
100
AcDbEntity
  8
200
100
AcDbLine
370
-1
  6
AUSGEZOGEN
 10
677.07
 20
385
 30
0
 11
680
 21
387.93
 31
0
  0
LINE
  5
67
100
AcDbEntity
  8
200
100
AcDbLine
370
-1
  6
AUSGEZOGEN
 10
50
 20
387.93
 30
0
 11
52.93
 21
385
 31
0
  0
LINE
  5
68
100
AcDbEntity
  8
200
100
AcDbLine
370
-1
  6
AUSGEZOGEN
 10
50
 20
402.07
 30
0
 11
50
 21
387.93
 31
0
  0
LINE
  5
69
100
AcDbEntity
  8
200
100
AcDbLine
370
-1
  6
AUSGEZOGEN
 10
52.93
 20
405
 30
0
 11
50
 21
402.07
 31
0
  0
LINE
  5
6A
100
AcDbEntity
  8
200
100
AcDbLine
370
-1
  6
AUSGEZOGEN
 10
677.07
 20
405
 30
0
 11
52.93
 21
405
 31
0
  0
LINE
  5
6B
100
AcDbEntity
  8
200
100
AcDbLine
370
-1
  6
AUSGEZOGEN
 10
680
 20
387.93
 30
0
 11
680
 21
402.07
 31
0
  0
LINE
  5
6C
100
AcDbEntity
  8
200
100
AcDbLine
370
-1
  6
AUSGEZOGEN
 10
52.93
 20
385
 30
0
 11
677.07
 21
385
 31
0
  0
LINE
  5
6D
100
AcDbEntity
  8
200
100
AcDbLine
370
-1
  6
AUSGEZOGEN
 10
680
 20
442.07
 30
0
 11
677.07
 21
445
 31
0
  0
LINE
  5
6E
100
AcDbEntity
  8
200
100
AcDbLine
370
-1
  6
AUSGEZOGEN
 10
677.07
 20
425
 30
0
 11
680
 21
427.93
 31
0
  0
LINE
  5
6F
100
AcDbEntity
  8
200
100
AcDbLine
370
-1
  6
AUSGEZOGEN
 10
50
 20
427.93
 30
0
 11
52.93
 21
425
 31
0
  0
LINE
  5
70
100
AcDbEntity
  8
200
100
AcDbLine
370
-1
  6
AUSGEZOGEN
 10
50
 20
442.07
 30
0
 11
50
 21
427.93
 31
0
  0
LINE
  5
71
100
AcDbEntity
  8
200
100
AcDbLine
370
-1
  6
AUSGEZOGEN
 10
52.93
 20
445
 30
0
 11
50
 21
442.07
 31
0
  0
LINE
  5
72
100
AcDbEntity
  8
200
100
AcDbLine
370
-1
  6
AUSGEZOGEN
 10
677.07
 20
445
 30
0
 11
52.93
 21
445
 31
0
  0
LINE
  5
73
100
AcDbEntity
  8
200
100
AcDbLine
370
-1
  6
AUSGEZOGEN
 10
680
 20
427.93
 30
0
 11
680
 21
442.07
 31
0
  0
LINE
  5
74
100
AcDbEntity
  8
200
100
AcDbLine
370
-1
  6
AUSGEZOGEN
 10
52.93
 20
425
 30
0
 11
677.07
 21
425
 31
0
  0
LINE
  5
75
100
AcDbEntity
  8
200
100
AcDbLine
370
-1
  6
AUSGEZOGEN
 10
680
 20
482.07
 30
0
 11
677.07
 21
485
 31
0
  0
LINE
  5
76
100
AcDbEntity
  8
200
100
AcDbLine
370
-1
  6
AUSGEZOGEN
 10
677.07
 20
465
 30
0
 11
680
 21
467.93
 31
0
  0
LINE
  5
77
100
AcDbEntity
  8
200
100
AcDbLine
370
-1
  6
AUSGEZOGEN
 10
50
 20
467.93
 30
0
 11
52.93
 21
465
 31
0
  0
LINE
  5
78
100
AcDbEntity
  8
200
100
AcDbLine
370
-1
  6
AUSGEZOGEN
 10
50
 20
482.07
 30
0
 11
50
 21
467.93
 31
0
  0
LINE
  5
79
100
AcDbEntity
  8
200
100
AcDbLine
370
-1
  6
AUSGEZOGEN
 10
52.93
 20
485
 30
0
 11
50
 21
482.07
 31
0
  0
LINE
  5
7A
100
AcDbEntity
  8
200
100
AcDbLine
370
-1
  6
AUSGEZOGEN
 10
677.07
 20
485
 30
0
 11
52.93
 21
485
 31
0
  0
LINE
  5
7B
100
AcDbEntity
  8
200
100
AcDbLine
370
-1
  6
AUSGEZOGEN
 10
680
 20
467.93
 30
0
 11
680
 21
482.07
 31
0
  0
LINE
  5
7C
100
AcDbEntity
  8
200
100
AcDbLine
370
-1
  6
AUSGEZOGEN
 10
52.93
 20
465
 30
0
 11
677.07
 21
465
 31
0
  0
LINE
  5
7D
100
AcDbEntity
  8
200
100
AcDbLine
370
-1
  6
AUSGEZOGEN
 10
680
 20
522.07
 30
0
 11
677.07
 21
525
 31
0
  0
LINE
  5
7E
100
AcDbEntity
  8
200
100
AcDbLine
370
-1
  6
AUSGEZOGEN
 10
677.07
 20
505
 30
0
 11
680
 21
507.93
 31
0
  0
LINE
  5
7F
100
AcDbEntity
  8
200
100
AcDbLine
370
-1
  6
AUSGEZOGEN
 10
50
 20
507.93
 30
0
 11
52.93
 21
505
 31
0
  0
LINE
  5
80
100
AcDbEntity
  8
200
100
AcDbLine
370
-1
  6
AUSGEZOGEN
 10
50
 20
522.07
 30
0
 11
50
 21
507.93
 31
0
  0
LINE
  5
81
100
AcDbEntity
  8
200
100
AcDbLine
370
-1
  6
AUSGEZOGEN
 10
52.93
 20
525
 30
0
 11
50
 21
522.07
 31
0
  0
LINE
  5
82
100
AcDbEntity
  8
200
100
AcDbLine
370
-1
  6
AUSGEZOGEN
 10
677.07
 20
525
 30
0
 11
52.93
 21
525
 31
0
  0
LINE
  5
83
100
AcDbEntity
  8
200
100
AcDbLine
370
-1
  6
AUSGEZOGEN
 10
680
 20
507.93
 30
0
 11
680
 21
522.07
 31
0
  0
LINE
  5
84
100
AcDbEntity
  8
200
100
AcDbLine
370
-1
  6
AUSGEZOGEN
 10
52.93
 20
505
 30
0
 11
677.07
 21
505
 31
0
  0
LINE
  5
85
100
AcDbEntity
  8
200
100
AcDbLine
370
-1
  6
AUSGEZOGEN
 10
680
 20
562.07
 30
0
 11
677.07
 21
565
 31
0
  0
LINE
  5
86
100
AcDbEntity
  8
200
100
AcDbLine
370
-1
  6
AUSGEZOGEN
 10
677.07
 20
545
 30
0
 11
680
 21
547.93
 31
0
  0
LINE
  5
87
100
AcDbEntity
  8
200
100
AcDbLine
370
-1
  6
AUSGEZOGEN
 10
50
 20
547.93
 30
0
 11
52.93
 21
545
 31
0
  0
LINE
  5
88
100
AcDbEntity
  8
200
100
AcDbLine
370
-1
  6
AUSGEZOGEN
 10
50
 20
562.07
 30
0
 11
50
 21
547.93
 31
0
  0
LINE
  5
89
100
AcDbEntity
  8
200
100
AcDbLine
370
-1
  6
AUSGEZOGEN
 10
52.93
 20
565
 30
0
 11
50
 21
562.07
 31
0
  0
LINE
  5
8A
100
AcDbEntity
  8
200
100
AcDbLine
370
-1
  6
AUSGEZOGEN
 10
677.07
 20
565
 30
0
 11
52.93
 21
565
 31
0
  0
LINE
  5
8B
100
AcDbEntity
  8
200
100
AcDbLine
370
-1
  6
AUSGEZOGEN
 10
680
 20
547.93
 30
0
 11
680
 21
562.07
 31
0
  0
LINE
  5
8C
100
AcDbEntity
  8
200
100
AcDbLine
370
-1
  6
AUSGEZOGEN
 10
52.93
 20
545
 30
0
 11
677.07
 21
545
 31
0
  0
LINE
  5
8D
100
AcDbEntity
  8
200
100
AcDbLine
370
-1
  6
AUSGEZOGEN
 10
680
 20
602.07
 30
0
 11
677.07
 21
605
 31
0
  0
LINE
  5
8E
100
AcDbEntity
  8
200
100
AcDbLine
370
-1
  6
AUSGEZOGEN
 10
677.07
 20
585
 30
0
 11
680
 21
587.93
 31
0
  0
LINE
  5
8F
100
AcDbEntity
  8
200
100
AcDbLine
370
-1
  6
AUSGEZOGEN
 10
50
 20
587.93
 30
0
 11
52.93
 21
585
 31
0
  0
LINE
  5
90
100
AcDbEntity
  8
200
100
AcDbLine
370
-1
  6
AUSGEZOGEN
 10
50
 20
602.07
 30
0
 11
50
 21
587.93
 31
0
  0
LINE
  5
91
100
AcDbEntity
  8
200
100
AcDbLine
370
-1
  6
AUSGEZOGEN
 10
52.93
 20
605
 30
0
 11
50
 21
602.07
 31
0
  0
LINE
  5
92
100
AcDbEntity
  8
200
100
AcDbLine
370
-1
  6
AUSGEZOGEN
 10
677.07
 20
605
 30
0
 11
52.93
 21
605
 31
0
  0
LINE
  5
93
100
AcDbEntity
  8
200
100
AcDbLine
370
-1
  6
AUSGEZOGEN
 10
680
 20
587.93
 30
0
 11
680
 21
602.07
 31
0
  0
LINE
  5
94
100
AcDbEntity
  8
200
100
AcDbLine
370
-1
  6
AUSGEZOGEN
 10
52.93
 20
585
 30
0
 11
677.07
 21
585
 31
0
  0
LINE
  5
95
100
AcDbEntity
  8
200
100
AcDbLine
370
-1
  6
AUSGEZOGEN
 10
1140
 20
547.96
 30
0
 11
1146.09
 21
562.66
 31
0
  0
LINE
  5
96
100
AcDbEntity
  8
200
100
AcDbLine
370
-1
  6
AUSGEZOGEN
 10
1157.34
 20
573.91
 30
0
 11
1146.09
 21
562.66
 31
0
  0
LINE
  5
97
100
AcDbEntity
  8
200
100
AcDbLine
370
-1
  6
AUSGEZOGEN
 10
1172.04
 20
580
 30
0
 11
1157.34
 21
573.91
 31
0
  0
LINE
  5
98
100
AcDbEntity
  8
200
100
AcDbLine
370
-1
  6
AUSGEZOGEN
 10
1507.96
 20
580
 30
0
 11
1172.04
 21
580
 31
0
  0
LINE
  5
99
100
AcDbEntity
  8
200
100
AcDbLine
370
-1
  6
AUSGEZOGEN
 10
1522.66
 20
573.91
 30
0
 11
1507.96
 21
580
 31
0
  0
LINE
  5
9A
100
AcDbEntity
  8
200
100
AcDbLine
370
-1
  6
AUSGEZOGEN
 10
1533.91
 20
562.66
 30
0
 11
1522.66
 21
573.91
 31
0
  0
LINE
  5
9B
100
AcDbEntity
  8
200
100
AcDbLine
370
-1
  6
AUSGEZOGEN
 10
1540
 20
547.96
 30
0
 11
1533.91
 21
562.66
 31
0
  0
LINE
  5
9C
100
AcDbEntity
  8
200
100
AcDbLine
370
-1
  6
AUSGEZOGEN
 10
1540
 20
112.04
 30
0
 11
1540
 21
547.96
 31
0
  0
LINE
  5
9D
100
AcDbEntity
  8
200
100
AcDbLine
370
-1
  6
AUSGEZOGEN
 10
1533.91
 20
97.34
 30
0
 11
1540
 21
112.04
 31
0
  0
LINE
  5
9E
100
AcDbEntity
  8
200
100
AcDbLine
370
-1
  6
AUSGEZOGEN
 10
1522.66
 20
86.09
 30
0
 11
1533.91
 21
97.34
 31
0
  0
LINE
  5
9F
100
AcDbEntity
  8
200
100
AcDbLine
370
-1
  6
AUSGEZOGEN
 10
1507.96
 20
80
 30
0
 11
1522.66
 21
86.09
 31
0
  0
LINE
  5
A0
100
AcDbEntity
  8
200
100
AcDbLine
370
-1
  6
AUSGEZOGEN
 10
1172.04
 20
80
 30
0
 11
1507.96
 21
80
 31
0
  0
LINE
  5
A1
100
AcDbEntity
  8
200
100
AcDbLine
370
-1
  6
AUSGEZOGEN
 10
1157.34
 20
86.09
 30
0
 11
1172.04
 21
80
 31
0
  0
LINE
  5
A2
100
AcDbEntity
  8
200
100
AcDbLine
370
-1
  6
AUSGEZOGEN
 10
1146.09
 20
97.34
 30
0
 11
1157.34
 21
86.09
 31
0
  0
LINE
  5
A3
100
AcDbEntity
  8
200
100
AcDbLine
370
-1
  6
AUSGEZOGEN
 10
1140
 20
112.04
 30
0
 11
1146.09
 21
97.34
 31
0
  0
LINE
  5
A4
100
AcDbEntity
  8
200
100
AcDbLine
370
-1
  6
AUSGEZOGEN
 10
1140
 20
547.96
 30
0
 11
1140
 21
112.04
 31
0
  0
LINE
  5
A5
100
AcDbEntity
  8
200
100
AcDbLine
370
-1
  6
AUSGEZOGEN
 10
1533.81
 20
562.56
 30
0
 11
1522.56
 21
573.81
 31
0
  0
LINE
  5
A6
100
AcDbEntity
  8
200
100
AcDbLine
370
-1
  6
AUSGEZOGEN
 10
1146.19
 20
97.44
 30
0
 11
1157.44
 21
86.19
 31
0
  0
LINE
  5
A7
100
AcDbEntity
  8
200
100
AcDbLine
370
-1
  6
AUSGEZOGEN
 10
1157.44
 20
573.81
 30
0
 11
1146.19
 21
562.56
 31
0
  0
LINE
  5
A8
100
AcDbEntity
  8
200
100
AcDbLine
370
-1
  6
AUSGEZOGEN
 10
1522.56
 20
86.19
 30
0
 11
1533.81
 21
97.44
 31
0
  0
LINE
  5
A9
100
AcDbEntity
  8
200
100
AcDbLine
370
-1
  6
AUSGEZOGEN
 10
1172.12
 20
579.9
 30
0
 11
1507.88
 21
579.9
 31
0
  0
LINE
  5
AA
100
AcDbEntity
  8
200
100
AcDbLine
370
-1
  6
AUSGEZOGEN
 10
1507.88
 20
80.1
 30
0
 11
1172.12
 21
80.1
 31
0
  0
LINE
  5
AB
100
AcDbEntity
  8
200
100
AcDbLine
370
-1
  6
AUSGEZOGEN
 10
1140.1
 20
547.88
 30
0
 11
1140.1
 21
112.12
 31
0
  0
LINE
  5
AC
100
AcDbEntity
  8
200
100
AcDbLine
370
-1
  6
AUSGEZOGEN
 10
1539.9
 20
112.12
 30
0
 11
1539.9
 21
547.88
 31
0
  0
LINE
  5
AD
100
AcDbEntity
  8
200
100
AcDbLine
370
-1
  6
AUSGEZOGEN
 10
1533.81
 20
562.56
 30
0
 11
1539.9
 21
547.88
 31
0
  0
LINE
  5
AE
100
AcDbEntity
  8
200
100
AcDbLine
370
-1
  6
AUSGEZOGEN
 10
1146.19
 20
97.44
 30
0
 11
1140.1
 21
112.12
 31
0
  0
LINE
  5
AF
100
AcDbEntity
  8
200
100
AcDbLine
370
-1
  6
AUSGEZOGEN
 10
1172.12
 20
579.9
 30
0
 11
1157.44
 21
573.81
 31
0
  0
LINE
  5
B0
100
AcDbEntity
  8
200
100
AcDbLine
370
-1
  6
AUSGEZOGEN
 10
1522.56
 20
86.19
 30
0
 11
1507.88
 21
80.1
 31
0
  0
LINE
  5
B1
100
AcDbEntity
  8
200
100
AcDbLine
370
-1
  6
AUSGEZOGEN
 10
1507.87
 20
579.9
 30
0
 11
1522.56
 21
573.81
 31
0
  0
LINE
  5
B2
100
AcDbEntity
  8
200
100
AcDbLine
370
-1
  6
AUSGEZOGEN
 10
1157.44
 20
86.19
 30
0
 11
1172.13
 21
80.1
 31
0
  0
LINE
  5
B3
100
AcDbEntity
  8
200
100
AcDbLine
370
-1
  6
AUSGEZOGEN
 10
1146.19
 20
562.56
 30
0
 11
1140.1
 21
547.87
 31
0
  0
LINE
  5
B4
100
AcDbEntity
  8
200
100
AcDbLine
370
-1
  6
AUSGEZOGEN
 10
1533.81
 20
97.44
 30
0
 11
1539.9
 21
112.13
 31
0
  0
LINE
  5
B5
100
AcDbEntity
  8
200
100
AcDbLine
370
-1
  6
AUSGEZOGEN
 10
1221.7
 20
530
 30
0
 11
1233.3
 21
523.3
 31
0
  0
LINE
  5
B6
100
AcDbEntity
  8
200
100
AcDbLine
370
-1
  6
AUSGEZOGEN
 10
1240
 20
511.7
 30
0
 11
1233.3
 21
523.3
 31
0
  0
LINE
  5
B7
100
AcDbEntity
  8
200
100
AcDbLine
370
-1
  6
AUSGEZOGEN
 10
1233.3
 20
486.7
 30
0
 11
1240
 21
498.3
 31
0
  0
LINE
  5
B8
100
AcDbEntity
  8
200
100
AcDbLine
370
-1
  6
AUSGEZOGEN
 10
1221.7
 20
480
 30
0
 11
1233.3
 21
486.7
 31
0
  0
LINE
  5
B9
100
AcDbEntity
  8
200
100
AcDbLine
370
-1
  6
AUSGEZOGEN
 10
1196.7
 20
486.7
 30
0
 11
1208.3
 21
480
 31
0
  0
LINE
  5
BA
100
AcDbEntity
  8
200
100
AcDbLine
370
-1
  6
AUSGEZOGEN
 10
1190
 20
498.3
 30
0
 11
1196.7
 21
486.7
 31
0
  0
LINE
  5
BB
100
AcDbEntity
  8
200
100
AcDbLine
370
-1
  6
AUSGEZOGEN
 10
1190
 20
511.7
 30
0
 11
1190
 21
498.3
 31
0
  0
LINE
  5
BC
100
AcDbEntity
  8
200
100
AcDbLine
370
-1
  6
AUSGEZOGEN
 10
1196.7
 20
523.3
 30
0
 11
1190
 21
511.7
 31
0
  0
LINE
  5
BD
100
AcDbEntity
  8
200
100
AcDbLine
370
-1
  6
AUSGEZOGEN
 10
1208.3
 20
530
 30
0
 11
1196.7
 21
523.3
 31
0
  0
LINE
  5
BE
100
AcDbEntity
  8
200
100
AcDbLine
370
-1
  6
AUSGEZOGEN
 10
1221.7
 20
530
 30
0
 11
1208.3
 21
530
 31
0
  0
LINE
  5
BF
100
AcDbEntity
  8
200
100
AcDbLine
370
-1
  6
AUSGEZOGEN
 10
1240
 20
498.3
 30
0
 11
1240
 21
511.7
 31
0
  0
LINE
  5
C0
100
AcDbEntity
  8
200
100
AcDbLine
370
-1
  6
AUSGEZOGEN
 10
1208.3
 20
480
 30
0
 11
1221.7
 21
480
 31
0
  0
LINE
  5
C1
100
AcDbEntity
  8
200
100
AcDbLine
370
-1
  6
AUSGEZOGEN
 10
0
 20
0
 30
0
 11
1600
 21
0
 31
0
  0
LINE
  5
C2
100
AcDbEntity
  8
200
100
AcDbLine
370
-1
  6
AUSGEZOGEN
 10
1600
 20
700
 30
0
 11
0
 21
700
 31
0
  0
LINE
  5
C3
100
AcDbEntity
  8
200
100
AcDbLine
370
-1
  6
AUSGEZOGEN
 10
1134.02
 20
630
 30
0
 11
1140.98
 21
625.98
 31
0
  0
LINE
  5
C4
100
AcDbEntity
  8
200
100
AcDbLine
370
-1
  6
AUSGEZOGEN
 10
1145
 20
619.02
 30
0
 11
1140.98
 21
625.98
 31
0
  0
LINE
  5
C5
100
AcDbEntity
  8
200
100
AcDbLine
370
-1
  6
AUSGEZOGEN
 10
1140.98
 20
604.02
 30
0
 11
1145
 21
610.98
 31
0
  0
LINE
  5
C6
100
AcDbEntity
  8
200
100
AcDbLine
370
-1
  6
AUSGEZOGEN
 10
1134.02
 20
600
 30
0
 11
1140.98
 21
604.02
 31
0
  0
LINE
  5
C7
100
AcDbEntity
  8
200
100
AcDbLine
370
-1
  6
AUSGEZOGEN
 10
1119.02
 20
604.02
 30
0
 11
1125.98
 21
600
 31
0
  0
LINE
  5
C8
100
AcDbEntity
  8
200
100
AcDbLine
370
-1
  6
AUSGEZOGEN
 10
1115
 20
610.98
 30
0
 11
1119.02
 21
604.02
 31
0
  0
LINE
  5
C9
100
AcDbEntity
  8
200
100
AcDbLine
370
-1
  6
AUSGEZOGEN
 10
1115
 20
619.02
 30
0
 11
1115
 21
610.98
 31
0
  0
LINE
  5
CA
100
AcDbEntity
  8
200
100
AcDbLine
370
-1
  6
AUSGEZOGEN
 10
1119.02
 20
625.98
 30
0
 11
1115
 21
619.02
 31
0
  0
LINE
  5
CB
100
AcDbEntity
  8
200
100
AcDbLine
370
-1
  6
AUSGEZOGEN
 10
1125.98
 20
630
 30
0
 11
1119.02
 21
625.98
 31
0
  0
LINE
  5
CC
100
AcDbEntity
  8
200
100
AcDbLine
370
-1
  6
AUSGEZOGEN
 10
1134.02
 20
630
 30
0
 11
1125.98
 21
630
 31
0
  0
LINE
  5
CD
100
AcDbEntity
  8
200
100
AcDbLine
370
-1
  6
AUSGEZOGEN
 10
1145
 20
610.98
 30
0
 11
1145
 21
619.02
 31
0
  0
LINE
  5
CE
100
AcDbEntity
  8
200
100
AcDbLine
370
-1
  6
AUSGEZOGEN
 10
1125.98
 20
600
 30
0
 11
1134.02
 21
600
 31
0
  0
LINE
  5
CF
100
AcDbEntity
  8
200
100
AcDbLine
370
-1
  6
AUSGEZOGEN
 10
1580
 20
36.02
 30
0
 11
1580
 21
663.98
 31
0
  0
LINE
  5
D0
100
AcDbEntity
  8
200
100
AcDbLine
370
-1
  6
AUSGEZOGEN
 10
20
 20
663.98
 30
0
 11
20
 21
36.02
 31
0
  0
LINE
  5
D1
100
AcDbEntity
  8
200
100
AcDbLine
370
-1
  6
AUSGEZOGEN
 10
1563.98
 20
20
 30
0
 11
36.02
 21
20
 31
0
  0
LINE
  5
D2
100
AcDbEntity
  8
200
100
AcDbLine
370
-1
  6
AUSGEZOGEN
 10
36.02
 20
680
 30
0
 11
1563.98
 21
680
 31
0
  0
LINE
  5
D3
100
AcDbEntity
  8
200
100
AcDbLine
370
-1
  6
AUSGEZOGEN
 10
1576.96
 20
28.67
 30
0
 11
1571.33
 21
23.04
 31
0
  0
LINE
  5
D4
100
AcDbEntity
  8
200
100
AcDbLine
370
-1
  6
AUSGEZOGEN
 10
23.04
 20
671.33
 30
0
 11
28.67
 21
676.96
 31
0
  0
LINE
  5
D5
100
AcDbEntity
  8
200
100
AcDbLine
370
-1
  6
AUSGEZOGEN
 10
28.67
 20
23.04
 30
0
 11
23.04
 21
28.67
 31
0
  0
LINE
  5
D6
100
AcDbEntity
  8
200
100
AcDbLine
370
-1
  6
AUSGEZOGEN
 10
1571.33
 20
676.96
 30
0
 11
1576.96
 21
671.33
 31
0
  0
LINE
  5
D7
100
AcDbEntity
  8
200
100
AcDbLine
370
-1
  6
AUSGEZOGEN
 10
1576.95
 20
28.67
 30
0
 11
1580
 21
36.02
 31
0
  0
LINE
  5
D8
100
AcDbEntity
  8
200
100
AcDbLine
370
-1
  6
AUSGEZOGEN
 10
23.05
 20
671.33
 30
0
 11
20
 21
663.98
 31
0
  0
LINE
  5
D9
100
AcDbEntity
  8
200
100
AcDbLine
370
-1
  6
AUSGEZOGEN
 10
36.02
 20
20
 30
0
 11
28.67
 21
23.05
 31
0
  0
LINE
  5
DA
100
AcDbEntity
  8
200
100
AcDbLine
370
-1
  6
AUSGEZOGEN
 10
1571.33
 20
676.95
 30
0
 11
1563.98
 21
680
 31
0
  0
LINE
  5
DB
100
AcDbEntity
  8
200
100
AcDbLine
370
-1
  6
AUSGEZOGEN
 10
1563.98
 20
20
 30
0
 11
1571.33
 21
23.04
 31
0
  0
LINE
  5
DC
100
AcDbEntity
  8
200
100
AcDbLine
370
-1
  6
AUSGEZOGEN
 10
28.67
 20
676.96
 30
0
 11
36.02
 21
680
 31
0
  0
LINE
  5
DD
100
AcDbEntity
  8
200
100
AcDbLine
370
-1
  6
AUSGEZOGEN
 10
23.04
 20
28.67
 30
0
 11
20
 21
36.02
 31
0
  0
LINE
  5
DE
100
AcDbEntity
  8
200
100
AcDbLine
370
-1
  6
AUSGEZOGEN
 10
1576.96
 20
671.33
 30
0
 11
1580
 21
663.98
 31
0
  0
LINE
  5
DF
100
AcDbEntity
  8
200
100
AcDbLine
370
-1
  6
AUSGEZOGEN
 10
0
 20
690
 30
0
 11
1600
 21
690
 31
0
  0
LINE
  5
E0
100
AcDbEntity
  8
200
100
AcDbLine
370
-1
  6
AUSGEZOGEN
 10
0
 20
0
 30
0
 11
0
 21
700
 31
0
  0
LINE
  5
E1
100
AcDbEntity
  8
200
100
AcDbLine
370
-1
  6
AUSGEZOGEN
 10
1600
 20
700
 30
0
 11
1600
 21
0
 31
0
  0
LINE
  5
E2
100
AcDbEntity
  8
200
100
AcDbLine
370
-1
  6
AUSGEZOGEN
 10
1120
 20
547.96
 30
0
 11
1113.91
 21
562.66
 31
0
  0
LINE
  5
E3
100
AcDbEntity
  8
200
100
AcDbLine
370
-1
  6
AUSGEZOGEN
 10
1102.66
 20
573.91
 30
0
 11
1113.91
 21
562.66
 31
0
  0
LINE
  5
E4
100
AcDbEntity
  8
200
100
AcDbLine
370
-1
  6
AUSGEZOGEN
 10
1087.96
 20
580
 30
0
 11
1102.66
 21
573.91
 31
0
  0
LINE
  5
E5
100
AcDbEntity
  8
200
100
AcDbLine
370
-1
  6
AUSGEZOGEN
 10
752.04
 20
580
 30
0
 11
1087.96
 21
580
 31
0
  0
LINE
  5
E6
100
AcDbEntity
  8
200
100
AcDbLine
370
-1
  6
AUSGEZOGEN
 10
737.34
 20
573.91
 30
0
 11
752.04
 21
580
 31
0
  0
LINE
  5
E7
100
AcDbEntity
  8
200
100
AcDbLine
370
-1
  6
AUSGEZOGEN
 10
726.09
 20
562.66
 30
0
 11
737.34
 21
573.91
 31
0
  0
LINE
  5
E8
100
AcDbEntity
  8
200
100
AcDbLine
370
-1
  6
AUSGEZOGEN
 10
720
 20
547.96
 30
0
 11
726.09
 21
562.66
 31
0
  0
LINE
  5
E9
100
AcDbEntity
  8
200
100
AcDbLine
370
-1
  6
AUSGEZOGEN
 10
720
 20
112.04
 30
0
 11
720
 21
547.96
 31
0
  0
LINE
  5
EA
100
AcDbEntity
  8
200
100
AcDbLine
370
-1
  6
AUSGEZOGEN
 10
726.09
 20
97.34
 30
0
 11
720
 21
112.04
 31
0
  0
LINE
  5
EB
100
AcDbEntity
  8
200
100
AcDbLine
370
-1
  6
AUSGEZOGEN
 10
737.34
 20
86.09
 30
0
 11
726.09
 21
97.34
 31
0
  0
LINE
  5
EC
100
AcDbEntity
  8
200
100
AcDbLine
370
-1
  6
AUSGEZOGEN
 10
752.04
 20
80
 30
0
 11
737.34
 21
86.09
 31
0
  0
LINE
  5
ED
100
AcDbEntity
  8
200
100
AcDbLine
370
-1
  6
AUSGEZOGEN
 10
1087.96
 20
80
 30
0
 11
752.04
 21
80
 31
0
  0
LINE
  5
EE
100
AcDbEntity
  8
200
100
AcDbLine
370
-1
  6
AUSGEZOGEN
 10
1102.66
 20
86.09
 30
0
 11
1087.96
 21
80
 31
0
  0
LINE
  5
EF
100
AcDbEntity
  8
200
100
AcDbLine
370
-1
  6
AUSGEZOGEN
 10
1113.91
 20
97.34
 30
0
 11
1102.66
 21
86.09
 31
0
  0
LINE
  5
F0
100
AcDbEntity
  8
200
100
AcDbLine
370
-1
  6
AUSGEZOGEN
 10
1120
 20
112.04
 30
0
 11
1113.91
 21
97.34
 31
0
  0
LINE
  5
F1
100
AcDbEntity
  8
200
100
AcDbLine
370
-1
  6
AUSGEZOGEN
 10
1120
 20
547.96
 30
0
 11
1120
 21
112.04
 31
0
  0
LINE
  5
F2
100
AcDbEntity
  8
200
100
AcDbLine
370
-1
  6
AUSGEZOGEN
 10
737.44
 20
573.81
 30
0
 11
726.19
 21
562.56
 31
0
  0
LINE
  5
F3
100
AcDbEntity
  8
200
100
AcDbLine
370
-1
  6
AUSGEZOGEN
 10
1102.56
 20
86.19
 30
0
 11
1113.81
 21
97.44
 31
0
  0
LINE
  5
F4
100
AcDbEntity
  8
200
100
AcDbLine
370
-1
  6
AUSGEZOGEN
 10
1113.81
 20
562.56
 30
0
 11
1102.56
 21
573.81
 31
0
  0
LINE
  5
F5
100
AcDbEntity
  8
200
100
AcDbLine
370
-1
  6
AUSGEZOGEN
 10
726.19
 20
97.44
 30
0
 11
737.44
 21
86.19
 31
0
  0
LINE
  5
F6
100
AcDbEntity
  8
200
100
AcDbLine
370
-1
  6
AUSGEZOGEN
 10
1087.88
 20
579.9
 30
0
 11
752.12
 21
579.9
 31
0
  0
LINE
  5
F7
100
AcDbEntity
  8
200
100
AcDbLine
370
-1
  6
AUSGEZOGEN
 10
752.12
 20
80.1
 30
0
 11
1087.88
 21
80.1
 31
0
  0
LINE
  5
F8
100
AcDbEntity
  8
200
100
AcDbLine
370
-1
  6
AUSGEZOGEN
 10
1119.9
 20
547.88
 30
0
 11
1119.9
 21
112.12
 31
0
  0
LINE
  5
F9
100
AcDbEntity
  8
200
100
AcDbLine
370
-1
  6
AUSGEZOGEN
 10
720.1
 20
112.12
 30
0
 11
720.1
 21
547.88
 31
0
  0
LINE
  5
FA
100
AcDbEntity
  8
200
100
AcDbLine
370
-1
  6
AUSGEZOGEN
 10
726.19
 20
562.56
 30
0
 11
720.1
 21
547.88
 31
0
  0
LINE
  5
FB
100
AcDbEntity
  8
200
100
AcDbLine
370
-1
  6
AUSGEZOGEN
 10
1113.81
 20
97.44
 30
0
 11
1119.9
 21
112.12
 31
0
  0
LINE
  5
FC
100
AcDbEntity
  8
200
100
AcDbLine
370
-1
  6
AUSGEZOGEN
 10
1087.88
 20
579.9
 30
0
 11
1102.56
 21
573.81
 31
0
  0
LINE
  5
FD
100
AcDbEntity
  8
200
100
AcDbLine
370
-1
  6
AUSGEZOGEN
 10
737.44
 20
86.19
 30
0
 11
752.12
 21
80.1
 31
0
  0
LINE
  5
FE
100
AcDbEntity
  8
200
100
AcDbLine
370
-1
  6
AUSGEZOGEN
 10
752.13
 20
579.9
 30
0
 11
737.44
 21
573.81
 31
0
  0
LINE
  5
FF
100
AcDbEntity
  8
200
100
AcDbLine
370
-1
  6
AUSGEZOGEN
 10
1102.56
 20
86.19
 30
0
 11
1087.87
 21
80.1
 31
0
  0
LINE
  5
100
100
AcDbEntity
  8
200
100
AcDbLine
370
-1
  6
AUSGEZOGEN
 10
1113.81
 20
562.56
 30
0
 11
1119.9
 21
547.87
 31
0
  0
LINE
  5
101
100
AcDbEntity
  8
200
100
AcDbLine
370
-1
  6
AUSGEZOGEN
 10
726.19
 20
97.44
 30
0
 11
720.1
 21
112.13
 31
0
  0
LINE
  5
102
100
AcDbEntity
  8
200
100
AcDbLine
370
-1
  6
AUSGEZOGEN
 10
1063.3
 20
523.3
 30
0
 11
1051.7
 21
530
 31
0
  0
LINE
  5
103
100
AcDbEntity
  8
200
100
AcDbLine
370
-1
  6
AUSGEZOGEN
 10
1070
 20
511.7
 30
0
 11
1063.3
 21
523.3
 31
0
  0
LINE
  5
104
100
AcDbEntity
  8
200
100
AcDbLine
370
-1
  6
AUSGEZOGEN
 10
1070
 20
498.3
 30
0
 11
1070
 21
511.7
 31
0
  0
LINE
  5
105
100
AcDbEntity
  8
200
100
AcDbLine
370
-1
  6
AUSGEZOGEN
 10
1063.3
 20
486.7
 30
0
 11
1070
 21
498.3
 31
0
  0
LINE
  5
106
100
AcDbEntity
  8
200
100
AcDbLine
370
-1
  6
AUSGEZOGEN
 10
1051.7
 20
480
 30
0
 11
1063.3
 21
486.7
 31
0
  0
LINE
  5
107
100
AcDbEntity
  8
200
100
AcDbLine
370
-1
  6
AUSGEZOGEN
 10
1038.3
 20
480
 30
0
 11
1051.7
 21
480
 31
0
  0
LINE
  5
108
100
AcDbEntity
  8
200
100
AcDbLine
370
-1
  6
AUSGEZOGEN
 10
1026.7
 20
486.7
 30
0
 11
1038.3
 21
480
 31
0
  0
LINE
  5
109
100
AcDbEntity
  8
200
100
AcDbLine
370
-1
  6
AUSGEZOGEN
 10
1020
 20
498.3
 30
0
 11
1026.7
 21
486.7
 31
0
  0
LINE
  5
10A
100
AcDbEntity
  8
200
100
AcDbLine
370
-1
  6
AUSGEZOGEN
 10
1026.7
 20
523.3
 30
0
 11
1020
 21
511.7
 31
0
  0
LINE
  5
10B
100
AcDbEntity
  8
200
100
AcDbLine
370
-1
  6
AUSGEZOGEN
 10
1038.3
 20
530
 30
0
 11
1026.7
 21
523.3
 31
0
  0
LINE
  5
10C
100
AcDbEntity
  8
200
100
AcDbLine
370
-1
  6
AUSGEZOGEN
 10
1020
 20
498.3
 30
0
 11
1020
 21
511.7
 31
0
  0
LINE
  5
10D
100
AcDbEntity
  8
200
100
AcDbLine
370
-1
  6
AUSGEZOGEN
 10
1051.7
 20
530
 30
0
 11
1038.3
 21
530
 31
0
  0
ATTDEF
  5
10F
100
AcDbEntity
  8
0
100
AcDbText
370
-1
 10
0
 20
0
 30
0
 40
1
  1

 50
0
 41
1
 51
0
  7
STANDARD
 71
0
 72
0
 11
0
 21
0
 31
0
100
AcDbAttributeDefinition
  3

  2

 70
0
 74
0
1001
AcDbAttr
1070
0
1070
0
  0
ENDBLK
  5
12C
100
AcDbEntity
  8
0
100
AcDbBlockEnd
  0
BLOCK
  5
115
100
AcDbEntity
  8
420
100
AcDbBlockBegin
  2
INST_BLOCK_00001
 70
2
 10
0
 20
0
 30
0
  3
INST_BLOCK_00001
  1

  0
CIRCLE
  5
20
100
AcDbEntity
  8
420
100
AcDbCircle
370
-1
  6
AUSGEZOGEN
 10
1150
 20
700
 30
0
 40
50
  0
LINE
  5
21
100
AcDbEntity
  8
420
100
AcDbLine
370
-1
  6
AUSGEZOGEN
 10
1225
 20
700
 30
0
 11
1150
 21
700
 31
0
  0
LINE
  5
22
100
AcDbEntity
  8
420
100
AcDbLine
370
-1
  6
AUSGEZOGEN
 10
1075
 20
700
 30
0
 11
1150
 21
700
 31
0
  0
LINE
  5
23
100
AcDbEntity
  8
420
100
AcDbLine
370
-1
  6
AUSGEZOGEN
 10
1150
 20
775
 30
0
 11
1150
 21
700
 31
0
  0
LINE
  5
24
100
AcDbEntity
  8
420
100
AcDbLine
370
-1
  6
AUSGEZOGEN
 10
1150
 20
625
 30
0
 11
1150
 21
700
 31
0
  0
ATTDEF
  5
114
100
AcDbEntity
  8
0
100
AcDbText
370
-1
 10
0
 20
0
 30
0
 40
1
  1

 50
0
 41
1
 51
0
  7
STANDARD
 71
0
 72
0
 11
0
 21
0
 31
0
100
AcDbAttributeDefinition
  3

  2

 70
0
 74
0
1001
AcDbAttr
1070
0
1070
0
  0
ENDBLK
  5
12D
100
AcDbEntity
  8
0
100
AcDbBlockEnd
  0
ENDSEC
  0
SECTION
  2
ENTITIES
  0
LINE
  5
1C
100
AcDbEntity
  8
420
100
AcDbLine
370
-1
  6
AUSGEZOGEN
 10
1150
 20
700
 30
0
 11
1986.5
 21
566.5
 31
0
  0
LINE
  5
1F
100
AcDbEntity
  8
420
100
AcDbLine
370
-1
  6
AUSGEZOGEN
 10
2170.96
 20
566.5
 30
0
 11
1986.5
 21
566.5
 31
0
  0
TEXT
  5
10E
100
AcDbEntity
  8
420
100
AcDbText
370
-1
 10
2000
 20
580
 30
0
 40
45
  1
A: DN50
 50
0
 41
0.600000023841858
 51
0
  7
STANDARD
 71
0
 72
0
 11
0
 21
0
 31
0
100
AcDbText
 73
0
  0
INSERT
  5
113
100
AcDbEntity
  8
200
100
AcDbBlockReference
370
-1
  6
BYLAYER
 66
1
  2
GER_BLOCK_00001
 10
0
 20
0
 30
0
 41
1
 42
1
 43
1
  0
ATTRIB
  5
112
100
AcDbEntity
  8
0
100
AcDbText
370
-1
 10
0
 20
0
 30
0
 40
20
  1

 50
0
 41
1
 51
0
  7
STANDARD
 71
0
 72
0
 11
0
 21
0
 31
0
100
AcDbAttribute
  2

 70
0
 74
0
1001
AcDbAttr
1070
0
1070
0
  0
SEQEND
  5
12E
100
AcDbEntity
  8
0
  0
INSERT
  5
118
100
AcDbEntity
  8
420
100
AcDbBlockReference
370
-1
  6
BYLAYER
 66
1
  2
INST_BLOCK_00001
 10
0
 20
0
 30
0
 41
1
 42
1
 43
1
  0
ATTRIB
  5
117
100
AcDbEntity
  8
0
100
AcDbText
370
-1
 10
0
 20
0
 30
0
 40
20
  1

 50
0
 41
1
 51
0
  7
STANDARD
 71
0
 72
0
 11
0
 21
0
 31
0
100
AcDbAttribute
  2

 70
0
 74
0
1001
AcDbAttr
1070
0
1070
0
  0
SEQEND
  5
12F
100
AcDbEntity
  8
0
  0
ATTDEF
  5
119
100
AcDbEntity
  8
550
100
AcDbText
370
-1
 10
10
 20
100
 30
0
 40
30
  1

 50
0
 41
1
 51
0
  7
STANDARD
 71
0
 72
0
 11
0
 21
0
 31
0
100
AcDbAttributeDefinition
  3
KBS-92022101
  2
KBS-92022101
 70
1
 74
0
1001
AcDbAttr
1070
0
1070
0
  0
TEXT
  5
11A
100
AcDbEntity
  8
510
100
AcDbText
370
-1
 10
10
 20
-45
 30
0
 40
30
  1

 50
0
 41
1
 51
0
  7
STANDARD
 71
0
 72
0
 11
0
 21
0
 31
0
100
AcDbText
 73
0
  0
ENDSEC
  0
SECTION
  2
OBJECTS
  0
DICTIONARY
  5
130
100
AcDbDictionary
  3
ACAD_GROUP
350
131
  3
ACAD_MATERIAL
350
132
  3
ACAD_WIPEOUT_VARS
350
133
  3
ACAD_MLINESTYLE
350
134
  3
ACAD_LAYOUT
350
135
  0
DICTIONARY
  5
131
330
130
100
AcDbDictionary
  0
DICTIONARY
  5
132
330
130
100
AcDbDictionary
  0
WIPEOUTVARIABLES
  5
133
330
130
100
AcDbWipeoutVariables
 70
1
  0
DICTIONARY
  5
134
330
130
100
AcDbDictionary
  3
STANDARD
350
136
  0
MLINESTYLE
  5
136
100
AcDbMlineStyle
  2
STANDARD
 70
0
  3

 62
256
 51
90
 52
90
 71
2
 49
0.5
 62
256
  6
ByLayer
 49
-0.5
 62
256
  6
ByLayer
  0
DICTIONARY
  5
135
100
AcDbDictionary
281
1
  3
Model
350
11B
  0
LAYOUT
  5
11B
102
{ACAD_REACTORS
330
135
102
}
330
135
100
AcDbPlotSettings
  1

  2
none_device
  4

  6

 40
0
 41
0
 42
0
 43
0
 44
0
 45
0
 46
0
 47
0
 48
0
 49
0
 70
1712
 72
1
 73
0
 74
5
 75
16
 76
0
 77
0
 78
100
140
0
141
0
142
1
143
1
147
1
148
0
149
0
100
AcDbLayout
  1
Model
 70
1
 71
1
 10
0
 20
0
 11
2170.96
 21
775
 12
0
 22
0
 32
0
 14
0
 24
0
 34
0
 15
2170.96
 25
775
 35
0
146
0
 13
0
 23
0
 33
0
 16
1
 26
0
 36
0
 17
0
 27
1
 37
0
 76
0
330
1E
  0
DICTIONARY
  5
137
100
AcDbDictionary
280
1
  3
XINFO
360
138
  0
XRECORD
  5
138
102
{ACAD_REACTORS
330
137
102
}
330
137
100
AcDbXrecord
280
0
310
8F24010003000900
311
4F8F7ECE3C83404C
  0
ENDSEC
  0
EOF
