999
     Created by SWS GmbH, Paderborn, Germany, www.sws-online.de
999
     and  Soft Gold Ltd. www.cadsofttools.com
999

999
SWS-intern Ausgabemassstab:
999
   0.0500
999

999
SWS-intern Koordinatenwerte 1:1:
999
1
999

  0
SECTION
  2
HEADER
  9
$ACADVER
  1
AC1018
  9
$DWGCODEPAGE
  3
ANSI_1252
  9
$CLAYER
  8
0
  9
$CELTYPE
  6
BYLAYER
  9
$CELTSCALE
 40
1
  9
$CELWEIGHT
370
-1
  9
$DIMALT
 70
0
  9
$DIMALTF
 40
1
  9
$DIMPOST
  1

  9
$DIMAPOST
  1

  9
$DIMSCALE
 40
1
  9
$DIMASZ
 40
0.18
  9
$DIMCLRD
 70
0
  9
$DIMCLRE
 70
0
  9
$DIMCLRT
 70
0
  9
$DIMEXE
 40
0.18
  9
$DIMEXO
 40
0.0625
  9
$DIMGAP
 40
0.0625
  9
$DIMLFAC
 40
1
  9
$DIMDEC
 70
4
  9
$DIMTAD
 70
0
  9
$DIMCEN
 40
0.09
  9
$DIMTIH
 70
1
  9
$DIMTIX
 70
0
  9
$DIMTOH
 70
1
  9
$DIMSE1
 70
0
  9
$DIMSE2
 70
0
  9
$DIMSD1
 70
0
  9
$DIMSD2
 70
0
  9
$DIMLWD
 70
-1
  9
$DIMLWE
 70
-1
  9
$DIMSAH
 70
0
  9
$DIMBLK
  1

  9
$DIMBLK1
  1

  9
$DIMBLK2
  1

  9
$DIMLDRBLK
  1

  9
$DIMSTYLE
  2
STANDARD
  9
$DIMTP
 40
0
  9
$DIMTM
 40
0
  9
$DIMTXT
 40
0.18
  9
$DIMLUNIT
 70
2
  9
$DIMDSEP
 70
46
  9
$DIMTXSTY
  7
STANDARD
  9
$TEXTSIZE
 40
0.18
  9
$TEXTSTYLE
  7
STANDARD
  9
$HANDSEED
  5
0000000000000425
  9
$FILLETRAD
 40
0.5
  9
$INSUNITS
 70
4
  9
$LIMMIN
 10
-258.08
 20
-59.375
  9
$LIMMAX
 10
2322.72
 20
534.375
  9
$FILLMODE
 70
1
  9
$LTSCALE
 40
1
  9
$PSLTSCALE
 70
0
  9
$MEASUREMENT
 70
0
  9
$ATTMODE
 70
1
  9
$PDMODE
 70
0
  9
$PDSIZE
 40
0
  9
$TILEMODE
 70
1
  9
$UCSORG
 10
0
 20
0
 30
0
  9
$UCSXDIR
 10
1
 20
0
 30
0
  9
$UCSYDIR
 10
0
 20
1
 30
0
  9
$INSBASE
 10
0
 20
0
 30
0
  9
$XCLIPFRAME
290
1
  9
$DIMASSOC
280
2
  9
$TDCREATE
 40
2459104.65558413
  9
$TDINDWG
 40
1.50462962962963E-7
  9
$TDUPDATE
 40
2459104.65558428
  0
ENDSEC
  0
SECTION
  2
CLASSES
  0
CLASS
  1
IMAGE
  2
AcDbRasterImage
  3
ISM
 90
2175
 91
1
280
0
281
1
  0
CLASS
  1
IMAGEDEF
  2
AcDbRasterImageDef
  3
ISM
 90
0
 91
1
280
0
281
0
  0
CLASS
  1
WIPEOUT
  2
AcDbWipeout
  3
"WipeOut"
 90
2175
 91
1
280
0
281
1
  0
CLASS
  1
WIPEOUTVARIABLES
  2
AcDbWipeoutVariables
  3
"WipeOut"
 90
0
 91
1
280
0
281
0
  0
CLASS
  1
MPOLYGON
  2
AcDbMPolygon
  3
"AcMPolygonObj15"
 90
3071
 91
1
280
0
281
1
  0
ENDSEC
  0
SECTION
  2
TABLES
  0
TABLE
  2
APPID
  5
408
100
AcDbSymbolTable
  0
APPID
  5
409
100
AcDbSymbolTableRecord
100
AcDbRegAppTableRecord
  2
ACAD
 70
0
  0
APPID
  5
12
100
AcDbSymbolTableRecord
100
AcDbRegAppTableRecord
  2
CSTINVENTORY
 70
0
  0
APPID
  5
40A
100
AcDbSymbolTableRecord
100
AcDbRegAppTableRecord
  2
AcDbAttr
 70
0
  0
APPID
  5
40B
100
AcDbSymbolTableRecord
100
AcDbRegAppTableRecord
  2
PE_URL
 70
0
  0
ENDTAB
  0
TABLE
  2
BLOCK_RECORD
  5
40C
100
AcDbSymbolTable
  0
BLOCK_RECORD
  5
1E
100
AcDbSymbolTableRecord
100
AcDbBlockTableRecord
  2
*MODEL_SPACE
  0
BLOCK_RECORD
  5
40D
100
AcDbSymbolTableRecord
100
AcDbBlockTableRecord
  2
*PAPER_SPACE
  0
BLOCK_RECORD
  5
10
100
AcDbSymbolTableRecord
100
AcDbBlockTableRecord
  2
_CLOSEDFILLED
  0
BLOCK_RECORD
  5
3FD
100
AcDbSymbolTableRecord
100
AcDbBlockTableRecord
  2
GER_BLOCK_00001
  0
BLOCK_RECORD
  5
402
100
AcDbSymbolTableRecord
100
AcDbBlockTableRecord
  2
INST_BLOCK_00001
  0
ENDTAB
  0
TABLE
  2
STYLE
  5
3
100
AcDbSymbolTable
  0
STYLE
  5
A
100
AcDbSymbolTableRecord
100
AcDbTextStyleTableRecord
  2
STANDARD
 70
0
 40
0
 41
1
 50
0
 71
0
 42
30
  3
TXT.SHX
  4

1001
ACAD
1000
txt
1071
0
  0
ENDTAB
  0
TABLE
  2
LTYPE
  5
1
100
AcDbSymbolTable
  0
LTYPE
  5
9
100
AcDbSymbolTableRecord
100
AcDbLinetypeTableRecord
  2
CONTINUOUS
 70
0
  3

 72
65
 73
0
 40
0
  0
LTYPE
  5
7
100
AcDbSymbolTableRecord
100
AcDbLinetypeTableRecord
  2
BYLAYER
 70
0
  3

 72
65
 73
0
 40
0
  0
LTYPE
  5
8
100
AcDbSymbolTableRecord
100
AcDbLinetypeTableRecord
  2
BYBLOCK
 70
0
  3

 72
65
 73
0
 40
0
  0
LTYPE
  5
13
100
AcDbSymbolTableRecord
100
AcDbLinetypeTableRecord
  2
AUSGEZOGEN
 70
0
  3
.
 72
65
 73
1
 40
0
 49
0
 74
0
  0
LTYPE
  5
14
100
AcDbSymbolTableRecord
100
AcDbLinetypeTableRecord
  2
PUNKTIERT
 70
0
  3
. 
 72
65
 73
2
 40
30
 49
0
 74
0
 49
-30
 74
0
  0
LTYPE
  5
15
100
AcDbSymbolTableRecord
100
AcDbLinetypeTableRecord
  2
GESTRICHELT
 70
0
  3
_ 
 72
65
 73
2
 40
80
 49
50
 74
0
 49
-30
 74
0
  0
LTYPE
  5
16
100
AcDbSymbolTableRecord
100
AcDbLinetypeTableRecord
  2
STRICHPUNKT
 70
0
  3
_ . 
 72
65
 73
4
 40
160
 49
100
 74
0
 49
-30
 74
0
 49
0
 74
0
 49
-30
 74
0
  0
LTYPE
  5
17
100
AcDbSymbolTableRecord
100
AcDbLinetypeTableRecord
  2
GETRENNT
 70
0
  3
_ . . 
 72
65
 73
6
 40
190
 49
100
 74
0
 49
-30
 74
0
 49
0
 74
0
 49
-30
 74
0
 49
0
 74
0
 49
-30
 74
0
  0
ENDTAB
  0
TABLE
  2
LAYER
  5
2
100
AcDbSymbolTable
  0
LAYER
  5
E
100
AcDbSymbolTableRecord
100
AcDbLayerTableRecord
  2
0
 70
0
 62
1
420
16711680
  6
AUSGEZOGEN
290
1
370
-3
390
0
  0
LAYER
  5
18
100
AcDbSymbolTableRecord
100
AcDbLayerTableRecord
  2
550
 70
0
 62
2
420
16776960
  6
AUSGEZOGEN
290
1
370
-3
390
0
  0
LAYER
  5
19
100
AcDbSymbolTableRecord
100
AcDbLayerTableRecord
  2
510
 70
0
 62
2
420
16776960
  6
AUSGEZOGEN
290
1
370
-3
390
0
  0
LAYER
  5
1A
100
AcDbSymbolTableRecord
100
AcDbLayerTableRecord
  2
200
 70
0
 62
7
  6
AUSGEZOGEN
290
1
370
-3
390
0
  0
LAYER
  5
1B
100
AcDbSymbolTableRecord
100
AcDbLayerTableRecord
  2
400
 70
0
 62
4
420
65535
  6
AUSGEZOGEN
290
1
370
-3
390
0
  0
ENDTAB
  0
TABLE
  2
VPORT
  5
40E
100
AcDbSymbolTable
  0
VPORT
  5
410
100
AcDbSymbolTableRecord
100
AcDbViewportTableRecord
  2
*ACTIVE
 70
0
 10
0
 20
0
 11
1
 21
1
 12
1032.32
 22
237.5
 32
0
 13
0
 23
0
 14
1
 24
1
 15
1
 25
1
 16
0
 26
0
 36
1
 17
0
 27
0
 37
0
 40
475
 41
4.34661052631579
 42
50
 43
0
 44
0
 50
0
 51
0
 71
0
 72
100
 73
1
 74
1
 75
0
 76
0
 77
0
 78
0
  0
ENDTAB
  0
TABLE
  2
VIEW
  5
411
100
AcDbSymbolTable
  0
ENDTAB
  0
TABLE
  2
UCS
  5
412
100
AcDbSymbolTable
  0
ENDTAB
  0
TABLE
  2
DIMSTYLE
  5
4
100
AcDbSymbolTable
 70
1
100
AcDbDimStyleTable
 71
0
  0
DIMSTYLE
105
B
100
AcDbSymbolTableRecord
100
AcDbDimStyleTableRecord
  2
STANDARD
 70
0
  3

 40
1
 41
0.18
 42
0.0625
 44
0.18
 47
0
 48
0
 73
1
 74
1
 75
0
 76
0
 77
0
140
0.18
141
0.09
144
1
147
0.0625
173
0
174
0
176
0
177
0
178
0
277
2
278
46
281
0
282
0
271
4
340
A
371
-1
372
-1
  0
ENDTAB
  0
ENDSEC
  0
SECTION
  2
BLOCKS
  0
BLOCK
  5
413
100
AcDbEntity
  8
0
100
AcDbBlockBegin
  2
*MODEL_SPACE
 70
0
 10
0
 20
0
  0
ENDBLK
  5
414
100
AcDbEntity
  8
0
100
AcDbBlockEnd
  0
BLOCK
  5
415
100
AcDbEntity
  8
0
100
AcDbBlockBegin
  2
*PAPER_SPACE
 70
0
 10
0
 20
0
  0
ENDBLK
  5
416
100
AcDbEntity
  8
0
100
AcDbBlockEnd
  0
BLOCK
  5
F
100
AcDbEntity
  8
0
100
AcDbBlockBegin
  2
_CLOSEDFILLED
 70
0
 10
0
 20
0
 30
0
  3
_CLOSEDFILLED
  1

  0
SOLID
  5
C
100
AcDbEntity
  8
0
100
AcDbTrace
370
-2
 62
0
 10
-1
 20
0.166666666666667
 30
0
 11
0
 21
0
 31
0
 12
-1
 22
0.166666666666667
 32
0
 13
-1
 23
-0.166666666666667
 33
0
  0
LINE
  5
D
100
AcDbEntity
  8
0
100
AcDbLine
370
-2
 62
0
 10
-1
 20
0
 30
0
 11
-2
 21
0
 31
0
  0
ENDBLK
  5
417
100
AcDbEntity
  8
0
100
AcDbBlockEnd
  0
BLOCK
  5
3FC
100
AcDbEntity
  8
200
100
AcDbBlockBegin
  2
GER_BLOCK_00001
 70
2
 10
0
 20
0
 30
0
  3
GER_BLOCK_00001
  1

  0
LINE
  5
25
100
AcDbEntity
  8
200
100
AcDbLine
370
-1
  6
AUSGEZOGEN
 10
47
 20
475
 30
0
 11
47
 21
435
 31
0
  0
LINE
  5
26
100
AcDbEntity
  8
200
100
AcDbLine
370
-1
  6
AUSGEZOGEN
 10
1247
 20
475
 30
0
 11
47
 21
475
 31
0
  0
LINE
  5
27
100
AcDbEntity
  8
200
100
AcDbLine
370
-1
  6
AUSGEZOGEN
 10
1247
 20
435
 30
0
 11
1247
 21
475
 31
0
  0
LINE
  5
28
100
AcDbEntity
  8
200
100
AcDbLine
370
-1
  6
AUSGEZOGEN
 10
55
 20
75
 30
0
 11
55
 21
435
 31
0
  0
LINE
  5
29
100
AcDbEntity
  8
200
100
AcDbLine
370
-1
  6
AUSGEZOGEN
 10
95
 20
435
 30
0
 11
95
 21
75
 31
0
  0
LINE
  5
2A
100
AcDbEntity
  8
200
100
AcDbLine
370
-1
  6
AUSGEZOGEN
 10
1199
 20
75
 30
0
 11
1199
 21
435
 31
0
  0
LINE
  5
2B
100
AcDbEntity
  8
200
100
AcDbLine
370
-1
  6
AUSGEZOGEN
 10
1239
 20
435
 30
0
 11
1239
 21
75
 31
0
  0
LINE
  5
2C
100
AcDbEntity
  8
200
100
AcDbLine
370
-1
  6
AUSGEZOGEN
 10
55
 20
75
 30
0
 11
95
 21
75
 31
0
  0
LINE
  5
2D
100
AcDbEntity
  8
200
100
AcDbLine
370
-1
  6
AUSGEZOGEN
 10
95
 20
82
 30
0
 11
55
 21
82
 31
0
  0
LINE
  5
2E
100
AcDbEntity
  8
200
100
AcDbLine
370
-1
  6
AUSGEZOGEN
 10
1239
 20
75
 30
0
 11
1199
 21
75
 31
0
  0
LINE
  5
2F
100
AcDbEntity
  8
200
100
AcDbLine
370
-1
  6
AUSGEZOGEN
 10
1199
 20
82
 30
0
 11
1239
 21
82
 31
0
  0
LINE
  5
30
100
AcDbEntity
  8
200
100
AcDbLine
370
-1
  6
AUSGEZOGEN
 10
97
 20
435
 30
0
 11
97
 21
365
 31
0
  0
LINE
  5
31
100
AcDbEntity
  8
200
100
AcDbLine
370
-1
  6
AUSGEZOGEN
 10
1247
 20
435
 30
0
 11
47
 21
435
 31
0
  0
LINE
  5
32
100
AcDbEntity
  8
200
100
AcDbLine
370
-1
  6
AUSGEZOGEN
 10
1197
 20
365
 30
0
 11
1197
 21
435
 31
0
  0
LINE
  5
33
100
AcDbEntity
  8
200
100
AcDbLine
370
-1
  6
AUSGEZOGEN
 10
217
 20
353
 30
0
 11
217
 21
365
 31
0
  0
LINE
  5
34
100
AcDbEntity
  8
200
100
AcDbLine
370
-1
  6
AUSGEZOGEN
 10
497
 20
365
 30
0
 11
497
 21
353
 31
0
  0
LINE
  5
35
100
AcDbEntity
  8
200
100
AcDbLine
370
-1
  6
AUSGEZOGEN
 10
217
 20
353
 30
0
 11
497
 21
353
 31
0
  0
LINE
  5
36
100
AcDbEntity
  8
200
100
AcDbLine
370
-1
  6
AUSGEZOGEN
 10
797
 20
365
 30
0
 11
797
 21
353
 31
0
  0
LINE
  5
37
100
AcDbEntity
  8
200
100
AcDbLine
370
-1
  6
AUSGEZOGEN
 10
97
 20
365
 30
0
 11
1197
 21
365
 31
0
  0
LINE
  5
38
100
AcDbEntity
  8
200
100
AcDbLine
370
-1
  6
AUSGEZOGEN
 10
1077
 20
353
 30
0
 11
1077
 21
365
 31
0
  0
LINE
  5
39
100
AcDbEntity
  8
200
100
AcDbLine
370
-1
  6
AUSGEZOGEN
 10
797
 20
353
 30
0
 11
1077
 21
353
 31
0
  0
LINE
  5
3A
100
AcDbEntity
  8
200
100
AcDbLine
370
-1
  6
AUSGEZOGEN
 10
1175
 20
390
 30
0
 11
1151
 21
390
 31
0
  0
LINE
  5
3B
100
AcDbEntity
  8
200
100
AcDbLine
370
-1
  6
AUSGEZOGEN
 10
1151
 20
426
 30
0
 11
1151
 21
390
 31
0
  0
LINE
  5
3C
100
AcDbEntity
  8
200
100
AcDbLine
370
-1
  6
AUSGEZOGEN
 10
1175
 20
390
 30
0
 11
1175
 21
426
 31
0
  0
LINE
  5
3D
100
AcDbEntity
  8
200
100
AcDbLine
370
-1
  6
AUSGEZOGEN
 10
1151
 20
426
 30
0
 11
1175
 21
426
 31
0
  0
LINE
  5
3E
100
AcDbEntity
  8
200
100
AcDbLine
370
-1
  6
AUSGEZOGEN
 10
1171
 20
395
 30
0
 11
1171
 21
421
 31
0
  0
LINE
  5
3F
100
AcDbEntity
  8
200
100
AcDbLine
370
-1
  6
AUSGEZOGEN
 10
1155
 20
395
 30
0
 11
1171
 21
395
 31
0
  0
LINE
  5
40
100
AcDbEntity
  8
200
100
AcDbLine
370
-1
  6
AUSGEZOGEN
 10
1155
 20
421
 30
0
 11
1155
 21
395
 31
0
  0
LINE
  5
41
100
AcDbEntity
  8
200
100
AcDbLine
370
-1
  6
AUSGEZOGEN
 10
1171
 20
421
 30
0
 11
1155
 21
421
 31
0
  0
LINE
  5
42
100
AcDbEntity
  8
200
100
AcDbLine
370
-1
  6
AUSGEZOGEN
 10
167
 20
387.66
 30
0
 11
164.66
 21
390
 31
0
  0
LINE
  5
43
100
AcDbEntity
  8
200
100
AcDbLine
370
-1
  6
AUSGEZOGEN
 10
167
 20
384.34
 30
0
 11
167
 21
387.66
 31
0
  0
LINE
  5
44
100
AcDbEntity
  8
200
100
AcDbLine
370
-1
  6
AUSGEZOGEN
 10
164.66
 20
382
 30
0
 11
167
 21
384.34
 31
0
  0
LINE
  5
45
100
AcDbEntity
  8
200
100
AcDbLine
370
-1
  6
AUSGEZOGEN
 10
154.34
 20
382
 30
0
 11
164.66
 21
382
 31
0
  0
LINE
  5
46
100
AcDbEntity
  8
200
100
AcDbLine
370
-1
  6
AUSGEZOGEN
 10
152
 20
384.34
 30
0
 11
154.34
 21
382
 31
0
  0
LINE
  5
47
100
AcDbEntity
  8
200
100
AcDbLine
370
-1
  6
AUSGEZOGEN
 10
154.34
 20
390
 30
0
 11
152
 21
387.66
 31
0
  0
LINE
  5
48
100
AcDbEntity
  8
200
100
AcDbLine
370
-1
  6
AUSGEZOGEN
 10
152
 20
384.34
 30
0
 11
152
 21
387.66
 31
0
  0
LINE
  5
49
100
AcDbEntity
  8
200
100
AcDbLine
370
-1
  6
AUSGEZOGEN
 10
164.66
 20
390
 30
0
 11
154.34
 21
390
 31
0
  0
LINE
  5
4A
100
AcDbEntity
  8
200
100
AcDbLine
370
-1
  6
AUSGEZOGEN
 10
192
 20
387.66
 30
0
 11
189.66
 21
390
 31
0
  0
LINE
  5
4B
100
AcDbEntity
  8
200
100
AcDbLine
370
-1
  6
AUSGEZOGEN
 10
192
 20
384.34
 30
0
 11
192
 21
387.66
 31
0
  0
LINE
  5
4C
100
AcDbEntity
  8
200
100
AcDbLine
370
-1
  6
AUSGEZOGEN
 10
189.66
 20
382
 30
0
 11
192
 21
384.34
 31
0
  0
LINE
  5
4D
100
AcDbEntity
  8
200
100
AcDbLine
370
-1
  6
AUSGEZOGEN
 10
179.34
 20
382
 30
0
 11
189.66
 21
382
 31
0
  0
LINE
  5
4E
100
AcDbEntity
  8
200
100
AcDbLine
370
-1
  6
AUSGEZOGEN
 10
177
 20
384.34
 30
0
 11
179.34
 21
382
 31
0
  0
LINE
  5
4F
100
AcDbEntity
  8
200
100
AcDbLine
370
-1
  6
AUSGEZOGEN
 10
179.34
 20
390
 30
0
 11
177
 21
387.66
 31
0
  0
LINE
  5
50
100
AcDbEntity
  8
200
100
AcDbLine
370
-1
  6
AUSGEZOGEN
 10
177
 20
384.34
 30
0
 11
177
 21
387.66
 31
0
  0
LINE
  5
51
100
AcDbEntity
  8
200
100
AcDbLine
370
-1
  6
AUSGEZOGEN
 10
189.66
 20
390
 30
0
 11
179.34
 21
390
 31
0
  0
LINE
  5
52
100
AcDbEntity
  8
200
100
AcDbLine
370
-1
  6
AUSGEZOGEN
 10
217
 20
387.66
 30
0
 11
214.66
 21
390
 31
0
  0
LINE
  5
53
100
AcDbEntity
  8
200
100
AcDbLine
370
-1
  6
AUSGEZOGEN
 10
217
 20
384.34
 30
0
 11
217
 21
387.66
 31
0
  0
LINE
  5
54
100
AcDbEntity
  8
200
100
AcDbLine
370
-1
  6
AUSGEZOGEN
 10
214.66
 20
382
 30
0
 11
217
 21
384.34
 31
0
  0
LINE
  5
55
100
AcDbEntity
  8
200
100
AcDbLine
370
-1
  6
AUSGEZOGEN
 10
204.34
 20
382
 30
0
 11
214.66
 21
382
 31
0
  0
LINE
  5
56
100
AcDbEntity
  8
200
100
AcDbLine
370
-1
  6
AUSGEZOGEN
 10
202
 20
384.34
 30
0
 11
204.34
 21
382
 31
0
  0
LINE
  5
57
100
AcDbEntity
  8
200
100
AcDbLine
370
-1
  6
AUSGEZOGEN
 10
204.34
 20
390
 30
0
 11
202
 21
387.66
 31
0
  0
LINE
  5
58
100
AcDbEntity
  8
200
100
AcDbLine
370
-1
  6
AUSGEZOGEN
 10
202
 20
384.34
 30
0
 11
202
 21
387.66
 31
0
  0
LINE
  5
59
100
AcDbEntity
  8
200
100
AcDbLine
370
-1
  6
AUSGEZOGEN
 10
214.66
 20
390
 30
0
 11
204.34
 21
390
 31
0
  0
LINE
  5
5A
100
AcDbEntity
  8
200
100
AcDbLine
370
-1
  6
AUSGEZOGEN
 10
242
 20
387.66
 30
0
 11
239.66
 21
390
 31
0
  0
LINE
  5
5B
100
AcDbEntity
  8
200
100
AcDbLine
370
-1
  6
AUSGEZOGEN
 10
242
 20
384.34
 30
0
 11
242
 21
387.66
 31
0
  0
LINE
  5
5C
100
AcDbEntity
  8
200
100
AcDbLine
370
-1
  6
AUSGEZOGEN
 10
239.66
 20
382
 30
0
 11
242
 21
384.34
 31
0
  0
LINE
  5
5D
100
AcDbEntity
  8
200
100
AcDbLine
370
-1
  6
AUSGEZOGEN
 10
229.34
 20
382
 30
0
 11
239.66
 21
382
 31
0
  0
LINE
  5
5E
100
AcDbEntity
  8
200
100
AcDbLine
370
-1
  6
AUSGEZOGEN
 10
227
 20
384.34
 30
0
 11
229.34
 21
382
 31
0
  0
LINE
  5
5F
100
AcDbEntity
  8
200
100
AcDbLine
370
-1
  6
AUSGEZOGEN
 10
229.34
 20
390
 30
0
 11
227
 21
387.66
 31
0
  0
LINE
  5
60
100
AcDbEntity
  8
200
100
AcDbLine
370
-1
  6
AUSGEZOGEN
 10
227
 20
384.34
 30
0
 11
227
 21
387.66
 31
0
  0
LINE
  5
61
100
AcDbEntity
  8
200
100
AcDbLine
370
-1
  6
AUSGEZOGEN
 10
239.66
 20
390
 30
0
 11
229.34
 21
390
 31
0
  0
LINE
  5
62
100
AcDbEntity
  8
200
100
AcDbLine
370
-1
  6
AUSGEZOGEN
 10
267
 20
387.66
 30
0
 11
264.66
 21
390
 31
0
  0
LINE
  5
63
100
AcDbEntity
  8
200
100
AcDbLine
370
-1
  6
AUSGEZOGEN
 10
267
 20
384.34
 30
0
 11
267
 21
387.66
 31
0
  0
LINE
  5
64
100
AcDbEntity
  8
200
100
AcDbLine
370
-1
  6
AUSGEZOGEN
 10
264.66
 20
382
 30
0
 11
267
 21
384.34
 31
0
  0
LINE
  5
65
100
AcDbEntity
  8
200
100
AcDbLine
370
-1
  6
AUSGEZOGEN
 10
254.34
 20
382
 30
0
 11
264.66
 21
382
 31
0
  0
LINE
  5
66
100
AcDbEntity
  8
200
100
AcDbLine
370
-1
  6
AUSGEZOGEN
 10
252
 20
384.34
 30
0
 11
254.34
 21
382
 31
0
  0
LINE
  5
67
100
AcDbEntity
  8
200
100
AcDbLine
370
-1
  6
AUSGEZOGEN
 10
254.34
 20
390
 30
0
 11
252
 21
387.66
 31
0
  0
LINE
  5
68
100
AcDbEntity
  8
200
100
AcDbLine
370
-1
  6
AUSGEZOGEN
 10
252
 20
384.34
 30
0
 11
252
 21
387.66
 31
0
  0
LINE
  5
69
100
AcDbEntity
  8
200
100
AcDbLine
370
-1
  6
AUSGEZOGEN
 10
264.66
 20
390
 30
0
 11
254.34
 21
390
 31
0
  0
LINE
  5
6A
100
AcDbEntity
  8
200
100
AcDbLine
370
-1
  6
AUSGEZOGEN
 10
292
 20
387.66
 30
0
 11
289.66
 21
390
 31
0
  0
LINE
  5
6B
100
AcDbEntity
  8
200
100
AcDbLine
370
-1
  6
AUSGEZOGEN
 10
292
 20
384.34
 30
0
 11
292
 21
387.66
 31
0
  0
LINE
  5
6C
100
AcDbEntity
  8
200
100
AcDbLine
370
-1
  6
AUSGEZOGEN
 10
289.66
 20
382
 30
0
 11
292
 21
384.34
 31
0
  0
LINE
  5
6D
100
AcDbEntity
  8
200
100
AcDbLine
370
-1
  6
AUSGEZOGEN
 10
279.34
 20
382
 30
0
 11
289.66
 21
382
 31
0
  0
LINE
  5
6E
100
AcDbEntity
  8
200
100
AcDbLine
370
-1
  6
AUSGEZOGEN
 10
277
 20
384.34
 30
0
 11
279.34
 21
382
 31
0
  0
LINE
  5
6F
100
AcDbEntity
  8
200
100
AcDbLine
370
-1
  6
AUSGEZOGEN
 10
279.34
 20
390
 30
0
 11
277
 21
387.66
 31
0
  0
LINE
  5
70
100
AcDbEntity
  8
200
100
AcDbLine
370
-1
  6
AUSGEZOGEN
 10
277
 20
384.34
 30
0
 11
277
 21
387.66
 31
0
  0
LINE
  5
71
100
AcDbEntity
  8
200
100
AcDbLine
370
-1
  6
AUSGEZOGEN
 10
289.66
 20
390
 30
0
 11
279.34
 21
390
 31
0
  0
LINE
  5
72
100
AcDbEntity
  8
200
100
AcDbLine
370
-1
  6
AUSGEZOGEN
 10
317
 20
387.66
 30
0
 11
314.66
 21
390
 31
0
  0
LINE
  5
73
100
AcDbEntity
  8
200
100
AcDbLine
370
-1
  6
AUSGEZOGEN
 10
317
 20
384.34
 30
0
 11
317
 21
387.66
 31
0
  0
LINE
  5
74
100
AcDbEntity
  8
200
100
AcDbLine
370
-1
  6
AUSGEZOGEN
 10
314.66
 20
382
 30
0
 11
317
 21
384.34
 31
0
  0
LINE
  5
75
100
AcDbEntity
  8
200
100
AcDbLine
370
-1
  6
AUSGEZOGEN
 10
304.34
 20
382
 30
0
 11
314.66
 21
382
 31
0
  0
LINE
  5
76
100
AcDbEntity
  8
200
100
AcDbLine
370
-1
  6
AUSGEZOGEN
 10
302
 20
384.34
 30
0
 11
304.34
 21
382
 31
0
  0
LINE
  5
77
100
AcDbEntity
  8
200
100
AcDbLine
370
-1
  6
AUSGEZOGEN
 10
304.34
 20
390
 30
0
 11
302
 21
387.66
 31
0
  0
LINE
  5
78
100
AcDbEntity
  8
200
100
AcDbLine
370
-1
  6
AUSGEZOGEN
 10
302
 20
384.34
 30
0
 11
302
 21
387.66
 31
0
  0
LINE
  5
79
100
AcDbEntity
  8
200
100
AcDbLine
370
-1
  6
AUSGEZOGEN
 10
314.66
 20
390
 30
0
 11
304.34
 21
390
 31
0
  0
LINE
  5
7A
100
AcDbEntity
  8
200
100
AcDbLine
370
-1
  6
AUSGEZOGEN
 10
342
 20
387.66
 30
0
 11
339.66
 21
390
 31
0
  0
LINE
  5
7B
100
AcDbEntity
  8
200
100
AcDbLine
370
-1
  6
AUSGEZOGEN
 10
342
 20
384.34
 30
0
 11
342
 21
387.66
 31
0
  0
LINE
  5
7C
100
AcDbEntity
  8
200
100
AcDbLine
370
-1
  6
AUSGEZOGEN
 10
339.66
 20
382
 30
0
 11
342
 21
384.34
 31
0
  0
LINE
  5
7D
100
AcDbEntity
  8
200
100
AcDbLine
370
-1
  6
AUSGEZOGEN
 10
329.34
 20
382
 30
0
 11
339.66
 21
382
 31
0
  0
LINE
  5
7E
100
AcDbEntity
  8
200
100
AcDbLine
370
-1
  6
AUSGEZOGEN
 10
327
 20
384.34
 30
0
 11
329.34
 21
382
 31
0
  0
LINE
  5
7F
100
AcDbEntity
  8
200
100
AcDbLine
370
-1
  6
AUSGEZOGEN
 10
329.34
 20
390
 30
0
 11
327
 21
387.66
 31
0
  0
LINE
  5
80
100
AcDbEntity
  8
200
100
AcDbLine
370
-1
  6
AUSGEZOGEN
 10
327
 20
384.34
 30
0
 11
327
 21
387.66
 31
0
  0
LINE
  5
81
100
AcDbEntity
  8
200
100
AcDbLine
370
-1
  6
AUSGEZOGEN
 10
339.66
 20
390
 30
0
 11
329.34
 21
390
 31
0
  0
LINE
  5
82
100
AcDbEntity
  8
200
100
AcDbLine
370
-1
  6
AUSGEZOGEN
 10
367
 20
387.66
 30
0
 11
364.66
 21
390
 31
0
  0
LINE
  5
83
100
AcDbEntity
  8
200
100
AcDbLine
370
-1
  6
AUSGEZOGEN
 10
367
 20
384.34
 30
0
 11
367
 21
387.66
 31
0
  0
LINE
  5
84
100
AcDbEntity
  8
200
100
AcDbLine
370
-1
  6
AUSGEZOGEN
 10
364.66
 20
382
 30
0
 11
367
 21
384.34
 31
0
  0
LINE
  5
85
100
AcDbEntity
  8
200
100
AcDbLine
370
-1
  6
AUSGEZOGEN
 10
354.34
 20
382
 30
0
 11
364.66
 21
382
 31
0
  0
LINE
  5
86
100
AcDbEntity
  8
200
100
AcDbLine
370
-1
  6
AUSGEZOGEN
 10
352
 20
384.34
 30
0
 11
354.34
 21
382
 31
0
  0
LINE
  5
87
100
AcDbEntity
  8
200
100
AcDbLine
370
-1
  6
AUSGEZOGEN
 10
354.34
 20
390
 30
0
 11
352
 21
387.66
 31
0
  0
LINE
  5
88
100
AcDbEntity
  8
200
100
AcDbLine
370
-1
  6
AUSGEZOGEN
 10
352
 20
384.34
 30
0
 11
352
 21
387.66
 31
0
  0
LINE
  5
89
100
AcDbEntity
  8
200
100
AcDbLine
370
-1
  6
AUSGEZOGEN
 10
364.66
 20
390
 30
0
 11
354.34
 21
390
 31
0
  0
LINE
  5
8A
100
AcDbEntity
  8
200
100
AcDbLine
370
-1
  6
AUSGEZOGEN
 10
392
 20
387.66
 30
0
 11
389.66
 21
390
 31
0
  0
LINE
  5
8B
100
AcDbEntity
  8
200
100
AcDbLine
370
-1
  6
AUSGEZOGEN
 10
392
 20
384.34
 30
0
 11
392
 21
387.66
 31
0
  0
LINE
  5
8C
100
AcDbEntity
  8
200
100
AcDbLine
370
-1
  6
AUSGEZOGEN
 10
389.66
 20
382
 30
0
 11
392
 21
384.34
 31
0
  0
LINE
  5
8D
100
AcDbEntity
  8
200
100
AcDbLine
370
-1
  6
AUSGEZOGEN
 10
379.34
 20
382
 30
0
 11
389.66
 21
382
 31
0
  0
LINE
  5
8E
100
AcDbEntity
  8
200
100
AcDbLine
370
-1
  6
AUSGEZOGEN
 10
377
 20
384.34
 30
0
 11
379.34
 21
382
 31
0
  0
LINE
  5
8F
100
AcDbEntity
  8
200
100
AcDbLine
370
-1
  6
AUSGEZOGEN
 10
379.34
 20
390
 30
0
 11
377
 21
387.66
 31
0
  0
LINE
  5
90
100
AcDbEntity
  8
200
100
AcDbLine
370
-1
  6
AUSGEZOGEN
 10
377
 20
384.34
 30
0
 11
377
 21
387.66
 31
0
  0
LINE
  5
91
100
AcDbEntity
  8
200
100
AcDbLine
370
-1
  6
AUSGEZOGEN
 10
389.66
 20
390
 30
0
 11
379.34
 21
390
 31
0
  0
LINE
  5
92
100
AcDbEntity
  8
200
100
AcDbLine
370
-1
  6
AUSGEZOGEN
 10
417
 20
387.66
 30
0
 11
414.66
 21
390
 31
0
  0
LINE
  5
93
100
AcDbEntity
  8
200
100
AcDbLine
370
-1
  6
AUSGEZOGEN
 10
417
 20
384.34
 30
0
 11
417
 21
387.66
 31
0
  0
LINE
  5
94
100
AcDbEntity
  8
200
100
AcDbLine
370
-1
  6
AUSGEZOGEN
 10
414.66
 20
382
 30
0
 11
417
 21
384.34
 31
0
  0
LINE
  5
95
100
AcDbEntity
  8
200
100
AcDbLine
370
-1
  6
AUSGEZOGEN
 10
404.34
 20
382
 30
0
 11
414.66
 21
382
 31
0
  0
LINE
  5
96
100
AcDbEntity
  8
200
100
AcDbLine
370
-1
  6
AUSGEZOGEN
 10
402
 20
384.34
 30
0
 11
404.34
 21
382
 31
0
  0
LINE
  5
97
100
AcDbEntity
  8
200
100
AcDbLine
370
-1
  6
AUSGEZOGEN
 10
404.34
 20
390
 30
0
 11
402
 21
387.66
 31
0
  0
LINE
  5
98
100
AcDbEntity
  8
200
100
AcDbLine
370
-1
  6
AUSGEZOGEN
 10
402
 20
384.34
 30
0
 11
402
 21
387.66
 31
0
  0
LINE
  5
99
100
AcDbEntity
  8
200
100
AcDbLine
370
-1
  6
AUSGEZOGEN
 10
414.66
 20
390
 30
0
 11
404.34
 21
390
 31
0
  0
LINE
  5
9A
100
AcDbEntity
  8
200
100
AcDbLine
370
-1
  6
AUSGEZOGEN
 10
442
 20
387.66
 30
0
 11
439.66
 21
390
 31
0
  0
LINE
  5
9B
100
AcDbEntity
  8
200
100
AcDbLine
370
-1
  6
AUSGEZOGEN
 10
442
 20
384.34
 30
0
 11
442
 21
387.66
 31
0
  0
LINE
  5
9C
100
AcDbEntity
  8
200
100
AcDbLine
370
-1
  6
AUSGEZOGEN
 10
439.66
 20
382
 30
0
 11
442
 21
384.34
 31
0
  0
LINE
  5
9D
100
AcDbEntity
  8
200
100
AcDbLine
370
-1
  6
AUSGEZOGEN
 10
429.34
 20
382
 30
0
 11
439.66
 21
382
 31
0
  0
LINE
  5
9E
100
AcDbEntity
  8
200
100
AcDbLine
370
-1
  6
AUSGEZOGEN
 10
427
 20
384.34
 30
0
 11
429.34
 21
382
 31
0
  0
LINE
  5
9F
100
AcDbEntity
  8
200
100
AcDbLine
370
-1
  6
AUSGEZOGEN
 10
429.34
 20
390
 30
0
 11
427
 21
387.66
 31
0
  0
LINE
  5
A0
100
AcDbEntity
  8
200
100
AcDbLine
370
-1
  6
AUSGEZOGEN
 10
427
 20
384.34
 30
0
 11
427
 21
387.66
 31
0
  0
LINE
  5
A1
100
AcDbEntity
  8
200
100
AcDbLine
370
-1
  6
AUSGEZOGEN
 10
439.66
 20
390
 30
0
 11
429.34
 21
390
 31
0
  0
LINE
  5
A2
100
AcDbEntity
  8
200
100
AcDbLine
370
-1
  6
AUSGEZOGEN
 10
467
 20
387.66
 30
0
 11
464.66
 21
390
 31
0
  0
LINE
  5
A3
100
AcDbEntity
  8
200
100
AcDbLine
370
-1
  6
AUSGEZOGEN
 10
467
 20
384.34
 30
0
 11
467
 21
387.66
 31
0
  0
LINE
  5
A4
100
AcDbEntity
  8
200
100
AcDbLine
370
-1
  6
AUSGEZOGEN
 10
464.66
 20
382
 30
0
 11
467
 21
384.34
 31
0
  0
LINE
  5
A5
100
AcDbEntity
  8
200
100
AcDbLine
370
-1
  6
AUSGEZOGEN
 10
454.34
 20
382
 30
0
 11
464.66
 21
382
 31
0
  0
LINE
  5
A6
100
AcDbEntity
  8
200
100
AcDbLine
370
-1
  6
AUSGEZOGEN
 10
452
 20
384.34
 30
0
 11
454.34
 21
382
 31
0
  0
LINE
  5
A7
100
AcDbEntity
  8
200
100
AcDbLine
370
-1
  6
AUSGEZOGEN
 10
454.34
 20
390
 30
0
 11
452
 21
387.66
 31
0
  0
LINE
  5
A8
100
AcDbEntity
  8
200
100
AcDbLine
370
-1
  6
AUSGEZOGEN
 10
452
 20
384.34
 30
0
 11
452
 21
387.66
 31
0
  0
LINE
  5
A9
100
AcDbEntity
  8
200
100
AcDbLine
370
-1
  6
AUSGEZOGEN
 10
464.66
 20
390
 30
0
 11
454.34
 21
390
 31
0
  0
LINE
  5
AA
100
AcDbEntity
  8
200
100
AcDbLine
370
-1
  6
AUSGEZOGEN
 10
492
 20
387.66
 30
0
 11
489.66
 21
390
 31
0
  0
LINE
  5
AB
100
AcDbEntity
  8
200
100
AcDbLine
370
-1
  6
AUSGEZOGEN
 10
492
 20
384.34
 30
0
 11
492
 21
387.66
 31
0
  0
LINE
  5
AC
100
AcDbEntity
  8
200
100
AcDbLine
370
-1
  6
AUSGEZOGEN
 10
489.66
 20
382
 30
0
 11
492
 21
384.34
 31
0
  0
LINE
  5
AD
100
AcDbEntity
  8
200
100
AcDbLine
370
-1
  6
AUSGEZOGEN
 10
479.34
 20
382
 30
0
 11
489.66
 21
382
 31
0
  0
LINE
  5
AE
100
AcDbEntity
  8
200
100
AcDbLine
370
-1
  6
AUSGEZOGEN
 10
477
 20
384.34
 30
0
 11
479.34
 21
382
 31
0
  0
LINE
  5
AF
100
AcDbEntity
  8
200
100
AcDbLine
370
-1
  6
AUSGEZOGEN
 10
479.34
 20
390
 30
0
 11
477
 21
387.66
 31
0
  0
LINE
  5
B0
100
AcDbEntity
  8
200
100
AcDbLine
370
-1
  6
AUSGEZOGEN
 10
477
 20
384.34
 30
0
 11
477
 21
387.66
 31
0
  0
LINE
  5
B1
100
AcDbEntity
  8
200
100
AcDbLine
370
-1
  6
AUSGEZOGEN
 10
489.66
 20
390
 30
0
 11
479.34
 21
390
 31
0
  0
LINE
  5
B2
100
AcDbEntity
  8
200
100
AcDbLine
370
-1
  6
AUSGEZOGEN
 10
517
 20
387.66
 30
0
 11
514.66
 21
390
 31
0
  0
LINE
  5
B3
100
AcDbEntity
  8
200
100
AcDbLine
370
-1
  6
AUSGEZOGEN
 10
517
 20
384.34
 30
0
 11
517
 21
387.66
 31
0
  0
LINE
  5
B4
100
AcDbEntity
  8
200
100
AcDbLine
370
-1
  6
AUSGEZOGEN
 10
514.66
 20
382
 30
0
 11
517
 21
384.34
 31
0
  0
LINE
  5
B5
100
AcDbEntity
  8
200
100
AcDbLine
370
-1
  6
AUSGEZOGEN
 10
504.34
 20
382
 30
0
 11
514.66
 21
382
 31
0
  0
LINE
  5
B6
100
AcDbEntity
  8
200
100
AcDbLine
370
-1
  6
AUSGEZOGEN
 10
502
 20
384.34
 30
0
 11
504.34
 21
382
 31
0
  0
LINE
  5
B7
100
AcDbEntity
  8
200
100
AcDbLine
370
-1
  6
AUSGEZOGEN
 10
504.34
 20
390
 30
0
 11
502
 21
387.66
 31
0
  0
LINE
  5
B8
100
AcDbEntity
  8
200
100
AcDbLine
370
-1
  6
AUSGEZOGEN
 10
502
 20
384.34
 30
0
 11
502
 21
387.66
 31
0
  0
LINE
  5
B9
100
AcDbEntity
  8
200
100
AcDbLine
370
-1
  6
AUSGEZOGEN
 10
514.66
 20
390
 30
0
 11
504.34
 21
390
 31
0
  0
LINE
  5
BA
100
AcDbEntity
  8
200
100
AcDbLine
370
-1
  6
AUSGEZOGEN
 10
542
 20
387.66
 30
0
 11
539.66
 21
390
 31
0
  0
LINE
  5
BB
100
AcDbEntity
  8
200
100
AcDbLine
370
-1
  6
AUSGEZOGEN
 10
542
 20
384.34
 30
0
 11
542
 21
387.66
 31
0
  0
LINE
  5
BC
100
AcDbEntity
  8
200
100
AcDbLine
370
-1
  6
AUSGEZOGEN
 10
539.66
 20
382
 30
0
 11
542
 21
384.34
 31
0
  0
LINE
  5
BD
100
AcDbEntity
  8
200
100
AcDbLine
370
-1
  6
AUSGEZOGEN
 10
529.34
 20
382
 30
0
 11
539.66
 21
382
 31
0
  0
LINE
  5
BE
100
AcDbEntity
  8
200
100
AcDbLine
370
-1
  6
AUSGEZOGEN
 10
527
 20
384.34
 30
0
 11
529.34
 21
382
 31
0
  0
LINE
  5
BF
100
AcDbEntity
  8
200
100
AcDbLine
370
-1
  6
AUSGEZOGEN
 10
529.34
 20
390
 30
0
 11
527
 21
387.66
 31
0
  0
LINE
  5
C0
100
AcDbEntity
  8
200
100
AcDbLine
370
-1
  6
AUSGEZOGEN
 10
527
 20
384.34
 30
0
 11
527
 21
387.66
 31
0
  0
LINE
  5
C1
100
AcDbEntity
  8
200
100
AcDbLine
370
-1
  6
AUSGEZOGEN
 10
539.66
 20
390
 30
0
 11
529.34
 21
390
 31
0
  0
LINE
  5
C2
100
AcDbEntity
  8
200
100
AcDbLine
370
-1
  6
AUSGEZOGEN
 10
567
 20
387.66
 30
0
 11
564.66
 21
390
 31
0
  0
LINE
  5
C3
100
AcDbEntity
  8
200
100
AcDbLine
370
-1
  6
AUSGEZOGEN
 10
567
 20
384.34
 30
0
 11
567
 21
387.66
 31
0
  0
LINE
  5
C4
100
AcDbEntity
  8
200
100
AcDbLine
370
-1
  6
AUSGEZOGEN
 10
564.66
 20
382
 30
0
 11
567
 21
384.34
 31
0
  0
LINE
  5
C5
100
AcDbEntity
  8
200
100
AcDbLine
370
-1
  6
AUSGEZOGEN
 10
554.34
 20
382
 30
0
 11
564.66
 21
382
 31
0
  0
LINE
  5
C6
100
AcDbEntity
  8
200
100
AcDbLine
370
-1
  6
AUSGEZOGEN
 10
552
 20
384.34
 30
0
 11
554.34
 21
382
 31
0
  0
LINE
  5
C7
100
AcDbEntity
  8
200
100
AcDbLine
370
-1
  6
AUSGEZOGEN
 10
554.34
 20
390
 30
0
 11
552
 21
387.66
 31
0
  0
LINE
  5
C8
100
AcDbEntity
  8
200
100
AcDbLine
370
-1
  6
AUSGEZOGEN
 10
552
 20
384.34
 30
0
 11
552
 21
387.66
 31
0
  0
LINE
  5
C9
100
AcDbEntity
  8
200
100
AcDbLine
370
-1
  6
AUSGEZOGEN
 10
564.66
 20
390
 30
0
 11
554.34
 21
390
 31
0
  0
LINE
  5
CA
100
AcDbEntity
  8
200
100
AcDbLine
370
-1
  6
AUSGEZOGEN
 10
592
 20
387.66
 30
0
 11
589.66
 21
390
 31
0
  0
LINE
  5
CB
100
AcDbEntity
  8
200
100
AcDbLine
370
-1
  6
AUSGEZOGEN
 10
592
 20
384.34
 30
0
 11
592
 21
387.66
 31
0
  0
LINE
  5
CC
100
AcDbEntity
  8
200
100
AcDbLine
370
-1
  6
AUSGEZOGEN
 10
589.66
 20
382
 30
0
 11
592
 21
384.34
 31
0
  0
LINE
  5
CD
100
AcDbEntity
  8
200
100
AcDbLine
370
-1
  6
AUSGEZOGEN
 10
579.34
 20
382
 30
0
 11
589.66
 21
382
 31
0
  0
LINE
  5
CE
100
AcDbEntity
  8
200
100
AcDbLine
370
-1
  6
AUSGEZOGEN
 10
577
 20
384.34
 30
0
 11
579.34
 21
382
 31
0
  0
LINE
  5
CF
100
AcDbEntity
  8
200
100
AcDbLine
370
-1
  6
AUSGEZOGEN
 10
579.34
 20
390
 30
0
 11
577
 21
387.66
 31
0
  0
LINE
  5
D0
100
AcDbEntity
  8
200
100
AcDbLine
370
-1
  6
AUSGEZOGEN
 10
577
 20
384.34
 30
0
 11
577
 21
387.66
 31
0
  0
LINE
  5
D1
100
AcDbEntity
  8
200
100
AcDbLine
370
-1
  6
AUSGEZOGEN
 10
589.66
 20
390
 30
0
 11
579.34
 21
390
 31
0
  0
LINE
  5
D2
100
AcDbEntity
  8
200
100
AcDbLine
370
-1
  6
AUSGEZOGEN
 10
617
 20
387.66
 30
0
 11
614.66
 21
390
 31
0
  0
LINE
  5
D3
100
AcDbEntity
  8
200
100
AcDbLine
370
-1
  6
AUSGEZOGEN
 10
617
 20
384.34
 30
0
 11
617
 21
387.66
 31
0
  0
LINE
  5
D4
100
AcDbEntity
  8
200
100
AcDbLine
370
-1
  6
AUSGEZOGEN
 10
614.66
 20
382
 30
0
 11
617
 21
384.34
 31
0
  0
LINE
  5
D5
100
AcDbEntity
  8
200
100
AcDbLine
370
-1
  6
AUSGEZOGEN
 10
604.34
 20
382
 30
0
 11
614.66
 21
382
 31
0
  0
LINE
  5
D6
100
AcDbEntity
  8
200
100
AcDbLine
370
-1
  6
AUSGEZOGEN
 10
602
 20
384.34
 30
0
 11
604.34
 21
382
 31
0
  0
LINE
  5
D7
100
AcDbEntity
  8
200
100
AcDbLine
370
-1
  6
AUSGEZOGEN
 10
604.34
 20
390
 30
0
 11
602
 21
387.66
 31
0
  0
LINE
  5
D8
100
AcDbEntity
  8
200
100
AcDbLine
370
-1
  6
AUSGEZOGEN
 10
602
 20
384.34
 30
0
 11
602
 21
387.66
 31
0
  0
LINE
  5
D9
100
AcDbEntity
  8
200
100
AcDbLine
370
-1
  6
AUSGEZOGEN
 10
614.66
 20
390
 30
0
 11
604.34
 21
390
 31
0
  0
LINE
  5
DA
100
AcDbEntity
  8
200
100
AcDbLine
370
-1
  6
AUSGEZOGEN
 10
642
 20
387.66
 30
0
 11
639.66
 21
390
 31
0
  0
LINE
  5
DB
100
AcDbEntity
  8
200
100
AcDbLine
370
-1
  6
AUSGEZOGEN
 10
642
 20
384.34
 30
0
 11
642
 21
387.66
 31
0
  0
LINE
  5
DC
100
AcDbEntity
  8
200
100
AcDbLine
370
-1
  6
AUSGEZOGEN
 10
639.66
 20
382
 30
0
 11
642
 21
384.34
 31
0
  0
LINE
  5
DD
100
AcDbEntity
  8
200
100
AcDbLine
370
-1
  6
AUSGEZOGEN
 10
629.34
 20
382
 30
0
 11
639.66
 21
382
 31
0
  0
LINE
  5
DE
100
AcDbEntity
  8
200
100
AcDbLine
370
-1
  6
AUSGEZOGEN
 10
627
 20
384.34
 30
0
 11
629.34
 21
382
 31
0
  0
LINE
  5
DF
100
AcDbEntity
  8
200
100
AcDbLine
370
-1
  6
AUSGEZOGEN
 10
629.34
 20
390
 30
0
 11
627
 21
387.66
 31
0
  0
LINE
  5
E0
100
AcDbEntity
  8
200
100
AcDbLine
370
-1
  6
AUSGEZOGEN
 10
627
 20
384.34
 30
0
 11
627
 21
387.66
 31
0
  0
LINE
  5
E1
100
AcDbEntity
  8
200
100
AcDbLine
370
-1
  6
AUSGEZOGEN
 10
639.66
 20
390
 30
0
 11
629.34
 21
390
 31
0
  0
LINE
  5
E2
100
AcDbEntity
  8
200
100
AcDbLine
370
-1
  6
AUSGEZOGEN
 10
667
 20
387.66
 30
0
 11
664.66
 21
390
 31
0
  0
LINE
  5
E3
100
AcDbEntity
  8
200
100
AcDbLine
370
-1
  6
AUSGEZOGEN
 10
667
 20
384.34
 30
0
 11
667
 21
387.66
 31
0
  0
LINE
  5
E4
100
AcDbEntity
  8
200
100
AcDbLine
370
-1
  6
AUSGEZOGEN
 10
664.66
 20
382
 30
0
 11
667
 21
384.34
 31
0
  0
LINE
  5
E5
100
AcDbEntity
  8
200
100
AcDbLine
370
-1
  6
AUSGEZOGEN
 10
654.34
 20
382
 30
0
 11
664.66
 21
382
 31
0
  0
LINE
  5
E6
100
AcDbEntity
  8
200
100
AcDbLine
370
-1
  6
AUSGEZOGEN
 10
652
 20
384.34
 30
0
 11
654.34
 21
382
 31
0
  0
LINE
  5
E7
100
AcDbEntity
  8
200
100
AcDbLine
370
-1
  6
AUSGEZOGEN
 10
654.34
 20
390
 30
0
 11
652
 21
387.66
 31
0
  0
LINE
  5
E8
100
AcDbEntity
  8
200
100
AcDbLine
370
-1
  6
AUSGEZOGEN
 10
652
 20
384.34
 30
0
 11
652
 21
387.66
 31
0
  0
LINE
  5
E9
100
AcDbEntity
  8
200
100
AcDbLine
370
-1
  6
AUSGEZOGEN
 10
664.66
 20
390
 30
0
 11
654.34
 21
390
 31
0
  0
LINE
  5
EA
100
AcDbEntity
  8
200
100
AcDbLine
370
-1
  6
AUSGEZOGEN
 10
692
 20
387.66
 30
0
 11
689.66
 21
390
 31
0
  0
LINE
  5
EB
100
AcDbEntity
  8
200
100
AcDbLine
370
-1
  6
AUSGEZOGEN
 10
692
 20
384.34
 30
0
 11
692
 21
387.66
 31
0
  0
LINE
  5
EC
100
AcDbEntity
  8
200
100
AcDbLine
370
-1
  6
AUSGEZOGEN
 10
689.66
 20
382
 30
0
 11
692
 21
384.34
 31
0
  0
LINE
  5
ED
100
AcDbEntity
  8
200
100
AcDbLine
370
-1
  6
AUSGEZOGEN
 10
679.34
 20
382
 30
0
 11
689.66
 21
382
 31
0
  0
LINE
  5
EE
100
AcDbEntity
  8
200
100
AcDbLine
370
-1
  6
AUSGEZOGEN
 10
677
 20
384.34
 30
0
 11
679.34
 21
382
 31
0
  0
LINE
  5
EF
100
AcDbEntity
  8
200
100
AcDbLine
370
-1
  6
AUSGEZOGEN
 10
679.34
 20
390
 30
0
 11
677
 21
387.66
 31
0
  0
LINE
  5
F0
100
AcDbEntity
  8
200
100
AcDbLine
370
-1
  6
AUSGEZOGEN
 10
677
 20
384.34
 30
0
 11
677
 21
387.66
 31
0
  0
LINE
  5
F1
100
AcDbEntity
  8
200
100
AcDbLine
370
-1
  6
AUSGEZOGEN
 10
689.66
 20
390
 30
0
 11
679.34
 21
390
 31
0
  0
LINE
  5
F2
100
AcDbEntity
  8
200
100
AcDbLine
370
-1
  6
AUSGEZOGEN
 10
717
 20
387.66
 30
0
 11
714.66
 21
390
 31
0
  0
LINE
  5
F3
100
AcDbEntity
  8
200
100
AcDbLine
370
-1
  6
AUSGEZOGEN
 10
717
 20
384.34
 30
0
 11
717
 21
387.66
 31
0
  0
LINE
  5
F4
100
AcDbEntity
  8
200
100
AcDbLine
370
-1
  6
AUSGEZOGEN
 10
714.66
 20
382
 30
0
 11
717
 21
384.34
 31
0
  0
LINE
  5
F5
100
AcDbEntity
  8
200
100
AcDbLine
370
-1
  6
AUSGEZOGEN
 10
704.34
 20
382
 30
0
 11
714.66
 21
382
 31
0
  0
LINE
  5
F6
100
AcDbEntity
  8
200
100
AcDbLine
370
-1
  6
AUSGEZOGEN
 10
702
 20
384.34
 30
0
 11
704.34
 21
382
 31
0
  0
LINE
  5
F7
100
AcDbEntity
  8
200
100
AcDbLine
370
-1
  6
AUSGEZOGEN
 10
704.34
 20
390
 30
0
 11
702
 21
387.66
 31
0
  0
LINE
  5
F8
100
AcDbEntity
  8
200
100
AcDbLine
370
-1
  6
AUSGEZOGEN
 10
702
 20
384.34
 30
0
 11
702
 21
387.66
 31
0
  0
LINE
  5
F9
100
AcDbEntity
  8
200
100
AcDbLine
370
-1
  6
AUSGEZOGEN
 10
714.66
 20
390
 30
0
 11
704.34
 21
390
 31
0
  0
LINE
  5
FA
100
AcDbEntity
  8
200
100
AcDbLine
370
-1
  6
AUSGEZOGEN
 10
742
 20
387.66
 30
0
 11
739.66
 21
390
 31
0
  0
LINE
  5
FB
100
AcDbEntity
  8
200
100
AcDbLine
370
-1
  6
AUSGEZOGEN
 10
742
 20
384.34
 30
0
 11
742
 21
387.66
 31
0
  0
LINE
  5
FC
100
AcDbEntity
  8
200
100
AcDbLine
370
-1
  6
AUSGEZOGEN
 10
739.66
 20
382
 30
0
 11
742
 21
384.34
 31
0
  0
LINE
  5
FD
100
AcDbEntity
  8
200
100
AcDbLine
370
-1
  6
AUSGEZOGEN
 10
729.34
 20
382
 30
0
 11
739.66
 21
382
 31
0
  0
LINE
  5
FE
100
AcDbEntity
  8
200
100
AcDbLine
370
-1
  6
AUSGEZOGEN
 10
727
 20
384.34
 30
0
 11
729.34
 21
382
 31
0
  0
LINE
  5
FF
100
AcDbEntity
  8
200
100
AcDbLine
370
-1
  6
AUSGEZOGEN
 10
729.34
 20
390
 30
0
 11
727
 21
387.66
 31
0
  0
LINE
  5
100
100
AcDbEntity
  8
200
100
AcDbLine
370
-1
  6
AUSGEZOGEN
 10
727
 20
384.34
 30
0
 11
727
 21
387.66
 31
0
  0
LINE
  5
101
100
AcDbEntity
  8
200
100
AcDbLine
370
-1
  6
AUSGEZOGEN
 10
739.66
 20
390
 30
0
 11
729.34
 21
390
 31
0
  0
LINE
  5
102
100
AcDbEntity
  8
200
100
AcDbLine
370
-1
  6
AUSGEZOGEN
 10
767
 20
387.66
 30
0
 11
764.66
 21
390
 31
0
  0
LINE
  5
103
100
AcDbEntity
  8
200
100
AcDbLine
370
-1
  6
AUSGEZOGEN
 10
767
 20
384.34
 30
0
 11
767
 21
387.66
 31
0
  0
LINE
  5
104
100
AcDbEntity
  8
200
100
AcDbLine
370
-1
  6
AUSGEZOGEN
 10
764.66
 20
382
 30
0
 11
767
 21
384.34
 31
0
  0
LINE
  5
105
100
AcDbEntity
  8
200
100
AcDbLine
370
-1
  6
AUSGEZOGEN
 10
754.34
 20
382
 30
0
 11
764.66
 21
382
 31
0
  0
LINE
  5
106
100
AcDbEntity
  8
200
100
AcDbLine
370
-1
  6
AUSGEZOGEN
 10
752
 20
384.34
 30
0
 11
754.34
 21
382
 31
0
  0
LINE
  5
107
100
AcDbEntity
  8
200
100
AcDbLine
370
-1
  6
AUSGEZOGEN
 10
754.34
 20
390
 30
0
 11
752
 21
387.66
 31
0
  0
LINE
  5
108
100
AcDbEntity
  8
200
100
AcDbLine
370
-1
  6
AUSGEZOGEN
 10
752
 20
384.34
 30
0
 11
752
 21
387.66
 31
0
  0
LINE
  5
109
100
AcDbEntity
  8
200
100
AcDbLine
370
-1
  6
AUSGEZOGEN
 10
764.66
 20
390
 30
0
 11
754.34
 21
390
 31
0
  0
LINE
  5
10A
100
AcDbEntity
  8
200
100
AcDbLine
370
-1
  6
AUSGEZOGEN
 10
792
 20
387.66
 30
0
 11
789.66
 21
390
 31
0
  0
LINE
  5
10B
100
AcDbEntity
  8
200
100
AcDbLine
370
-1
  6
AUSGEZOGEN
 10
792
 20
384.34
 30
0
 11
792
 21
387.66
 31
0
  0
LINE
  5
10C
100
AcDbEntity
  8
200
100
AcDbLine
370
-1
  6
AUSGEZOGEN
 10
789.66
 20
382
 30
0
 11
792
 21
384.34
 31
0
  0
LINE
  5
10D
100
AcDbEntity
  8
200
100
AcDbLine
370
-1
  6
AUSGEZOGEN
 10
779.34
 20
382
 30
0
 11
789.66
 21
382
 31
0
  0
LINE
  5
10E
100
AcDbEntity
  8
200
100
AcDbLine
370
-1
  6
AUSGEZOGEN
 10
777
 20
384.34
 30
0
 11
779.34
 21
382
 31
0
  0
LINE
  5
10F
100
AcDbEntity
  8
200
100
AcDbLine
370
-1
  6
AUSGEZOGEN
 10
779.34
 20
390
 30
0
 11
777
 21
387.66
 31
0
  0
LINE
  5
110
100
AcDbEntity
  8
200
100
AcDbLine
370
-1
  6
AUSGEZOGEN
 10
777
 20
384.34
 30
0
 11
777
 21
387.66
 31
0
  0
LINE
  5
111
100
AcDbEntity
  8
200
100
AcDbLine
370
-1
  6
AUSGEZOGEN
 10
789.66
 20
390
 30
0
 11
779.34
 21
390
 31
0
  0
LINE
  5
112
100
AcDbEntity
  8
200
100
AcDbLine
370
-1
  6
AUSGEZOGEN
 10
817
 20
387.66
 30
0
 11
814.66
 21
390
 31
0
  0
LINE
  5
113
100
AcDbEntity
  8
200
100
AcDbLine
370
-1
  6
AUSGEZOGEN
 10
817
 20
384.34
 30
0
 11
817
 21
387.66
 31
0
  0
LINE
  5
114
100
AcDbEntity
  8
200
100
AcDbLine
370
-1
  6
AUSGEZOGEN
 10
814.66
 20
382
 30
0
 11
817
 21
384.34
 31
0
  0
LINE
  5
115
100
AcDbEntity
  8
200
100
AcDbLine
370
-1
  6
AUSGEZOGEN
 10
804.34
 20
382
 30
0
 11
814.66
 21
382
 31
0
  0
LINE
  5
116
100
AcDbEntity
  8
200
100
AcDbLine
370
-1
  6
AUSGEZOGEN
 10
802
 20
384.34
 30
0
 11
804.34
 21
382
 31
0
  0
LINE
  5
117
100
AcDbEntity
  8
200
100
AcDbLine
370
-1
  6
AUSGEZOGEN
 10
804.34
 20
390
 30
0
 11
802
 21
387.66
 31
0
  0
LINE
  5
118
100
AcDbEntity
  8
200
100
AcDbLine
370
-1
  6
AUSGEZOGEN
 10
802
 20
384.34
 30
0
 11
802
 21
387.66
 31
0
  0
LINE
  5
119
100
AcDbEntity
  8
200
100
AcDbLine
370
-1
  6
AUSGEZOGEN
 10
814.66
 20
390
 30
0
 11
804.34
 21
390
 31
0
  0
LINE
  5
11A
100
AcDbEntity
  8
200
100
AcDbLine
370
-1
  6
AUSGEZOGEN
 10
842
 20
387.66
 30
0
 11
839.66
 21
390
 31
0
  0
LINE
  5
11B
100
AcDbEntity
  8
200
100
AcDbLine
370
-1
  6
AUSGEZOGEN
 10
842
 20
384.34
 30
0
 11
842
 21
387.66
 31
0
  0
LINE
  5
11C
100
AcDbEntity
  8
200
100
AcDbLine
370
-1
  6
AUSGEZOGEN
 10
839.66
 20
382
 30
0
 11
842
 21
384.34
 31
0
  0
LINE
  5
11D
100
AcDbEntity
  8
200
100
AcDbLine
370
-1
  6
AUSGEZOGEN
 10
829.34
 20
382
 30
0
 11
839.66
 21
382
 31
0
  0
LINE
  5
11E
100
AcDbEntity
  8
200
100
AcDbLine
370
-1
  6
AUSGEZOGEN
 10
827
 20
384.34
 30
0
 11
829.34
 21
382
 31
0
  0
LINE
  5
11F
100
AcDbEntity
  8
200
100
AcDbLine
370
-1
  6
AUSGEZOGEN
 10
829.34
 20
390
 30
0
 11
827
 21
387.66
 31
0
  0
LINE
  5
120
100
AcDbEntity
  8
200
100
AcDbLine
370
-1
  6
AUSGEZOGEN
 10
827
 20
384.34
 30
0
 11
827
 21
387.66
 31
0
  0
LINE
  5
121
100
AcDbEntity
  8
200
100
AcDbLine
370
-1
  6
AUSGEZOGEN
 10
839.66
 20
390
 30
0
 11
829.34
 21
390
 31
0
  0
LINE
  5
122
100
AcDbEntity
  8
200
100
AcDbLine
370
-1
  6
AUSGEZOGEN
 10
867
 20
387.66
 30
0
 11
864.66
 21
390
 31
0
  0
LINE
  5
123
100
AcDbEntity
  8
200
100
AcDbLine
370
-1
  6
AUSGEZOGEN
 10
867
 20
384.34
 30
0
 11
867
 21
387.66
 31
0
  0
LINE
  5
124
100
AcDbEntity
  8
200
100
AcDbLine
370
-1
  6
AUSGEZOGEN
 10
864.66
 20
382
 30
0
 11
867
 21
384.34
 31
0
  0
LINE
  5
125
100
AcDbEntity
  8
200
100
AcDbLine
370
-1
  6
AUSGEZOGEN
 10
854.34
 20
382
 30
0
 11
864.66
 21
382
 31
0
  0
LINE
  5
126
100
AcDbEntity
  8
200
100
AcDbLine
370
-1
  6
AUSGEZOGEN
 10
852
 20
384.34
 30
0
 11
854.34
 21
382
 31
0
  0
LINE
  5
127
100
AcDbEntity
  8
200
100
AcDbLine
370
-1
  6
AUSGEZOGEN
 10
854.34
 20
390
 30
0
 11
852
 21
387.66
 31
0
  0
LINE
  5
128
100
AcDbEntity
  8
200
100
AcDbLine
370
-1
  6
AUSGEZOGEN
 10
852
 20
384.34
 30
0
 11
852
 21
387.66
 31
0
  0
LINE
  5
129
100
AcDbEntity
  8
200
100
AcDbLine
370
-1
  6
AUSGEZOGEN
 10
864.66
 20
390
 30
0
 11
854.34
 21
390
 31
0
  0
LINE
  5
12A
100
AcDbEntity
  8
200
100
AcDbLine
370
-1
  6
AUSGEZOGEN
 10
892
 20
387.66
 30
0
 11
889.66
 21
390
 31
0
  0
LINE
  5
12B
100
AcDbEntity
  8
200
100
AcDbLine
370
-1
  6
AUSGEZOGEN
 10
892
 20
384.34
 30
0
 11
892
 21
387.66
 31
0
  0
LINE
  5
12C
100
AcDbEntity
  8
200
100
AcDbLine
370
-1
  6
AUSGEZOGEN
 10
889.66
 20
382
 30
0
 11
892
 21
384.34
 31
0
  0
LINE
  5
12D
100
AcDbEntity
  8
200
100
AcDbLine
370
-1
  6
AUSGEZOGEN
 10
879.34
 20
382
 30
0
 11
889.66
 21
382
 31
0
  0
LINE
  5
12E
100
AcDbEntity
  8
200
100
AcDbLine
370
-1
  6
AUSGEZOGEN
 10
877
 20
384.34
 30
0
 11
879.34
 21
382
 31
0
  0
LINE
  5
12F
100
AcDbEntity
  8
200
100
AcDbLine
370
-1
  6
AUSGEZOGEN
 10
879.34
 20
390
 30
0
 11
877
 21
387.66
 31
0
  0
LINE
  5
130
100
AcDbEntity
  8
200
100
AcDbLine
370
-1
  6
AUSGEZOGEN
 10
877
 20
384.34
 30
0
 11
877
 21
387.66
 31
0
  0
LINE
  5
131
100
AcDbEntity
  8
200
100
AcDbLine
370
-1
  6
AUSGEZOGEN
 10
889.66
 20
390
 30
0
 11
879.34
 21
390
 31
0
  0
LINE
  5
132
100
AcDbEntity
  8
200
100
AcDbLine
370
-1
  6
AUSGEZOGEN
 10
917
 20
387.66
 30
0
 11
914.66
 21
390
 31
0
  0
LINE
  5
133
100
AcDbEntity
  8
200
100
AcDbLine
370
-1
  6
AUSGEZOGEN
 10
917
 20
384.34
 30
0
 11
917
 21
387.66
 31
0
  0
LINE
  5
134
100
AcDbEntity
  8
200
100
AcDbLine
370
-1
  6
AUSGEZOGEN
 10
914.66
 20
382
 30
0
 11
917
 21
384.34
 31
0
  0
LINE
  5
135
100
AcDbEntity
  8
200
100
AcDbLine
370
-1
  6
AUSGEZOGEN
 10
904.34
 20
382
 30
0
 11
914.66
 21
382
 31
0
  0
LINE
  5
136
100
AcDbEntity
  8
200
100
AcDbLine
370
-1
  6
AUSGEZOGEN
 10
902
 20
384.34
 30
0
 11
904.34
 21
382
 31
0
  0
LINE
  5
137
100
AcDbEntity
  8
200
100
AcDbLine
370
-1
  6
AUSGEZOGEN
 10
904.34
 20
390
 30
0
 11
902
 21
387.66
 31
0
  0
LINE
  5
138
100
AcDbEntity
  8
200
100
AcDbLine
370
-1
  6
AUSGEZOGEN
 10
902
 20
384.34
 30
0
 11
902
 21
387.66
 31
0
  0
LINE
  5
139
100
AcDbEntity
  8
200
100
AcDbLine
370
-1
  6
AUSGEZOGEN
 10
914.66
 20
390
 30
0
 11
904.34
 21
390
 31
0
  0
LINE
  5
13A
100
AcDbEntity
  8
200
100
AcDbLine
370
-1
  6
AUSGEZOGEN
 10
177.66
 20
404
 30
0
 11
180
 21
401.66
 31
0
  0
LINE
  5
13B
100
AcDbEntity
  8
200
100
AcDbLine
370
-1
  6
AUSGEZOGEN
 10
180
 20
398.34
 30
0
 11
180
 21
401.66
 31
0
  0
LINE
  5
13C
100
AcDbEntity
  8
200
100
AcDbLine
370
-1
  6
AUSGEZOGEN
 10
177.66
 20
396
 30
0
 11
180
 21
398.34
 31
0
  0
LINE
  5
13D
100
AcDbEntity
  8
200
100
AcDbLine
370
-1
  6
AUSGEZOGEN
 10
167.34
 20
396
 30
0
 11
177.66
 21
396
 31
0
  0
LINE
  5
13E
100
AcDbEntity
  8
200
100
AcDbLine
370
-1
  6
AUSGEZOGEN
 10
165
 20
398.34
 30
0
 11
167.34
 21
396
 31
0
  0
LINE
  5
13F
100
AcDbEntity
  8
200
100
AcDbLine
370
-1
  6
AUSGEZOGEN
 10
167.34
 20
404
 30
0
 11
165
 21
401.66
 31
0
  0
LINE
  5
140
100
AcDbEntity
  8
200
100
AcDbLine
370
-1
  6
AUSGEZOGEN
 10
165
 20
398.34
 30
0
 11
165
 21
401.66
 31
0
  0
LINE
  5
141
100
AcDbEntity
  8
200
100
AcDbLine
370
-1
  6
AUSGEZOGEN
 10
177.66
 20
404
 30
0
 11
167.34
 21
404
 31
0
  0
LINE
  5
142
100
AcDbEntity
  8
200
100
AcDbLine
370
-1
  6
AUSGEZOGEN
 10
205
 20
401.66
 30
0
 11
202.66
 21
404
 31
0
  0
LINE
  5
143
100
AcDbEntity
  8
200
100
AcDbLine
370
-1
  6
AUSGEZOGEN
 10
205
 20
398.34
 30
0
 11
205
 21
401.66
 31
0
  0
LINE
  5
144
100
AcDbEntity
  8
200
100
AcDbLine
370
-1
  6
AUSGEZOGEN
 10
202.66
 20
396
 30
0
 11
205
 21
398.34
 31
0
  0
LINE
  5
145
100
AcDbEntity
  8
200
100
AcDbLine
370
-1
  6
AUSGEZOGEN
 10
192.34
 20
396
 30
0
 11
202.66
 21
396
 31
0
  0
LINE
  5
146
100
AcDbEntity
  8
200
100
AcDbLine
370
-1
  6
AUSGEZOGEN
 10
190
 20
398.34
 30
0
 11
192.34
 21
396
 31
0
  0
LINE
  5
147
100
AcDbEntity
  8
200
100
AcDbLine
370
-1
  6
AUSGEZOGEN
 10
192.34
 20
404
 30
0
 11
190
 21
401.66
 31
0
  0
LINE
  5
148
100
AcDbEntity
  8
200
100
AcDbLine
370
-1
  6
AUSGEZOGEN
 10
190
 20
398.34
 30
0
 11
190
 21
401.66
 31
0
  0
LINE
  5
149
100
AcDbEntity
  8
200
100
AcDbLine
370
-1
  6
AUSGEZOGEN
 10
202.66
 20
404
 30
0
 11
192.34
 21
404
 31
0
  0
LINE
  5
14A
100
AcDbEntity
  8
200
100
AcDbLine
370
-1
  6
AUSGEZOGEN
 10
230
 20
401.66
 30
0
 11
227.66
 21
404
 31
0
  0
LINE
  5
14B
100
AcDbEntity
  8
200
100
AcDbLine
370
-1
  6
AUSGEZOGEN
 10
230
 20
398.34
 30
0
 11
230
 21
401.66
 31
0
  0
LINE
  5
14C
100
AcDbEntity
  8
200
100
AcDbLine
370
-1
  6
AUSGEZOGEN
 10
227.66
 20
396
 30
0
 11
230
 21
398.34
 31
0
  0
LINE
  5
14D
100
AcDbEntity
  8
200
100
AcDbLine
370
-1
  6
AUSGEZOGEN
 10
217.34
 20
396
 30
0
 11
227.66
 21
396
 31
0
  0
LINE
  5
14E
100
AcDbEntity
  8
200
100
AcDbLine
370
-1
  6
AUSGEZOGEN
 10
215
 20
398.34
 30
0
 11
217.34
 21
396
 31
0
  0
LINE
  5
14F
100
AcDbEntity
  8
200
100
AcDbLine
370
-1
  6
AUSGEZOGEN
 10
217.34
 20
404
 30
0
 11
215
 21
401.66
 31
0
  0
LINE
  5
150
100
AcDbEntity
  8
200
100
AcDbLine
370
-1
  6
AUSGEZOGEN
 10
215
 20
398.34
 30
0
 11
215
 21
401.66
 31
0
  0
LINE
  5
151
100
AcDbEntity
  8
200
100
AcDbLine
370
-1
  6
AUSGEZOGEN
 10
227.66
 20
404
 30
0
 11
217.34
 21
404
 31
0
  0
LINE
  5
152
100
AcDbEntity
  8
200
100
AcDbLine
370
-1
  6
AUSGEZOGEN
 10
255
 20
401.66
 30
0
 11
252.66
 21
404
 31
0
  0
LINE
  5
153
100
AcDbEntity
  8
200
100
AcDbLine
370
-1
  6
AUSGEZOGEN
 10
255
 20
398.34
 30
0
 11
255
 21
401.66
 31
0
  0
LINE
  5
154
100
AcDbEntity
  8
200
100
AcDbLine
370
-1
  6
AUSGEZOGEN
 10
252.66
 20
396
 30
0
 11
255
 21
398.34
 31
0
  0
LINE
  5
155
100
AcDbEntity
  8
200
100
AcDbLine
370
-1
  6
AUSGEZOGEN
 10
242.34
 20
396
 30
0
 11
252.66
 21
396
 31
0
  0
LINE
  5
156
100
AcDbEntity
  8
200
100
AcDbLine
370
-1
  6
AUSGEZOGEN
 10
240
 20
398.34
 30
0
 11
242.34
 21
396
 31
0
  0
LINE
  5
157
100
AcDbEntity
  8
200
100
AcDbLine
370
-1
  6
AUSGEZOGEN
 10
242.34
 20
404
 30
0
 11
240
 21
401.66
 31
0
  0
LINE
  5
158
100
AcDbEntity
  8
200
100
AcDbLine
370
-1
  6
AUSGEZOGEN
 10
240
 20
398.34
 30
0
 11
240
 21
401.66
 31
0
  0
LINE
  5
159
100
AcDbEntity
  8
200
100
AcDbLine
370
-1
  6
AUSGEZOGEN
 10
252.66
 20
404
 30
0
 11
242.34
 21
404
 31
0
  0
LINE
  5
15A
100
AcDbEntity
  8
200
100
AcDbLine
370
-1
  6
AUSGEZOGEN
 10
280
 20
401.66
 30
0
 11
277.66
 21
404
 31
0
  0
LINE
  5
15B
100
AcDbEntity
  8
200
100
AcDbLine
370
-1
  6
AUSGEZOGEN
 10
280
 20
398.34
 30
0
 11
280
 21
401.66
 31
0
  0
LINE
  5
15C
100
AcDbEntity
  8
200
100
AcDbLine
370
-1
  6
AUSGEZOGEN
 10
277.66
 20
396
 30
0
 11
280
 21
398.34
 31
0
  0
LINE
  5
15D
100
AcDbEntity
  8
200
100
AcDbLine
370
-1
  6
AUSGEZOGEN
 10
267.34
 20
396
 30
0
 11
277.66
 21
396
 31
0
  0
LINE
  5
15E
100
AcDbEntity
  8
200
100
AcDbLine
370
-1
  6
AUSGEZOGEN
 10
265
 20
398.34
 30
0
 11
267.34
 21
396
 31
0
  0
LINE
  5
15F
100
AcDbEntity
  8
200
100
AcDbLine
370
-1
  6
AUSGEZOGEN
 10
267.34
 20
404
 30
0
 11
265
 21
401.66
 31
0
  0
LINE
  5
160
100
AcDbEntity
  8
200
100
AcDbLine
370
-1
  6
AUSGEZOGEN
 10
265
 20
398.34
 30
0
 11
265
 21
401.66
 31
0
  0
LINE
  5
161
100
AcDbEntity
  8
200
100
AcDbLine
370
-1
  6
AUSGEZOGEN
 10
277.66
 20
404
 30
0
 11
267.34
 21
404
 31
0
  0
LINE
  5
162
100
AcDbEntity
  8
200
100
AcDbLine
370
-1
  6
AUSGEZOGEN
 10
305
 20
401.66
 30
0
 11
302.66
 21
404
 31
0
  0
LINE
  5
163
100
AcDbEntity
  8
200
100
AcDbLine
370
-1
  6
AUSGEZOGEN
 10
305
 20
398.34
 30
0
 11
305
 21
401.66
 31
0
  0
LINE
  5
164
100
AcDbEntity
  8
200
100
AcDbLine
370
-1
  6
AUSGEZOGEN
 10
302.66
 20
396
 30
0
 11
305
 21
398.34
 31
0
  0
LINE
  5
165
100
AcDbEntity
  8
200
100
AcDbLine
370
-1
  6
AUSGEZOGEN
 10
292.34
 20
396
 30
0
 11
302.66
 21
396
 31
0
  0
LINE
  5
166
100
AcDbEntity
  8
200
100
AcDbLine
370
-1
  6
AUSGEZOGEN
 10
290
 20
398.34
 30
0
 11
292.34
 21
396
 31
0
  0
LINE
  5
167
100
AcDbEntity
  8
200
100
AcDbLine
370
-1
  6
AUSGEZOGEN
 10
292.34
 20
404
 30
0
 11
290
 21
401.66
 31
0
  0
LINE
  5
168
100
AcDbEntity
  8
200
100
AcDbLine
370
-1
  6
AUSGEZOGEN
 10
290
 20
398.34
 30
0
 11
290
 21
401.66
 31
0
  0
LINE
  5
169
100
AcDbEntity
  8
200
100
AcDbLine
370
-1
  6
AUSGEZOGEN
 10
302.66
 20
404
 30
0
 11
292.34
 21
404
 31
0
  0
LINE
  5
16A
100
AcDbEntity
  8
200
100
AcDbLine
370
-1
  6
AUSGEZOGEN
 10
330
 20
401.66
 30
0
 11
327.66
 21
404
 31
0
  0
LINE
  5
16B
100
AcDbEntity
  8
200
100
AcDbLine
370
-1
  6
AUSGEZOGEN
 10
330
 20
398.34
 30
0
 11
330
 21
401.66
 31
0
  0
LINE
  5
16C
100
AcDbEntity
  8
200
100
AcDbLine
370
-1
  6
AUSGEZOGEN
 10
327.66
 20
396
 30
0
 11
330
 21
398.34
 31
0
  0
LINE
  5
16D
100
AcDbEntity
  8
200
100
AcDbLine
370
-1
  6
AUSGEZOGEN
 10
317.34
 20
396
 30
0
 11
327.66
 21
396
 31
0
  0
LINE
  5
16E
100
AcDbEntity
  8
200
100
AcDbLine
370
-1
  6
AUSGEZOGEN
 10
315
 20
398.34
 30
0
 11
317.34
 21
396
 31
0
  0
LINE
  5
16F
100
AcDbEntity
  8
200
100
AcDbLine
370
-1
  6
AUSGEZOGEN
 10
317.34
 20
404
 30
0
 11
315
 21
401.66
 31
0
  0
LINE
  5
170
100
AcDbEntity
  8
200
100
AcDbLine
370
-1
  6
AUSGEZOGEN
 10
315
 20
398.34
 30
0
 11
315
 21
401.66
 31
0
  0
LINE
  5
171
100
AcDbEntity
  8
200
100
AcDbLine
370
-1
  6
AUSGEZOGEN
 10
327.66
 20
404
 30
0
 11
317.34
 21
404
 31
0
  0
LINE
  5
172
100
AcDbEntity
  8
200
100
AcDbLine
370
-1
  6
AUSGEZOGEN
 10
355
 20
401.66
 30
0
 11
352.66
 21
404
 31
0
  0
LINE
  5
173
100
AcDbEntity
  8
200
100
AcDbLine
370
-1
  6
AUSGEZOGEN
 10
355
 20
398.34
 30
0
 11
355
 21
401.66
 31
0
  0
LINE
  5
174
100
AcDbEntity
  8
200
100
AcDbLine
370
-1
  6
AUSGEZOGEN
 10
352.66
 20
396
 30
0
 11
355
 21
398.34
 31
0
  0
LINE
  5
175
100
AcDbEntity
  8
200
100
AcDbLine
370
-1
  6
AUSGEZOGEN
 10
342.34
 20
396
 30
0
 11
352.66
 21
396
 31
0
  0
LINE
  5
176
100
AcDbEntity
  8
200
100
AcDbLine
370
-1
  6
AUSGEZOGEN
 10
340
 20
398.34
 30
0
 11
342.34
 21
396
 31
0
  0
LINE
  5
177
100
AcDbEntity
  8
200
100
AcDbLine
370
-1
  6
AUSGEZOGEN
 10
342.34
 20
404
 30
0
 11
340
 21
401.66
 31
0
  0
LINE
  5
178
100
AcDbEntity
  8
200
100
AcDbLine
370
-1
  6
AUSGEZOGEN
 10
340
 20
398.34
 30
0
 11
340
 21
401.66
 31
0
  0
LINE
  5
179
100
AcDbEntity
  8
200
100
AcDbLine
370
-1
  6
AUSGEZOGEN
 10
352.66
 20
404
 30
0
 11
342.34
 21
404
 31
0
  0
LINE
  5
17A
100
AcDbEntity
  8
200
100
AcDbLine
370
-1
  6
AUSGEZOGEN
 10
380
 20
401.66
 30
0
 11
377.66
 21
404
 31
0
  0
LINE
  5
17B
100
AcDbEntity
  8
200
100
AcDbLine
370
-1
  6
AUSGEZOGEN
 10
380
 20
398.34
 30
0
 11
380
 21
401.66
 31
0
  0
LINE
  5
17C
100
AcDbEntity
  8
200
100
AcDbLine
370
-1
  6
AUSGEZOGEN
 10
377.66
 20
396
 30
0
 11
380
 21
398.34
 31
0
  0
LINE
  5
17D
100
AcDbEntity
  8
200
100
AcDbLine
370
-1
  6
AUSGEZOGEN
 10
367.34
 20
396
 30
0
 11
377.66
 21
396
 31
0
  0
LINE
  5
17E
100
AcDbEntity
  8
200
100
AcDbLine
370
-1
  6
AUSGEZOGEN
 10
365
 20
398.34
 30
0
 11
367.34
 21
396
 31
0
  0
LINE
  5
17F
100
AcDbEntity
  8
200
100
AcDbLine
370
-1
  6
AUSGEZOGEN
 10
367.34
 20
404
 30
0
 11
365
 21
401.66
 31
0
  0
LINE
  5
180
100
AcDbEntity
  8
200
100
AcDbLine
370
-1
  6
AUSGEZOGEN
 10
365
 20
398.34
 30
0
 11
365
 21
401.66
 31
0
  0
LINE
  5
181
100
AcDbEntity
  8
200
100
AcDbLine
370
-1
  6
AUSGEZOGEN
 10
377.66
 20
404
 30
0
 11
367.34
 21
404
 31
0
  0
LINE
  5
182
100
AcDbEntity
  8
200
100
AcDbLine
370
-1
  6
AUSGEZOGEN
 10
405
 20
401.66
 30
0
 11
402.66
 21
404
 31
0
  0
LINE
  5
183
100
AcDbEntity
  8
200
100
AcDbLine
370
-1
  6
AUSGEZOGEN
 10
405
 20
398.34
 30
0
 11
405
 21
401.66
 31
0
  0
LINE
  5
184
100
AcDbEntity
  8
200
100
AcDbLine
370
-1
  6
AUSGEZOGEN
 10
402.66
 20
396
 30
0
 11
405
 21
398.34
 31
0
  0
LINE
  5
185
100
AcDbEntity
  8
200
100
AcDbLine
370
-1
  6
AUSGEZOGEN
 10
392.34
 20
396
 30
0
 11
402.66
 21
396
 31
0
  0
LINE
  5
186
100
AcDbEntity
  8
200
100
AcDbLine
370
-1
  6
AUSGEZOGEN
 10
390
 20
398.34
 30
0
 11
392.34
 21
396
 31
0
  0
LINE
  5
187
100
AcDbEntity
  8
200
100
AcDbLine
370
-1
  6
AUSGEZOGEN
 10
392.34
 20
404
 30
0
 11
390
 21
401.66
 31
0
  0
LINE
  5
188
100
AcDbEntity
  8
200
100
AcDbLine
370
-1
  6
AUSGEZOGEN
 10
390
 20
398.34
 30
0
 11
390
 21
401.66
 31
0
  0
LINE
  5
189
100
AcDbEntity
  8
200
100
AcDbLine
370
-1
  6
AUSGEZOGEN
 10
402.66
 20
404
 30
0
 11
392.34
 21
404
 31
0
  0
LINE
  5
18A
100
AcDbEntity
  8
200
100
AcDbLine
370
-1
  6
AUSGEZOGEN
 10
430
 20
401.66
 30
0
 11
427.66
 21
404
 31
0
  0
LINE
  5
18B
100
AcDbEntity
  8
200
100
AcDbLine
370
-1
  6
AUSGEZOGEN
 10
430
 20
398.34
 30
0
 11
430
 21
401.66
 31
0
  0
LINE
  5
18C
100
AcDbEntity
  8
200
100
AcDbLine
370
-1
  6
AUSGEZOGEN
 10
427.66
 20
396
 30
0
 11
430
 21
398.34
 31
0
  0
LINE
  5
18D
100
AcDbEntity
  8
200
100
AcDbLine
370
-1
  6
AUSGEZOGEN
 10
417.34
 20
396
 30
0
 11
427.66
 21
396
 31
0
  0
LINE
  5
18E
100
AcDbEntity
  8
200
100
AcDbLine
370
-1
  6
AUSGEZOGEN
 10
415
 20
398.34
 30
0
 11
417.34
 21
396
 31
0
  0
LINE
  5
18F
100
AcDbEntity
  8
200
100
AcDbLine
370
-1
  6
AUSGEZOGEN
 10
417.34
 20
404
 30
0
 11
415
 21
401.66
 31
0
  0
LINE
  5
190
100
AcDbEntity
  8
200
100
AcDbLine
370
-1
  6
AUSGEZOGEN
 10
415
 20
398.34
 30
0
 11
415
 21
401.66
 31
0
  0
LINE
  5
191
100
AcDbEntity
  8
200
100
AcDbLine
370
-1
  6
AUSGEZOGEN
 10
427.66
 20
404
 30
0
 11
417.34
 21
404
 31
0
  0
LINE
  5
192
100
AcDbEntity
  8
200
100
AcDbLine
370
-1
  6
AUSGEZOGEN
 10
455
 20
401.66
 30
0
 11
452.66
 21
404
 31
0
  0
LINE
  5
193
100
AcDbEntity
  8
200
100
AcDbLine
370
-1
  6
AUSGEZOGEN
 10
455
 20
398.34
 30
0
 11
455
 21
401.66
 31
0
  0
LINE
  5
194
100
AcDbEntity
  8
200
100
AcDbLine
370
-1
  6
AUSGEZOGEN
 10
452.66
 20
396
 30
0
 11
455
 21
398.34
 31
0
  0
LINE
  5
195
100
AcDbEntity
  8
200
100
AcDbLine
370
-1
  6
AUSGEZOGEN
 10
442.34
 20
396
 30
0
 11
452.66
 21
396
 31
0
  0
LINE
  5
196
100
AcDbEntity
  8
200
100
AcDbLine
370
-1
  6
AUSGEZOGEN
 10
440
 20
398.34
 30
0
 11
442.34
 21
396
 31
0
  0
LINE
  5
197
100
AcDbEntity
  8
200
100
AcDbLine
370
-1
  6
AUSGEZOGEN
 10
442.34
 20
404
 30
0
 11
440
 21
401.66
 31
0
  0
LINE
  5
198
100
AcDbEntity
  8
200
100
AcDbLine
370
-1
  6
AUSGEZOGEN
 10
440
 20
398.34
 30
0
 11
440
 21
401.66
 31
0
  0
LINE
  5
199
100
AcDbEntity
  8
200
100
AcDbLine
370
-1
  6
AUSGEZOGEN
 10
452.66
 20
404
 30
0
 11
442.34
 21
404
 31
0
  0
LINE
  5
19A
100
AcDbEntity
  8
200
100
AcDbLine
370
-1
  6
AUSGEZOGEN
 10
480
 20
401.66
 30
0
 11
477.66
 21
404
 31
0
  0
LINE
  5
19B
100
AcDbEntity
  8
200
100
AcDbLine
370
-1
  6
AUSGEZOGEN
 10
480
 20
398.34
 30
0
 11
480
 21
401.66
 31
0
  0
LINE
  5
19C
100
AcDbEntity
  8
200
100
AcDbLine
370
-1
  6
AUSGEZOGEN
 10
477.66
 20
396
 30
0
 11
480
 21
398.34
 31
0
  0
LINE
  5
19D
100
AcDbEntity
  8
200
100
AcDbLine
370
-1
  6
AUSGEZOGEN
 10
467.34
 20
396
 30
0
 11
477.66
 21
396
 31
0
  0
LINE
  5
19E
100
AcDbEntity
  8
200
100
AcDbLine
370
-1
  6
AUSGEZOGEN
 10
465
 20
398.34
 30
0
 11
467.34
 21
396
 31
0
  0
LINE
  5
19F
100
AcDbEntity
  8
200
100
AcDbLine
370
-1
  6
AUSGEZOGEN
 10
467.34
 20
404
 30
0
 11
465
 21
401.66
 31
0
  0
LINE
  5
1A0
100
AcDbEntity
  8
200
100
AcDbLine
370
-1
  6
AUSGEZOGEN
 10
465
 20
398.34
 30
0
 11
465
 21
401.66
 31
0
  0
LINE
  5
1A1
100
AcDbEntity
  8
200
100
AcDbLine
370
-1
  6
AUSGEZOGEN
 10
477.66
 20
404
 30
0
 11
467.34
 21
404
 31
0
  0
LINE
  5
1A2
100
AcDbEntity
  8
200
100
AcDbLine
370
-1
  6
AUSGEZOGEN
 10
505
 20
401.66
 30
0
 11
502.66
 21
404
 31
0
  0
LINE
  5
1A3
100
AcDbEntity
  8
200
100
AcDbLine
370
-1
  6
AUSGEZOGEN
 10
505
 20
398.34
 30
0
 11
505
 21
401.66
 31
0
  0
LINE
  5
1A4
100
AcDbEntity
  8
200
100
AcDbLine
370
-1
  6
AUSGEZOGEN
 10
502.66
 20
396
 30
0
 11
505
 21
398.34
 31
0
  0
LINE
  5
1A5
100
AcDbEntity
  8
200
100
AcDbLine
370
-1
  6
AUSGEZOGEN
 10
492.34
 20
396
 30
0
 11
502.66
 21
396
 31
0
  0
LINE
  5
1A6
100
AcDbEntity
  8
200
100
AcDbLine
370
-1
  6
AUSGEZOGEN
 10
490
 20
398.34
 30
0
 11
492.34
 21
396
 31
0
  0
LINE
  5
1A7
100
AcDbEntity
  8
200
100
AcDbLine
370
-1
  6
AUSGEZOGEN
 10
492.34
 20
404
 30
0
 11
490
 21
401.66
 31
0
  0
LINE
  5
1A8
100
AcDbEntity
  8
200
100
AcDbLine
370
-1
  6
AUSGEZOGEN
 10
490
 20
398.34
 30
0
 11
490
 21
401.66
 31
0
  0
LINE
  5
1A9
100
AcDbEntity
  8
200
100
AcDbLine
370
-1
  6
AUSGEZOGEN
 10
502.66
 20
404
 30
0
 11
492.34
 21
404
 31
0
  0
LINE
  5
1AA
100
AcDbEntity
  8
200
100
AcDbLine
370
-1
  6
AUSGEZOGEN
 10
530
 20
401.66
 30
0
 11
527.66
 21
404
 31
0
  0
LINE
  5
1AB
100
AcDbEntity
  8
200
100
AcDbLine
370
-1
  6
AUSGEZOGEN
 10
530
 20
398.34
 30
0
 11
530
 21
401.66
 31
0
  0
LINE
  5
1AC
100
AcDbEntity
  8
200
100
AcDbLine
370
-1
  6
AUSGEZOGEN
 10
527.66
 20
396
 30
0
 11
530
 21
398.34
 31
0
  0
LINE
  5
1AD
100
AcDbEntity
  8
200
100
AcDbLine
370
-1
  6
AUSGEZOGEN
 10
517.34
 20
396
 30
0
 11
527.66
 21
396
 31
0
  0
LINE
  5
1AE
100
AcDbEntity
  8
200
100
AcDbLine
370
-1
  6
AUSGEZOGEN
 10
515
 20
398.34
 30
0
 11
517.34
 21
396
 31
0
  0
LINE
  5
1AF
100
AcDbEntity
  8
200
100
AcDbLine
370
-1
  6
AUSGEZOGEN
 10
517.34
 20
404
 30
0
 11
515
 21
401.66
 31
0
  0
LINE
  5
1B0
100
AcDbEntity
  8
200
100
AcDbLine
370
-1
  6
AUSGEZOGEN
 10
515
 20
398.34
 30
0
 11
515
 21
401.66
 31
0
  0
LINE
  5
1B1
100
AcDbEntity
  8
200
100
AcDbLine
370
-1
  6
AUSGEZOGEN
 10
527.66
 20
404
 30
0
 11
517.34
 21
404
 31
0
  0
LINE
  5
1B2
100
AcDbEntity
  8
200
100
AcDbLine
370
-1
  6
AUSGEZOGEN
 10
555
 20
401.66
 30
0
 11
552.66
 21
404
 31
0
  0
LINE
  5
1B3
100
AcDbEntity
  8
200
100
AcDbLine
370
-1
  6
AUSGEZOGEN
 10
555
 20
398.34
 30
0
 11
555
 21
401.66
 31
0
  0
LINE
  5
1B4
100
AcDbEntity
  8
200
100
AcDbLine
370
-1
  6
AUSGEZOGEN
 10
552.66
 20
396
 30
0
 11
555
 21
398.34
 31
0
  0
LINE
  5
1B5
100
AcDbEntity
  8
200
100
AcDbLine
370
-1
  6
AUSGEZOGEN
 10
542.34
 20
396
 30
0
 11
552.66
 21
396
 31
0
  0
LINE
  5
1B6
100
AcDbEntity
  8
200
100
AcDbLine
370
-1
  6
AUSGEZOGEN
 10
540
 20
398.34
 30
0
 11
542.34
 21
396
 31
0
  0
LINE
  5
1B7
100
AcDbEntity
  8
200
100
AcDbLine
370
-1
  6
AUSGEZOGEN
 10
542.34
 20
404
 30
0
 11
540
 21
401.66
 31
0
  0
LINE
  5
1B8
100
AcDbEntity
  8
200
100
AcDbLine
370
-1
  6
AUSGEZOGEN
 10
540
 20
398.34
 30
0
 11
540
 21
401.66
 31
0
  0
LINE
  5
1B9
100
AcDbEntity
  8
200
100
AcDbLine
370
-1
  6
AUSGEZOGEN
 10
552.66
 20
404
 30
0
 11
542.34
 21
404
 31
0
  0
LINE
  5
1BA
100
AcDbEntity
  8
200
100
AcDbLine
370
-1
  6
AUSGEZOGEN
 10
580
 20
401.66
 30
0
 11
577.66
 21
404
 31
0
  0
LINE
  5
1BB
100
AcDbEntity
  8
200
100
AcDbLine
370
-1
  6
AUSGEZOGEN
 10
580
 20
398.34
 30
0
 11
580
 21
401.66
 31
0
  0
LINE
  5
1BC
100
AcDbEntity
  8
200
100
AcDbLine
370
-1
  6
AUSGEZOGEN
 10
577.66
 20
396
 30
0
 11
580
 21
398.34
 31
0
  0
LINE
  5
1BD
100
AcDbEntity
  8
200
100
AcDbLine
370
-1
  6
AUSGEZOGEN
 10
567.34
 20
396
 30
0
 11
577.66
 21
396
 31
0
  0
LINE
  5
1BE
100
AcDbEntity
  8
200
100
AcDbLine
370
-1
  6
AUSGEZOGEN
 10
565
 20
398.34
 30
0
 11
567.34
 21
396
 31
0
  0
LINE
  5
1BF
100
AcDbEntity
  8
200
100
AcDbLine
370
-1
  6
AUSGEZOGEN
 10
567.34
 20
404
 30
0
 11
565
 21
401.66
 31
0
  0
LINE
  5
1C0
100
AcDbEntity
  8
200
100
AcDbLine
370
-1
  6
AUSGEZOGEN
 10
565
 20
398.34
 30
0
 11
565
 21
401.66
 31
0
  0
LINE
  5
1C1
100
AcDbEntity
  8
200
100
AcDbLine
370
-1
  6
AUSGEZOGEN
 10
577.66
 20
404
 30
0
 11
567.34
 21
404
 31
0
  0
LINE
  5
1C2
100
AcDbEntity
  8
200
100
AcDbLine
370
-1
  6
AUSGEZOGEN
 10
605
 20
401.66
 30
0
 11
602.66
 21
404
 31
0
  0
LINE
  5
1C3
100
AcDbEntity
  8
200
100
AcDbLine
370
-1
  6
AUSGEZOGEN
 10
605
 20
398.34
 30
0
 11
605
 21
401.66
 31
0
  0
LINE
  5
1C4
100
AcDbEntity
  8
200
100
AcDbLine
370
-1
  6
AUSGEZOGEN
 10
602.66
 20
396
 30
0
 11
605
 21
398.34
 31
0
  0
LINE
  5
1C5
100
AcDbEntity
  8
200
100
AcDbLine
370
-1
  6
AUSGEZOGEN
 10
592.34
 20
396
 30
0
 11
602.66
 21
396
 31
0
  0
LINE
  5
1C6
100
AcDbEntity
  8
200
100
AcDbLine
370
-1
  6
AUSGEZOGEN
 10
590
 20
398.34
 30
0
 11
592.34
 21
396
 31
0
  0
LINE
  5
1C7
100
AcDbEntity
  8
200
100
AcDbLine
370
-1
  6
AUSGEZOGEN
 10
592.34
 20
404
 30
0
 11
590
 21
401.66
 31
0
  0
LINE
  5
1C8
100
AcDbEntity
  8
200
100
AcDbLine
370
-1
  6
AUSGEZOGEN
 10
590
 20
398.34
 30
0
 11
590
 21
401.66
 31
0
  0
LINE
  5
1C9
100
AcDbEntity
  8
200
100
AcDbLine
370
-1
  6
AUSGEZOGEN
 10
602.66
 20
404
 30
0
 11
592.34
 21
404
 31
0
  0
LINE
  5
1CA
100
AcDbEntity
  8
200
100
AcDbLine
370
-1
  6
AUSGEZOGEN
 10
630
 20
401.66
 30
0
 11
627.66
 21
404
 31
0
  0
LINE
  5
1CB
100
AcDbEntity
  8
200
100
AcDbLine
370
-1
  6
AUSGEZOGEN
 10
630
 20
398.34
 30
0
 11
630
 21
401.66
 31
0
  0
LINE
  5
1CC
100
AcDbEntity
  8
200
100
AcDbLine
370
-1
  6
AUSGEZOGEN
 10
627.66
 20
396
 30
0
 11
630
 21
398.34
 31
0
  0
LINE
  5
1CD
100
AcDbEntity
  8
200
100
AcDbLine
370
-1
  6
AUSGEZOGEN
 10
617.34
 20
396
 30
0
 11
627.66
 21
396
 31
0
  0
LINE
  5
1CE
100
AcDbEntity
  8
200
100
AcDbLine
370
-1
  6
AUSGEZOGEN
 10
615
 20
398.34
 30
0
 11
617.34
 21
396
 31
0
  0
LINE
  5
1CF
100
AcDbEntity
  8
200
100
AcDbLine
370
-1
  6
AUSGEZOGEN
 10
617.34
 20
404
 30
0
 11
615
 21
401.66
 31
0
  0
LINE
  5
1D0
100
AcDbEntity
  8
200
100
AcDbLine
370
-1
  6
AUSGEZOGEN
 10
615
 20
398.34
 30
0
 11
615
 21
401.66
 31
0
  0
LINE
  5
1D1
100
AcDbEntity
  8
200
100
AcDbLine
370
-1
  6
AUSGEZOGEN
 10
627.66
 20
404
 30
0
 11
617.34
 21
404
 31
0
  0
LINE
  5
1D2
100
AcDbEntity
  8
200
100
AcDbLine
370
-1
  6
AUSGEZOGEN
 10
655
 20
401.66
 30
0
 11
652.66
 21
404
 31
0
  0
LINE
  5
1D3
100
AcDbEntity
  8
200
100
AcDbLine
370
-1
  6
AUSGEZOGEN
 10
655
 20
398.34
 30
0
 11
655
 21
401.66
 31
0
  0
LINE
  5
1D4
100
AcDbEntity
  8
200
100
AcDbLine
370
-1
  6
AUSGEZOGEN
 10
652.66
 20
396
 30
0
 11
655
 21
398.34
 31
0
  0
LINE
  5
1D5
100
AcDbEntity
  8
200
100
AcDbLine
370
-1
  6
AUSGEZOGEN
 10
642.34
 20
396
 30
0
 11
652.66
 21
396
 31
0
  0
LINE
  5
1D6
100
AcDbEntity
  8
200
100
AcDbLine
370
-1
  6
AUSGEZOGEN
 10
640
 20
398.34
 30
0
 11
642.34
 21
396
 31
0
  0
LINE
  5
1D7
100
AcDbEntity
  8
200
100
AcDbLine
370
-1
  6
AUSGEZOGEN
 10
642.34
 20
404
 30
0
 11
640
 21
401.66
 31
0
  0
LINE
  5
1D8
100
AcDbEntity
  8
200
100
AcDbLine
370
-1
  6
AUSGEZOGEN
 10
640
 20
398.34
 30
0
 11
640
 21
401.66
 31
0
  0
LINE
  5
1D9
100
AcDbEntity
  8
200
100
AcDbLine
370
-1
  6
AUSGEZOGEN
 10
652.66
 20
404
 30
0
 11
642.34
 21
404
 31
0
  0
LINE
  5
1DA
100
AcDbEntity
  8
200
100
AcDbLine
370
-1
  6
AUSGEZOGEN
 10
680
 20
401.66
 30
0
 11
677.66
 21
404
 31
0
  0
LINE
  5
1DB
100
AcDbEntity
  8
200
100
AcDbLine
370
-1
  6
AUSGEZOGEN
 10
680
 20
398.34
 30
0
 11
680
 21
401.66
 31
0
  0
LINE
  5
1DC
100
AcDbEntity
  8
200
100
AcDbLine
370
-1
  6
AUSGEZOGEN
 10
677.66
 20
396
 30
0
 11
680
 21
398.34
 31
0
  0
LINE
  5
1DD
100
AcDbEntity
  8
200
100
AcDbLine
370
-1
  6
AUSGEZOGEN
 10
667.34
 20
396
 30
0
 11
677.66
 21
396
 31
0
  0
LINE
  5
1DE
100
AcDbEntity
  8
200
100
AcDbLine
370
-1
  6
AUSGEZOGEN
 10
665
 20
398.34
 30
0
 11
667.34
 21
396
 31
0
  0
LINE
  5
1DF
100
AcDbEntity
  8
200
100
AcDbLine
370
-1
  6
AUSGEZOGEN
 10
667.34
 20
404
 30
0
 11
665
 21
401.66
 31
0
  0
LINE
  5
1E0
100
AcDbEntity
  8
200
100
AcDbLine
370
-1
  6
AUSGEZOGEN
 10
665
 20
398.34
 30
0
 11
665
 21
401.66
 31
0
  0
LINE
  5
1E1
100
AcDbEntity
  8
200
100
AcDbLine
370
-1
  6
AUSGEZOGEN
 10
677.66
 20
404
 30
0
 11
667.34
 21
404
 31
0
  0
LINE
  5
1E2
100
AcDbEntity
  8
200
100
AcDbLine
370
-1
  6
AUSGEZOGEN
 10
705
 20
401.66
 30
0
 11
702.66
 21
404
 31
0
  0
LINE
  5
1E3
100
AcDbEntity
  8
200
100
AcDbLine
370
-1
  6
AUSGEZOGEN
 10
705
 20
398.34
 30
0
 11
705
 21
401.66
 31
0
  0
LINE
  5
1E4
100
AcDbEntity
  8
200
100
AcDbLine
370
-1
  6
AUSGEZOGEN
 10
702.66
 20
396
 30
0
 11
705
 21
398.34
 31
0
  0
LINE
  5
1E5
100
AcDbEntity
  8
200
100
AcDbLine
370
-1
  6
AUSGEZOGEN
 10
692.34
 20
396
 30
0
 11
702.66
 21
396
 31
0
  0
LINE
  5
1E6
100
AcDbEntity
  8
200
100
AcDbLine
370
-1
  6
AUSGEZOGEN
 10
690
 20
398.34
 30
0
 11
692.34
 21
396
 31
0
  0
LINE
  5
1E7
100
AcDbEntity
  8
200
100
AcDbLine
370
-1
  6
AUSGEZOGEN
 10
692.34
 20
404
 30
0
 11
690
 21
401.66
 31
0
  0
LINE
  5
1E8
100
AcDbEntity
  8
200
100
AcDbLine
370
-1
  6
AUSGEZOGEN
 10
690
 20
398.34
 30
0
 11
690
 21
401.66
 31
0
  0
LINE
  5
1E9
100
AcDbEntity
  8
200
100
AcDbLine
370
-1
  6
AUSGEZOGEN
 10
702.66
 20
404
 30
0
 11
692.34
 21
404
 31
0
  0
LINE
  5
1EA
100
AcDbEntity
  8
200
100
AcDbLine
370
-1
  6
AUSGEZOGEN
 10
730
 20
401.66
 30
0
 11
727.66
 21
404
 31
0
  0
LINE
  5
1EB
100
AcDbEntity
  8
200
100
AcDbLine
370
-1
  6
AUSGEZOGEN
 10
730
 20
398.34
 30
0
 11
730
 21
401.66
 31
0
  0
LINE
  5
1EC
100
AcDbEntity
  8
200
100
AcDbLine
370
-1
  6
AUSGEZOGEN
 10
727.66
 20
396
 30
0
 11
730
 21
398.34
 31
0
  0
LINE
  5
1ED
100
AcDbEntity
  8
200
100
AcDbLine
370
-1
  6
AUSGEZOGEN
 10
717.34
 20
396
 30
0
 11
727.66
 21
396
 31
0
  0
LINE
  5
1EE
100
AcDbEntity
  8
200
100
AcDbLine
370
-1
  6
AUSGEZOGEN
 10
715
 20
398.34
 30
0
 11
717.34
 21
396
 31
0
  0
LINE
  5
1EF
100
AcDbEntity
  8
200
100
AcDbLine
370
-1
  6
AUSGEZOGEN
 10
717.34
 20
404
 30
0
 11
715
 21
401.66
 31
0
  0
LINE
  5
1F0
100
AcDbEntity
  8
200
100
AcDbLine
370
-1
  6
AUSGEZOGEN
 10
715
 20
398.34
 30
0
 11
715
 21
401.66
 31
0
  0
LINE
  5
1F1
100
AcDbEntity
  8
200
100
AcDbLine
370
-1
  6
AUSGEZOGEN
 10
727.66
 20
404
 30
0
 11
717.34
 21
404
 31
0
  0
LINE
  5
1F2
100
AcDbEntity
  8
200
100
AcDbLine
370
-1
  6
AUSGEZOGEN
 10
755
 20
401.66
 30
0
 11
752.66
 21
404
 31
0
  0
LINE
  5
1F3
100
AcDbEntity
  8
200
100
AcDbLine
370
-1
  6
AUSGEZOGEN
 10
755
 20
398.34
 30
0
 11
755
 21
401.66
 31
0
  0
LINE
  5
1F4
100
AcDbEntity
  8
200
100
AcDbLine
370
-1
  6
AUSGEZOGEN
 10
752.66
 20
396
 30
0
 11
755
 21
398.34
 31
0
  0
LINE
  5
1F5
100
AcDbEntity
  8
200
100
AcDbLine
370
-1
  6
AUSGEZOGEN
 10
742.34
 20
396
 30
0
 11
752.66
 21
396
 31
0
  0
LINE
  5
1F6
100
AcDbEntity
  8
200
100
AcDbLine
370
-1
  6
AUSGEZOGEN
 10
740
 20
398.34
 30
0
 11
742.34
 21
396
 31
0
  0
LINE
  5
1F7
100
AcDbEntity
  8
200
100
AcDbLine
370
-1
  6
AUSGEZOGEN
 10
742.34
 20
404
 30
0
 11
740
 21
401.66
 31
0
  0
LINE
  5
1F8
100
AcDbEntity
  8
200
100
AcDbLine
370
-1
  6
AUSGEZOGEN
 10
740
 20
398.34
 30
0
 11
740
 21
401.66
 31
0
  0
LINE
  5
1F9
100
AcDbEntity
  8
200
100
AcDbLine
370
-1
  6
AUSGEZOGEN
 10
752.66
 20
404
 30
0
 11
742.34
 21
404
 31
0
  0
LINE
  5
1FA
100
AcDbEntity
  8
200
100
AcDbLine
370
-1
  6
AUSGEZOGEN
 10
780
 20
401.66
 30
0
 11
777.66
 21
404
 31
0
  0
LINE
  5
1FB
100
AcDbEntity
  8
200
100
AcDbLine
370
-1
  6
AUSGEZOGEN
 10
780
 20
398.34
 30
0
 11
780
 21
401.66
 31
0
  0
LINE
  5
1FC
100
AcDbEntity
  8
200
100
AcDbLine
370
-1
  6
AUSGEZOGEN
 10
777.66
 20
396
 30
0
 11
780
 21
398.34
 31
0
  0
LINE
  5
1FD
100
AcDbEntity
  8
200
100
AcDbLine
370
-1
  6
AUSGEZOGEN
 10
767.34
 20
396
 30
0
 11
777.66
 21
396
 31
0
  0
LINE
  5
1FE
100
AcDbEntity
  8
200
100
AcDbLine
370
-1
  6
AUSGEZOGEN
 10
765
 20
398.34
 30
0
 11
767.34
 21
396
 31
0
  0
LINE
  5
1FF
100
AcDbEntity
  8
200
100
AcDbLine
370
-1
  6
AUSGEZOGEN
 10
767.34
 20
404
 30
0
 11
765
 21
401.66
 31
0
  0
LINE
  5
200
100
AcDbEntity
  8
200
100
AcDbLine
370
-1
  6
AUSGEZOGEN
 10
765
 20
398.34
 30
0
 11
765
 21
401.66
 31
0
  0
LINE
  5
201
100
AcDbEntity
  8
200
100
AcDbLine
370
-1
  6
AUSGEZOGEN
 10
777.66
 20
404
 30
0
 11
767.34
 21
404
 31
0
  0
LINE
  5
202
100
AcDbEntity
  8
200
100
AcDbLine
370
-1
  6
AUSGEZOGEN
 10
805
 20
401.66
 30
0
 11
802.66
 21
404
 31
0
  0
LINE
  5
203
100
AcDbEntity
  8
200
100
AcDbLine
370
-1
  6
AUSGEZOGEN
 10
805
 20
398.34
 30
0
 11
805
 21
401.66
 31
0
  0
LINE
  5
204
100
AcDbEntity
  8
200
100
AcDbLine
370
-1
  6
AUSGEZOGEN
 10
802.66
 20
396
 30
0
 11
805
 21
398.34
 31
0
  0
LINE
  5
205
100
AcDbEntity
  8
200
100
AcDbLine
370
-1
  6
AUSGEZOGEN
 10
792.34
 20
396
 30
0
 11
802.66
 21
396
 31
0
  0
LINE
  5
206
100
AcDbEntity
  8
200
100
AcDbLine
370
-1
  6
AUSGEZOGEN
 10
790
 20
398.34
 30
0
 11
792.34
 21
396
 31
0
  0
LINE
  5
207
100
AcDbEntity
  8
200
100
AcDbLine
370
-1
  6
AUSGEZOGEN
 10
792.34
 20
404
 30
0
 11
790
 21
401.66
 31
0
  0
LINE
  5
208
100
AcDbEntity
  8
200
100
AcDbLine
370
-1
  6
AUSGEZOGEN
 10
790
 20
398.34
 30
0
 11
790
 21
401.66
 31
0
  0
LINE
  5
209
100
AcDbEntity
  8
200
100
AcDbLine
370
-1
  6
AUSGEZOGEN
 10
802.66
 20
404
 30
0
 11
792.34
 21
404
 31
0
  0
LINE
  5
20A
100
AcDbEntity
  8
200
100
AcDbLine
370
-1
  6
AUSGEZOGEN
 10
830
 20
401.66
 30
0
 11
827.66
 21
404
 31
0
  0
LINE
  5
20B
100
AcDbEntity
  8
200
100
AcDbLine
370
-1
  6
AUSGEZOGEN
 10
830
 20
398.34
 30
0
 11
830
 21
401.66
 31
0
  0
LINE
  5
20C
100
AcDbEntity
  8
200
100
AcDbLine
370
-1
  6
AUSGEZOGEN
 10
827.66
 20
396
 30
0
 11
830
 21
398.34
 31
0
  0
LINE
  5
20D
100
AcDbEntity
  8
200
100
AcDbLine
370
-1
  6
AUSGEZOGEN
 10
817.34
 20
396
 30
0
 11
827.66
 21
396
 31
0
  0
LINE
  5
20E
100
AcDbEntity
  8
200
100
AcDbLine
370
-1
  6
AUSGEZOGEN
 10
815
 20
398.34
 30
0
 11
817.34
 21
396
 31
0
  0
LINE
  5
20F
100
AcDbEntity
  8
200
100
AcDbLine
370
-1
  6
AUSGEZOGEN
 10
817.34
 20
404
 30
0
 11
815
 21
401.66
 31
0
  0
LINE
  5
210
100
AcDbEntity
  8
200
100
AcDbLine
370
-1
  6
AUSGEZOGEN
 10
815
 20
398.34
 30
0
 11
815
 21
401.66
 31
0
  0
LINE
  5
211
100
AcDbEntity
  8
200
100
AcDbLine
370
-1
  6
AUSGEZOGEN
 10
827.66
 20
404
 30
0
 11
817.34
 21
404
 31
0
  0
LINE
  5
212
100
AcDbEntity
  8
200
100
AcDbLine
370
-1
  6
AUSGEZOGEN
 10
855
 20
401.66
 30
0
 11
852.66
 21
404
 31
0
  0
LINE
  5
213
100
AcDbEntity
  8
200
100
AcDbLine
370
-1
  6
AUSGEZOGEN
 10
855
 20
398.34
 30
0
 11
855
 21
401.66
 31
0
  0
LINE
  5
214
100
AcDbEntity
  8
200
100
AcDbLine
370
-1
  6
AUSGEZOGEN
 10
852.66
 20
396
 30
0
 11
855
 21
398.34
 31
0
  0
LINE
  5
215
100
AcDbEntity
  8
200
100
AcDbLine
370
-1
  6
AUSGEZOGEN
 10
842.34
 20
396
 30
0
 11
852.66
 21
396
 31
0
  0
LINE
  5
216
100
AcDbEntity
  8
200
100
AcDbLine
370
-1
  6
AUSGEZOGEN
 10
840
 20
398.34
 30
0
 11
842.34
 21
396
 31
0
  0
LINE
  5
217
100
AcDbEntity
  8
200
100
AcDbLine
370
-1
  6
AUSGEZOGEN
 10
842.34
 20
404
 30
0
 11
840
 21
401.66
 31
0
  0
LINE
  5
218
100
AcDbEntity
  8
200
100
AcDbLine
370
-1
  6
AUSGEZOGEN
 10
840
 20
398.34
 30
0
 11
840
 21
401.66
 31
0
  0
LINE
  5
219
100
AcDbEntity
  8
200
100
AcDbLine
370
-1
  6
AUSGEZOGEN
 10
852.66
 20
404
 30
0
 11
842.34
 21
404
 31
0
  0
LINE
  5
21A
100
AcDbEntity
  8
200
100
AcDbLine
370
-1
  6
AUSGEZOGEN
 10
880
 20
401.66
 30
0
 11
877.66
 21
404
 31
0
  0
LINE
  5
21B
100
AcDbEntity
  8
200
100
AcDbLine
370
-1
  6
AUSGEZOGEN
 10
880
 20
398.34
 30
0
 11
880
 21
401.66
 31
0
  0
LINE
  5
21C
100
AcDbEntity
  8
200
100
AcDbLine
370
-1
  6
AUSGEZOGEN
 10
877.66
 20
396
 30
0
 11
880
 21
398.34
 31
0
  0
LINE
  5
21D
100
AcDbEntity
  8
200
100
AcDbLine
370
-1
  6
AUSGEZOGEN
 10
867.34
 20
396
 30
0
 11
877.66
 21
396
 31
0
  0
LINE
  5
21E
100
AcDbEntity
  8
200
100
AcDbLine
370
-1
  6
AUSGEZOGEN
 10
865
 20
398.34
 30
0
 11
867.34
 21
396
 31
0
  0
LINE
  5
21F
100
AcDbEntity
  8
200
100
AcDbLine
370
-1
  6
AUSGEZOGEN
 10
867.34
 20
404
 30
0
 11
865
 21
401.66
 31
0
  0
LINE
  5
220
100
AcDbEntity
  8
200
100
AcDbLine
370
-1
  6
AUSGEZOGEN
 10
865
 20
398.34
 30
0
 11
865
 21
401.66
 31
0
  0
LINE
  5
221
100
AcDbEntity
  8
200
100
AcDbLine
370
-1
  6
AUSGEZOGEN
 10
877.66
 20
404
 30
0
 11
867.34
 21
404
 31
0
  0
LINE
  5
222
100
AcDbEntity
  8
200
100
AcDbLine
370
-1
  6
AUSGEZOGEN
 10
905
 20
401.66
 30
0
 11
902.66
 21
404
 31
0
  0
LINE
  5
223
100
AcDbEntity
  8
200
100
AcDbLine
370
-1
  6
AUSGEZOGEN
 10
905
 20
398.34
 30
0
 11
905
 21
401.66
 31
0
  0
LINE
  5
224
100
AcDbEntity
  8
200
100
AcDbLine
370
-1
  6
AUSGEZOGEN
 10
902.66
 20
396
 30
0
 11
905
 21
398.34
 31
0
  0
LINE
  5
225
100
AcDbEntity
  8
200
100
AcDbLine
370
-1
  6
AUSGEZOGEN
 10
892.34
 20
396
 30
0
 11
902.66
 21
396
 31
0
  0
LINE
  5
226
100
AcDbEntity
  8
200
100
AcDbLine
370
-1
  6
AUSGEZOGEN
 10
890
 20
398.34
 30
0
 11
892.34
 21
396
 31
0
  0
LINE
  5
227
100
AcDbEntity
  8
200
100
AcDbLine
370
-1
  6
AUSGEZOGEN
 10
892.34
 20
404
 30
0
 11
890
 21
401.66
 31
0
  0
LINE
  5
228
100
AcDbEntity
  8
200
100
AcDbLine
370
-1
  6
AUSGEZOGEN
 10
890
 20
398.34
 30
0
 11
890
 21
401.66
 31
0
  0
LINE
  5
229
100
AcDbEntity
  8
200
100
AcDbLine
370
-1
  6
AUSGEZOGEN
 10
902.66
 20
404
 30
0
 11
892.34
 21
404
 31
0
  0
LINE
  5
22A
100
AcDbEntity
  8
200
100
AcDbLine
370
-1
  6
AUSGEZOGEN
 10
930
 20
401.66
 30
0
 11
927.66
 21
404
 31
0
  0
LINE
  5
22B
100
AcDbEntity
  8
200
100
AcDbLine
370
-1
  6
AUSGEZOGEN
 10
930
 20
398.34
 30
0
 11
930
 21
401.66
 31
0
  0
LINE
  5
22C
100
AcDbEntity
  8
200
100
AcDbLine
370
-1
  6
AUSGEZOGEN
 10
927.66
 20
396
 30
0
 11
930
 21
398.34
 31
0
  0
LINE
  5
22D
100
AcDbEntity
  8
200
100
AcDbLine
370
-1
  6
AUSGEZOGEN
 10
917.34
 20
396
 30
0
 11
927.66
 21
396
 31
0
  0
LINE
  5
22E
100
AcDbEntity
  8
200
100
AcDbLine
370
-1
  6
AUSGEZOGEN
 10
915
 20
398.34
 30
0
 11
917.34
 21
396
 31
0
  0
LINE
  5
22F
100
AcDbEntity
  8
200
100
AcDbLine
370
-1
  6
AUSGEZOGEN
 10
917.34
 20
404
 30
0
 11
915
 21
401.66
 31
0
  0
LINE
  5
230
100
AcDbEntity
  8
200
100
AcDbLine
370
-1
  6
AUSGEZOGEN
 10
915
 20
398.34
 30
0
 11
915
 21
401.66
 31
0
  0
LINE
  5
231
100
AcDbEntity
  8
200
100
AcDbLine
370
-1
  6
AUSGEZOGEN
 10
927.66
 20
404
 30
0
 11
917.34
 21
404
 31
0
  0
LINE
  5
232
100
AcDbEntity
  8
200
100
AcDbLine
370
-1
  6
AUSGEZOGEN
 10
164.66
 20
418
 30
0
 11
167
 21
415.66
 31
0
  0
LINE
  5
233
100
AcDbEntity
  8
200
100
AcDbLine
370
-1
  6
AUSGEZOGEN
 10
167
 20
412.34
 30
0
 11
167
 21
415.66
 31
0
  0
LINE
  5
234
100
AcDbEntity
  8
200
100
AcDbLine
370
-1
  6
AUSGEZOGEN
 10
164.66
 20
410
 30
0
 11
167
 21
412.34
 31
0
  0
LINE
  5
235
100
AcDbEntity
  8
200
100
AcDbLine
370
-1
  6
AUSGEZOGEN
 10
154.34
 20
410
 30
0
 11
164.66
 21
410
 31
0
  0
LINE
  5
236
100
AcDbEntity
  8
200
100
AcDbLine
370
-1
  6
AUSGEZOGEN
 10
152
 20
412.34
 30
0
 11
154.34
 21
410
 31
0
  0
LINE
  5
237
100
AcDbEntity
  8
200
100
AcDbLine
370
-1
  6
AUSGEZOGEN
 10
154.34
 20
418
 30
0
 11
152
 21
415.66
 31
0
  0
LINE
  5
238
100
AcDbEntity
  8
200
100
AcDbLine
370
-1
  6
AUSGEZOGEN
 10
152
 20
412.34
 30
0
 11
152
 21
415.66
 31
0
  0
LINE
  5
239
100
AcDbEntity
  8
200
100
AcDbLine
370
-1
  6
AUSGEZOGEN
 10
164.66
 20
418
 30
0
 11
154.34
 21
418
 31
0
  0
LINE
  5
23A
100
AcDbEntity
  8
200
100
AcDbLine
370
-1
  6
AUSGEZOGEN
 10
192
 20
415.66
 30
0
 11
189.66
 21
418
 31
0
  0
LINE
  5
23B
100
AcDbEntity
  8
200
100
AcDbLine
370
-1
  6
AUSGEZOGEN
 10
192
 20
412.34
 30
0
 11
192
 21
415.66
 31
0
  0
LINE
  5
23C
100
AcDbEntity
  8
200
100
AcDbLine
370
-1
  6
AUSGEZOGEN
 10
189.66
 20
410
 30
0
 11
192
 21
412.34
 31
0
  0
LINE
  5
23D
100
AcDbEntity
  8
200
100
AcDbLine
370
-1
  6
AUSGEZOGEN
 10
179.34
 20
410
 30
0
 11
189.66
 21
410
 31
0
  0
LINE
  5
23E
100
AcDbEntity
  8
200
100
AcDbLine
370
-1
  6
AUSGEZOGEN
 10
177
 20
412.34
 30
0
 11
179.34
 21
410
 31
0
  0
LINE
  5
23F
100
AcDbEntity
  8
200
100
AcDbLine
370
-1
  6
AUSGEZOGEN
 10
179.34
 20
418
 30
0
 11
177
 21
415.66
 31
0
  0
LINE
  5
240
100
AcDbEntity
  8
200
100
AcDbLine
370
-1
  6
AUSGEZOGEN
 10
177
 20
412.34
 30
0
 11
177
 21
415.66
 31
0
  0
LINE
  5
241
100
AcDbEntity
  8
200
100
AcDbLine
370
-1
  6
AUSGEZOGEN
 10
189.66
 20
418
 30
0
 11
179.34
 21
418
 31
0
  0
LINE
  5
242
100
AcDbEntity
  8
200
100
AcDbLine
370
-1
  6
AUSGEZOGEN
 10
217
 20
415.66
 30
0
 11
214.66
 21
418
 31
0
  0
LINE
  5
243
100
AcDbEntity
  8
200
100
AcDbLine
370
-1
  6
AUSGEZOGEN
 10
217
 20
412.34
 30
0
 11
217
 21
415.66
 31
0
  0
LINE
  5
244
100
AcDbEntity
  8
200
100
AcDbLine
370
-1
  6
AUSGEZOGEN
 10
214.66
 20
410
 30
0
 11
217
 21
412.34
 31
0
  0
LINE
  5
245
100
AcDbEntity
  8
200
100
AcDbLine
370
-1
  6
AUSGEZOGEN
 10
204.34
 20
410
 30
0
 11
214.66
 21
410
 31
0
  0
LINE
  5
246
100
AcDbEntity
  8
200
100
AcDbLine
370
-1
  6
AUSGEZOGEN
 10
202
 20
412.34
 30
0
 11
204.34
 21
410
 31
0
  0
LINE
  5
247
100
AcDbEntity
  8
200
100
AcDbLine
370
-1
  6
AUSGEZOGEN
 10
204.34
 20
418
 30
0
 11
202
 21
415.66
 31
0
  0
LINE
  5
248
100
AcDbEntity
  8
200
100
AcDbLine
370
-1
  6
AUSGEZOGEN
 10
202
 20
412.34
 30
0
 11
202
 21
415.66
 31
0
  0
LINE
  5
249
100
AcDbEntity
  8
200
100
AcDbLine
370
-1
  6
AUSGEZOGEN
 10
214.66
 20
418
 30
0
 11
204.34
 21
418
 31
0
  0
LINE
  5
24A
100
AcDbEntity
  8
200
100
AcDbLine
370
-1
  6
AUSGEZOGEN
 10
242
 20
415.66
 30
0
 11
239.66
 21
418
 31
0
  0
LINE
  5
24B
100
AcDbEntity
  8
200
100
AcDbLine
370
-1
  6
AUSGEZOGEN
 10
242
 20
412.34
 30
0
 11
242
 21
415.66
 31
0
  0
LINE
  5
24C
100
AcDbEntity
  8
200
100
AcDbLine
370
-1
  6
AUSGEZOGEN
 10
239.66
 20
410
 30
0
 11
242
 21
412.34
 31
0
  0
LINE
  5
24D
100
AcDbEntity
  8
200
100
AcDbLine
370
-1
  6
AUSGEZOGEN
 10
229.34
 20
410
 30
0
 11
239.66
 21
410
 31
0
  0
LINE
  5
24E
100
AcDbEntity
  8
200
100
AcDbLine
370
-1
  6
AUSGEZOGEN
 10
227
 20
412.34
 30
0
 11
229.34
 21
410
 31
0
  0
LINE
  5
24F
100
AcDbEntity
  8
200
100
AcDbLine
370
-1
  6
AUSGEZOGEN
 10
229.34
 20
418
 30
0
 11
227
 21
415.66
 31
0
  0
LINE
  5
250
100
AcDbEntity
  8
200
100
AcDbLine
370
-1
  6
AUSGEZOGEN
 10
227
 20
412.34
 30
0
 11
227
 21
415.66
 31
0
  0
LINE
  5
251
100
AcDbEntity
  8
200
100
AcDbLine
370
-1
  6
AUSGEZOGEN
 10
239.66
 20
418
 30
0
 11
229.34
 21
418
 31
0
  0
LINE
  5
252
100
AcDbEntity
  8
200
100
AcDbLine
370
-1
  6
AUSGEZOGEN
 10
267
 20
415.66
 30
0
 11
264.66
 21
418
 31
0
  0
LINE
  5
253
100
AcDbEntity
  8
200
100
AcDbLine
370
-1
  6
AUSGEZOGEN
 10
267
 20
412.34
 30
0
 11
267
 21
415.66
 31
0
  0
LINE
  5
254
100
AcDbEntity
  8
200
100
AcDbLine
370
-1
  6
AUSGEZOGEN
 10
264.66
 20
410
 30
0
 11
267
 21
412.34
 31
0
  0
LINE
  5
255
100
AcDbEntity
  8
200
100
AcDbLine
370
-1
  6
AUSGEZOGEN
 10
254.34
 20
410
 30
0
 11
264.66
 21
410
 31
0
  0
LINE
  5
256
100
AcDbEntity
  8
200
100
AcDbLine
370
-1
  6
AUSGEZOGEN
 10
252
 20
412.34
 30
0
 11
254.34
 21
410
 31
0
  0
LINE
  5
257
100
AcDbEntity
  8
200
100
AcDbLine
370
-1
  6
AUSGEZOGEN
 10
254.34
 20
418
 30
0
 11
252
 21
415.66
 31
0
  0
LINE
  5
258
100
AcDbEntity
  8
200
100
AcDbLine
370
-1
  6
AUSGEZOGEN
 10
252
 20
412.34
 30
0
 11
252
 21
415.66
 31
0
  0
LINE
  5
259
100
AcDbEntity
  8
200
100
AcDbLine
370
-1
  6
AUSGEZOGEN
 10
264.66
 20
418
 30
0
 11
254.34
 21
418
 31
0
  0
LINE
  5
25A
100
AcDbEntity
  8
200
100
AcDbLine
370
-1
  6
AUSGEZOGEN
 10
292
 20
415.66
 30
0
 11
289.66
 21
418
 31
0
  0
LINE
  5
25B
100
AcDbEntity
  8
200
100
AcDbLine
370
-1
  6
AUSGEZOGEN
 10
292
 20
412.34
 30
0
 11
292
 21
415.66
 31
0
  0
LINE
  5
25C
100
AcDbEntity
  8
200
100
AcDbLine
370
-1
  6
AUSGEZOGEN
 10
289.66
 20
410
 30
0
 11
292
 21
412.34
 31
0
  0
LINE
  5
25D
100
AcDbEntity
  8
200
100
AcDbLine
370
-1
  6
AUSGEZOGEN
 10
279.34
 20
410
 30
0
 11
289.66
 21
410
 31
0
  0
LINE
  5
25E
100
AcDbEntity
  8
200
100
AcDbLine
370
-1
  6
AUSGEZOGEN
 10
277
 20
412.34
 30
0
 11
279.34
 21
410
 31
0
  0
LINE
  5
25F
100
AcDbEntity
  8
200
100
AcDbLine
370
-1
  6
AUSGEZOGEN
 10
279.34
 20
418
 30
0
 11
277
 21
415.66
 31
0
  0
LINE
  5
260
100
AcDbEntity
  8
200
100
AcDbLine
370
-1
  6
AUSGEZOGEN
 10
277
 20
412.34
 30
0
 11
277
 21
415.66
 31
0
  0
LINE
  5
261
100
AcDbEntity
  8
200
100
AcDbLine
370
-1
  6
AUSGEZOGEN
 10
289.66
 20
418
 30
0
 11
279.34
 21
418
 31
0
  0
LINE
  5
262
100
AcDbEntity
  8
200
100
AcDbLine
370
-1
  6
AUSGEZOGEN
 10
317
 20
415.66
 30
0
 11
314.66
 21
418
 31
0
  0
LINE
  5
263
100
AcDbEntity
  8
200
100
AcDbLine
370
-1
  6
AUSGEZOGEN
 10
317
 20
412.34
 30
0
 11
317
 21
415.66
 31
0
  0
LINE
  5
264
100
AcDbEntity
  8
200
100
AcDbLine
370
-1
  6
AUSGEZOGEN
 10
314.66
 20
410
 30
0
 11
317
 21
412.34
 31
0
  0
LINE
  5
265
100
AcDbEntity
  8
200
100
AcDbLine
370
-1
  6
AUSGEZOGEN
 10
304.34
 20
410
 30
0
 11
314.66
 21
410
 31
0
  0
LINE
  5
266
100
AcDbEntity
  8
200
100
AcDbLine
370
-1
  6
AUSGEZOGEN
 10
302
 20
412.34
 30
0
 11
304.34
 21
410
 31
0
  0
LINE
  5
267
100
AcDbEntity
  8
200
100
AcDbLine
370
-1
  6
AUSGEZOGEN
 10
304.34
 20
418
 30
0
 11
302
 21
415.66
 31
0
  0
LINE
  5
268
100
AcDbEntity
  8
200
100
AcDbLine
370
-1
  6
AUSGEZOGEN
 10
302
 20
412.34
 30
0
 11
302
 21
415.66
 31
0
  0
LINE
  5
269
100
AcDbEntity
  8
200
100
AcDbLine
370
-1
  6
AUSGEZOGEN
 10
314.66
 20
418
 30
0
 11
304.34
 21
418
 31
0
  0
LINE
  5
26A
100
AcDbEntity
  8
200
100
AcDbLine
370
-1
  6
AUSGEZOGEN
 10
342
 20
415.66
 30
0
 11
339.66
 21
418
 31
0
  0
LINE
  5
26B
100
AcDbEntity
  8
200
100
AcDbLine
370
-1
  6
AUSGEZOGEN
 10
342
 20
412.34
 30
0
 11
342
 21
415.66
 31
0
  0
LINE
  5
26C
100
AcDbEntity
  8
200
100
AcDbLine
370
-1
  6
AUSGEZOGEN
 10
339.66
 20
410
 30
0
 11
342
 21
412.34
 31
0
  0
LINE
  5
26D
100
AcDbEntity
  8
200
100
AcDbLine
370
-1
  6
AUSGEZOGEN
 10
329.34
 20
410
 30
0
 11
339.66
 21
410
 31
0
  0
LINE
  5
26E
100
AcDbEntity
  8
200
100
AcDbLine
370
-1
  6
AUSGEZOGEN
 10
327
 20
412.34
 30
0
 11
329.34
 21
410
 31
0
  0
LINE
  5
26F
100
AcDbEntity
  8
200
100
AcDbLine
370
-1
  6
AUSGEZOGEN
 10
329.34
 20
418
 30
0
 11
327
 21
415.66
 31
0
  0
LINE
  5
270
100
AcDbEntity
  8
200
100
AcDbLine
370
-1
  6
AUSGEZOGEN
 10
327
 20
412.34
 30
0
 11
327
 21
415.66
 31
0
  0
LINE
  5
271
100
AcDbEntity
  8
200
100
AcDbLine
370
-1
  6
AUSGEZOGEN
 10
339.66
 20
418
 30
0
 11
329.34
 21
418
 31
0
  0
LINE
  5
272
100
AcDbEntity
  8
200
100
AcDbLine
370
-1
  6
AUSGEZOGEN
 10
367
 20
415.66
 30
0
 11
364.66
 21
418
 31
0
  0
LINE
  5
273
100
AcDbEntity
  8
200
100
AcDbLine
370
-1
  6
AUSGEZOGEN
 10
367
 20
412.34
 30
0
 11
367
 21
415.66
 31
0
  0
LINE
  5
274
100
AcDbEntity
  8
200
100
AcDbLine
370
-1
  6
AUSGEZOGEN
 10
364.66
 20
410
 30
0
 11
367
 21
412.34
 31
0
  0
LINE
  5
275
100
AcDbEntity
  8
200
100
AcDbLine
370
-1
  6
AUSGEZOGEN
 10
354.34
 20
410
 30
0
 11
364.66
 21
410
 31
0
  0
LINE
  5
276
100
AcDbEntity
  8
200
100
AcDbLine
370
-1
  6
AUSGEZOGEN
 10
352
 20
412.34
 30
0
 11
354.34
 21
410
 31
0
  0
LINE
  5
277
100
AcDbEntity
  8
200
100
AcDbLine
370
-1
  6
AUSGEZOGEN
 10
354.34
 20
418
 30
0
 11
352
 21
415.66
 31
0
  0
LINE
  5
278
100
AcDbEntity
  8
200
100
AcDbLine
370
-1
  6
AUSGEZOGEN
 10
352
 20
412.34
 30
0
 11
352
 21
415.66
 31
0
  0
LINE
  5
279
100
AcDbEntity
  8
200
100
AcDbLine
370
-1
  6
AUSGEZOGEN
 10
364.66
 20
418
 30
0
 11
354.34
 21
418
 31
0
  0
LINE
  5
27A
100
AcDbEntity
  8
200
100
AcDbLine
370
-1
  6
AUSGEZOGEN
 10
392
 20
415.66
 30
0
 11
389.66
 21
418
 31
0
  0
LINE
  5
27B
100
AcDbEntity
  8
200
100
AcDbLine
370
-1
  6
AUSGEZOGEN
 10
392
 20
412.34
 30
0
 11
392
 21
415.66
 31
0
  0
LINE
  5
27C
100
AcDbEntity
  8
200
100
AcDbLine
370
-1
  6
AUSGEZOGEN
 10
389.66
 20
410
 30
0
 11
392
 21
412.34
 31
0
  0
LINE
  5
27D
100
AcDbEntity
  8
200
100
AcDbLine
370
-1
  6
AUSGEZOGEN
 10
379.34
 20
410
 30
0
 11
389.66
 21
410
 31
0
  0
LINE
  5
27E
100
AcDbEntity
  8
200
100
AcDbLine
370
-1
  6
AUSGEZOGEN
 10
377
 20
412.34
 30
0
 11
379.34
 21
410
 31
0
  0
LINE
  5
27F
100
AcDbEntity
  8
200
100
AcDbLine
370
-1
  6
AUSGEZOGEN
 10
379.34
 20
418
 30
0
 11
377
 21
415.66
 31
0
  0
LINE
  5
280
100
AcDbEntity
  8
200
100
AcDbLine
370
-1
  6
AUSGEZOGEN
 10
377
 20
412.34
 30
0
 11
377
 21
415.66
 31
0
  0
LINE
  5
281
100
AcDbEntity
  8
200
100
AcDbLine
370
-1
  6
AUSGEZOGEN
 10
389.66
 20
418
 30
0
 11
379.34
 21
418
 31
0
  0
LINE
  5
282
100
AcDbEntity
  8
200
100
AcDbLine
370
-1
  6
AUSGEZOGEN
 10
417
 20
415.66
 30
0
 11
414.66
 21
418
 31
0
  0
LINE
  5
283
100
AcDbEntity
  8
200
100
AcDbLine
370
-1
  6
AUSGEZOGEN
 10
417
 20
412.34
 30
0
 11
417
 21
415.66
 31
0
  0
LINE
  5
284
100
AcDbEntity
  8
200
100
AcDbLine
370
-1
  6
AUSGEZOGEN
 10
414.66
 20
410
 30
0
 11
417
 21
412.34
 31
0
  0
LINE
  5
285
100
AcDbEntity
  8
200
100
AcDbLine
370
-1
  6
AUSGEZOGEN
 10
404.34
 20
410
 30
0
 11
414.66
 21
410
 31
0
  0
LINE
  5
286
100
AcDbEntity
  8
200
100
AcDbLine
370
-1
  6
AUSGEZOGEN
 10
402
 20
412.34
 30
0
 11
404.34
 21
410
 31
0
  0
LINE
  5
287
100
AcDbEntity
  8
200
100
AcDbLine
370
-1
  6
AUSGEZOGEN
 10
404.34
 20
418
 30
0
 11
402
 21
415.66
 31
0
  0
LINE
  5
288
100
AcDbEntity
  8
200
100
AcDbLine
370
-1
  6
AUSGEZOGEN
 10
402
 20
412.34
 30
0
 11
402
 21
415.66
 31
0
  0
LINE
  5
289
100
AcDbEntity
  8
200
100
AcDbLine
370
-1
  6
AUSGEZOGEN
 10
414.66
 20
418
 30
0
 11
404.34
 21
418
 31
0
  0
LINE
  5
28A
100
AcDbEntity
  8
200
100
AcDbLine
370
-1
  6
AUSGEZOGEN
 10
442
 20
415.66
 30
0
 11
439.66
 21
418
 31
0
  0
LINE
  5
28B
100
AcDbEntity
  8
200
100
AcDbLine
370
-1
  6
AUSGEZOGEN
 10
442
 20
412.34
 30
0
 11
442
 21
415.66
 31
0
  0
LINE
  5
28C
100
AcDbEntity
  8
200
100
AcDbLine
370
-1
  6
AUSGEZOGEN
 10
439.66
 20
410
 30
0
 11
442
 21
412.34
 31
0
  0
LINE
  5
28D
100
AcDbEntity
  8
200
100
AcDbLine
370
-1
  6
AUSGEZOGEN
 10
429.34
 20
410
 30
0
 11
439.66
 21
410
 31
0
  0
LINE
  5
28E
100
AcDbEntity
  8
200
100
AcDbLine
370
-1
  6
AUSGEZOGEN
 10
427
 20
412.34
 30
0
 11
429.34
 21
410
 31
0
  0
LINE
  5
28F
100
AcDbEntity
  8
200
100
AcDbLine
370
-1
  6
AUSGEZOGEN
 10
429.34
 20
418
 30
0
 11
427
 21
415.66
 31
0
  0
LINE
  5
290
100
AcDbEntity
  8
200
100
AcDbLine
370
-1
  6
AUSGEZOGEN
 10
427
 20
412.34
 30
0
 11
427
 21
415.66
 31
0
  0
LINE
  5
291
100
AcDbEntity
  8
200
100
AcDbLine
370
-1
  6
AUSGEZOGEN
 10
439.66
 20
418
 30
0
 11
429.34
 21
418
 31
0
  0
LINE
  5
292
100
AcDbEntity
  8
200
100
AcDbLine
370
-1
  6
AUSGEZOGEN
 10
467
 20
415.66
 30
0
 11
464.66
 21
418
 31
0
  0
LINE
  5
293
100
AcDbEntity
  8
200
100
AcDbLine
370
-1
  6
AUSGEZOGEN
 10
467
 20
412.34
 30
0
 11
467
 21
415.66
 31
0
  0
LINE
  5
294
100
AcDbEntity
  8
200
100
AcDbLine
370
-1
  6
AUSGEZOGEN
 10
464.66
 20
410
 30
0
 11
467
 21
412.34
 31
0
  0
LINE
  5
295
100
AcDbEntity
  8
200
100
AcDbLine
370
-1
  6
AUSGEZOGEN
 10
454.34
 20
410
 30
0
 11
464.66
 21
410
 31
0
  0
LINE
  5
296
100
AcDbEntity
  8
200
100
AcDbLine
370
-1
  6
AUSGEZOGEN
 10
452
 20
412.34
 30
0
 11
454.34
 21
410
 31
0
  0
LINE
  5
297
100
AcDbEntity
  8
200
100
AcDbLine
370
-1
  6
AUSGEZOGEN
 10
454.34
 20
418
 30
0
 11
452
 21
415.66
 31
0
  0
LINE
  5
298
100
AcDbEntity
  8
200
100
AcDbLine
370
-1
  6
AUSGEZOGEN
 10
452
 20
412.34
 30
0
 11
452
 21
415.66
 31
0
  0
LINE
  5
299
100
AcDbEntity
  8
200
100
AcDbLine
370
-1
  6
AUSGEZOGEN
 10
464.66
 20
418
 30
0
 11
454.34
 21
418
 31
0
  0
LINE
  5
29A
100
AcDbEntity
  8
200
100
AcDbLine
370
-1
  6
AUSGEZOGEN
 10
492
 20
415.66
 30
0
 11
489.66
 21
418
 31
0
  0
LINE
  5
29B
100
AcDbEntity
  8
200
100
AcDbLine
370
-1
  6
AUSGEZOGEN
 10
492
 20
412.34
 30
0
 11
492
 21
415.66
 31
0
  0
LINE
  5
29C
100
AcDbEntity
  8
200
100
AcDbLine
370
-1
  6
AUSGEZOGEN
 10
489.66
 20
410
 30
0
 11
492
 21
412.34
 31
0
  0
LINE
  5
29D
100
AcDbEntity
  8
200
100
AcDbLine
370
-1
  6
AUSGEZOGEN
 10
479.34
 20
410
 30
0
 11
489.66
 21
410
 31
0
  0
LINE
  5
29E
100
AcDbEntity
  8
200
100
AcDbLine
370
-1
  6
AUSGEZOGEN
 10
477
 20
412.34
 30
0
 11
479.34
 21
410
 31
0
  0
LINE
  5
29F
100
AcDbEntity
  8
200
100
AcDbLine
370
-1
  6
AUSGEZOGEN
 10
479.34
 20
418
 30
0
 11
477
 21
415.66
 31
0
  0
LINE
  5
2A0
100
AcDbEntity
  8
200
100
AcDbLine
370
-1
  6
AUSGEZOGEN
 10
477
 20
412.34
 30
0
 11
477
 21
415.66
 31
0
  0
LINE
  5
2A1
100
AcDbEntity
  8
200
100
AcDbLine
370
-1
  6
AUSGEZOGEN
 10
489.66
 20
418
 30
0
 11
479.34
 21
418
 31
0
  0
LINE
  5
2A2
100
AcDbEntity
  8
200
100
AcDbLine
370
-1
  6
AUSGEZOGEN
 10
517
 20
415.66
 30
0
 11
514.66
 21
418
 31
0
  0
LINE
  5
2A3
100
AcDbEntity
  8
200
100
AcDbLine
370
-1
  6
AUSGEZOGEN
 10
517
 20
412.34
 30
0
 11
517
 21
415.66
 31
0
  0
LINE
  5
2A4
100
AcDbEntity
  8
200
100
AcDbLine
370
-1
  6
AUSGEZOGEN
 10
514.66
 20
410
 30
0
 11
517
 21
412.34
 31
0
  0
LINE
  5
2A5
100
AcDbEntity
  8
200
100
AcDbLine
370
-1
  6
AUSGEZOGEN
 10
504.34
 20
410
 30
0
 11
514.66
 21
410
 31
0
  0
LINE
  5
2A6
100
AcDbEntity
  8
200
100
AcDbLine
370
-1
  6
AUSGEZOGEN
 10
502
 20
412.34
 30
0
 11
504.34
 21
410
 31
0
  0
LINE
  5
2A7
100
AcDbEntity
  8
200
100
AcDbLine
370
-1
  6
AUSGEZOGEN
 10
504.34
 20
418
 30
0
 11
502
 21
415.66
 31
0
  0
LINE
  5
2A8
100
AcDbEntity
  8
200
100
AcDbLine
370
-1
  6
AUSGEZOGEN
 10
502
 20
412.34
 30
0
 11
502
 21
415.66
 31
0
  0
LINE
  5
2A9
100
AcDbEntity
  8
200
100
AcDbLine
370
-1
  6
AUSGEZOGEN
 10
514.66
 20
418
 30
0
 11
504.34
 21
418
 31
0
  0
LINE
  5
2AA
100
AcDbEntity
  8
200
100
AcDbLine
370
-1
  6
AUSGEZOGEN
 10
542
 20
415.66
 30
0
 11
539.66
 21
418
 31
0
  0
LINE
  5
2AB
100
AcDbEntity
  8
200
100
AcDbLine
370
-1
  6
AUSGEZOGEN
 10
542
 20
412.34
 30
0
 11
542
 21
415.66
 31
0
  0
LINE
  5
2AC
100
AcDbEntity
  8
200
100
AcDbLine
370
-1
  6
AUSGEZOGEN
 10
539.66
 20
410
 30
0
 11
542
 21
412.34
 31
0
  0
LINE
  5
2AD
100
AcDbEntity
  8
200
100
AcDbLine
370
-1
  6
AUSGEZOGEN
 10
529.34
 20
410
 30
0
 11
539.66
 21
410
 31
0
  0
LINE
  5
2AE
100
AcDbEntity
  8
200
100
AcDbLine
370
-1
  6
AUSGEZOGEN
 10
527
 20
412.34
 30
0
 11
529.34
 21
410
 31
0
  0
LINE
  5
2AF
100
AcDbEntity
  8
200
100
AcDbLine
370
-1
  6
AUSGEZOGEN
 10
529.34
 20
418
 30
0
 11
527
 21
415.66
 31
0
  0
LINE
  5
2B0
100
AcDbEntity
  8
200
100
AcDbLine
370
-1
  6
AUSGEZOGEN
 10
527
 20
412.34
 30
0
 11
527
 21
415.66
 31
0
  0
LINE
  5
2B1
100
AcDbEntity
  8
200
100
AcDbLine
370
-1
  6
AUSGEZOGEN
 10
539.66
 20
418
 30
0
 11
529.34
 21
418
 31
0
  0
LINE
  5
2B2
100
AcDbEntity
  8
200
100
AcDbLine
370
-1
  6
AUSGEZOGEN
 10
567
 20
415.66
 30
0
 11
564.66
 21
418
 31
0
  0
LINE
  5
2B3
100
AcDbEntity
  8
200
100
AcDbLine
370
-1
  6
AUSGEZOGEN
 10
567
 20
412.34
 30
0
 11
567
 21
415.66
 31
0
  0
LINE
  5
2B4
100
AcDbEntity
  8
200
100
AcDbLine
370
-1
  6
AUSGEZOGEN
 10
564.66
 20
410
 30
0
 11
567
 21
412.34
 31
0
  0
LINE
  5
2B5
100
AcDbEntity
  8
200
100
AcDbLine
370
-1
  6
AUSGEZOGEN
 10
554.34
 20
410
 30
0
 11
564.66
 21
410
 31
0
  0
LINE
  5
2B6
100
AcDbEntity
  8
200
100
AcDbLine
370
-1
  6
AUSGEZOGEN
 10
552
 20
412.34
 30
0
 11
554.34
 21
410
 31
0
  0
LINE
  5
2B7
100
AcDbEntity
  8
200
100
AcDbLine
370
-1
  6
AUSGEZOGEN
 10
554.34
 20
418
 30
0
 11
552
 21
415.66
 31
0
  0
LINE
  5
2B8
100
AcDbEntity
  8
200
100
AcDbLine
370
-1
  6
AUSGEZOGEN
 10
552
 20
412.34
 30
0
 11
552
 21
415.66
 31
0
  0
LINE
  5
2B9
100
AcDbEntity
  8
200
100
AcDbLine
370
-1
  6
AUSGEZOGEN
 10
564.66
 20
418
 30
0
 11
554.34
 21
418
 31
0
  0
LINE
  5
2BA
100
AcDbEntity
  8
200
100
AcDbLine
370
-1
  6
AUSGEZOGEN
 10
592
 20
415.66
 30
0
 11
589.66
 21
418
 31
0
  0
LINE
  5
2BB
100
AcDbEntity
  8
200
100
AcDbLine
370
-1
  6
AUSGEZOGEN
 10
592
 20
412.34
 30
0
 11
592
 21
415.66
 31
0
  0
LINE
  5
2BC
100
AcDbEntity
  8
200
100
AcDbLine
370
-1
  6
AUSGEZOGEN
 10
589.66
 20
410
 30
0
 11
592
 21
412.34
 31
0
  0
LINE
  5
2BD
100
AcDbEntity
  8
200
100
AcDbLine
370
-1
  6
AUSGEZOGEN
 10
579.34
 20
410
 30
0
 11
589.66
 21
410
 31
0
  0
LINE
  5
2BE
100
AcDbEntity
  8
200
100
AcDbLine
370
-1
  6
AUSGEZOGEN
 10
577
 20
412.34
 30
0
 11
579.34
 21
410
 31
0
  0
LINE
  5
2BF
100
AcDbEntity
  8
200
100
AcDbLine
370
-1
  6
AUSGEZOGEN
 10
579.34
 20
418
 30
0
 11
577
 21
415.66
 31
0
  0
LINE
  5
2C0
100
AcDbEntity
  8
200
100
AcDbLine
370
-1
  6
AUSGEZOGEN
 10
577
 20
412.34
 30
0
 11
577
 21
415.66
 31
0
  0
LINE
  5
2C1
100
AcDbEntity
  8
200
100
AcDbLine
370
-1
  6
AUSGEZOGEN
 10
589.66
 20
418
 30
0
 11
579.34
 21
418
 31
0
  0
LINE
  5
2C2
100
AcDbEntity
  8
200
100
AcDbLine
370
-1
  6
AUSGEZOGEN
 10
617
 20
415.66
 30
0
 11
614.66
 21
418
 31
0
  0
LINE
  5
2C3
100
AcDbEntity
  8
200
100
AcDbLine
370
-1
  6
AUSGEZOGEN
 10
617
 20
412.34
 30
0
 11
617
 21
415.66
 31
0
  0
LINE
  5
2C4
100
AcDbEntity
  8
200
100
AcDbLine
370
-1
  6
AUSGEZOGEN
 10
614.66
 20
410
 30
0
 11
617
 21
412.34
 31
0
  0
LINE
  5
2C5
100
AcDbEntity
  8
200
100
AcDbLine
370
-1
  6
AUSGEZOGEN
 10
604.34
 20
410
 30
0
 11
614.66
 21
410
 31
0
  0
LINE
  5
2C6
100
AcDbEntity
  8
200
100
AcDbLine
370
-1
  6
AUSGEZOGEN
 10
602
 20
412.34
 30
0
 11
604.34
 21
410
 31
0
  0
LINE
  5
2C7
100
AcDbEntity
  8
200
100
AcDbLine
370
-1
  6
AUSGEZOGEN
 10
604.34
 20
418
 30
0
 11
602
 21
415.66
 31
0
  0
LINE
  5
2C8
100
AcDbEntity
  8
200
100
AcDbLine
370
-1
  6
AUSGEZOGEN
 10
602
 20
412.34
 30
0
 11
602
 21
415.66
 31
0
  0
LINE
  5
2C9
100
AcDbEntity
  8
200
100
AcDbLine
370
-1
  6
AUSGEZOGEN
 10
614.66
 20
418
 30
0
 11
604.34
 21
418
 31
0
  0
LINE
  5
2CA
100
AcDbEntity
  8
200
100
AcDbLine
370
-1
  6
AUSGEZOGEN
 10
642
 20
415.66
 30
0
 11
639.66
 21
418
 31
0
  0
LINE
  5
2CB
100
AcDbEntity
  8
200
100
AcDbLine
370
-1
  6
AUSGEZOGEN
 10
642
 20
412.34
 30
0
 11
642
 21
415.66
 31
0
  0
LINE
  5
2CC
100
AcDbEntity
  8
200
100
AcDbLine
370
-1
  6
AUSGEZOGEN
 10
639.66
 20
410
 30
0
 11
642
 21
412.34
 31
0
  0
LINE
  5
2CD
100
AcDbEntity
  8
200
100
AcDbLine
370
-1
  6
AUSGEZOGEN
 10
629.34
 20
410
 30
0
 11
639.66
 21
410
 31
0
  0
LINE
  5
2CE
100
AcDbEntity
  8
200
100
AcDbLine
370
-1
  6
AUSGEZOGEN
 10
627
 20
412.34
 30
0
 11
629.34
 21
410
 31
0
  0
LINE
  5
2CF
100
AcDbEntity
  8
200
100
AcDbLine
370
-1
  6
AUSGEZOGEN
 10
629.34
 20
418
 30
0
 11
627
 21
415.66
 31
0
  0
LINE
  5
2D0
100
AcDbEntity
  8
200
100
AcDbLine
370
-1
  6
AUSGEZOGEN
 10
627
 20
412.34
 30
0
 11
627
 21
415.66
 31
0
  0
LINE
  5
2D1
100
AcDbEntity
  8
200
100
AcDbLine
370
-1
  6
AUSGEZOGEN
 10
639.66
 20
418
 30
0
 11
629.34
 21
418
 31
0
  0
LINE
  5
2D2
100
AcDbEntity
  8
200
100
AcDbLine
370
-1
  6
AUSGEZOGEN
 10
667
 20
415.66
 30
0
 11
664.66
 21
418
 31
0
  0
LINE
  5
2D3
100
AcDbEntity
  8
200
100
AcDbLine
370
-1
  6
AUSGEZOGEN
 10
667
 20
412.34
 30
0
 11
667
 21
415.66
 31
0
  0
LINE
  5
2D4
100
AcDbEntity
  8
200
100
AcDbLine
370
-1
  6
AUSGEZOGEN
 10
664.66
 20
410
 30
0
 11
667
 21
412.34
 31
0
  0
LINE
  5
2D5
100
AcDbEntity
  8
200
100
AcDbLine
370
-1
  6
AUSGEZOGEN
 10
654.34
 20
410
 30
0
 11
664.66
 21
410
 31
0
  0
LINE
  5
2D6
100
AcDbEntity
  8
200
100
AcDbLine
370
-1
  6
AUSGEZOGEN
 10
652
 20
412.34
 30
0
 11
654.34
 21
410
 31
0
  0
LINE
  5
2D7
100
AcDbEntity
  8
200
100
AcDbLine
370
-1
  6
AUSGEZOGEN
 10
654.34
 20
418
 30
0
 11
652
 21
415.66
 31
0
  0
LINE
  5
2D8
100
AcDbEntity
  8
200
100
AcDbLine
370
-1
  6
AUSGEZOGEN
 10
652
 20
412.34
 30
0
 11
652
 21
415.66
 31
0
  0
LINE
  5
2D9
100
AcDbEntity
  8
200
100
AcDbLine
370
-1
  6
AUSGEZOGEN
 10
664.66
 20
418
 30
0
 11
654.34
 21
418
 31
0
  0
LINE
  5
2DA
100
AcDbEntity
  8
200
100
AcDbLine
370
-1
  6
AUSGEZOGEN
 10
692
 20
415.66
 30
0
 11
689.66
 21
418
 31
0
  0
LINE
  5
2DB
100
AcDbEntity
  8
200
100
AcDbLine
370
-1
  6
AUSGEZOGEN
 10
692
 20
412.34
 30
0
 11
692
 21
415.66
 31
0
  0
LINE
  5
2DC
100
AcDbEntity
  8
200
100
AcDbLine
370
-1
  6
AUSGEZOGEN
 10
689.66
 20
410
 30
0
 11
692
 21
412.34
 31
0
  0
LINE
  5
2DD
100
AcDbEntity
  8
200
100
AcDbLine
370
-1
  6
AUSGEZOGEN
 10
679.34
 20
410
 30
0
 11
689.66
 21
410
 31
0
  0
LINE
  5
2DE
100
AcDbEntity
  8
200
100
AcDbLine
370
-1
  6
AUSGEZOGEN
 10
677
 20
412.34
 30
0
 11
679.34
 21
410
 31
0
  0
LINE
  5
2DF
100
AcDbEntity
  8
200
100
AcDbLine
370
-1
  6
AUSGEZOGEN
 10
679.34
 20
418
 30
0
 11
677
 21
415.66
 31
0
  0
LINE
  5
2E0
100
AcDbEntity
  8
200
100
AcDbLine
370
-1
  6
AUSGEZOGEN
 10
677
 20
412.34
 30
0
 11
677
 21
415.66
 31
0
  0
LINE
  5
2E1
100
AcDbEntity
  8
200
100
AcDbLine
370
-1
  6
AUSGEZOGEN
 10
689.66
 20
418
 30
0
 11
679.34
 21
418
 31
0
  0
LINE
  5
2E2
100
AcDbEntity
  8
200
100
AcDbLine
370
-1
  6
AUSGEZOGEN
 10
717
 20
415.66
 30
0
 11
714.66
 21
418
 31
0
  0
LINE
  5
2E3
100
AcDbEntity
  8
200
100
AcDbLine
370
-1
  6
AUSGEZOGEN
 10
717
 20
412.34
 30
0
 11
717
 21
415.66
 31
0
  0
LINE
  5
2E4
100
AcDbEntity
  8
200
100
AcDbLine
370
-1
  6
AUSGEZOGEN
 10
714.66
 20
410
 30
0
 11
717
 21
412.34
 31
0
  0
LINE
  5
2E5
100
AcDbEntity
  8
200
100
AcDbLine
370
-1
  6
AUSGEZOGEN
 10
704.34
 20
410
 30
0
 11
714.66
 21
410
 31
0
  0
LINE
  5
2E6
100
AcDbEntity
  8
200
100
AcDbLine
370
-1
  6
AUSGEZOGEN
 10
702
 20
412.34
 30
0
 11
704.34
 21
410
 31
0
  0
LINE
  5
2E7
100
AcDbEntity
  8
200
100
AcDbLine
370
-1
  6
AUSGEZOGEN
 10
704.34
 20
418
 30
0
 11
702
 21
415.66
 31
0
  0
LINE
  5
2E8
100
AcDbEntity
  8
200
100
AcDbLine
370
-1
  6
AUSGEZOGEN
 10
702
 20
412.34
 30
0
 11
702
 21
415.66
 31
0
  0
LINE
  5
2E9
100
AcDbEntity
  8
200
100
AcDbLine
370
-1
  6
AUSGEZOGEN
 10
714.66
 20
418
 30
0
 11
704.34
 21
418
 31
0
  0
LINE
  5
2EA
100
AcDbEntity
  8
200
100
AcDbLine
370
-1
  6
AUSGEZOGEN
 10
742
 20
415.66
 30
0
 11
739.66
 21
418
 31
0
  0
LINE
  5
2EB
100
AcDbEntity
  8
200
100
AcDbLine
370
-1
  6
AUSGEZOGEN
 10
742
 20
412.34
 30
0
 11
742
 21
415.66
 31
0
  0
LINE
  5
2EC
100
AcDbEntity
  8
200
100
AcDbLine
370
-1
  6
AUSGEZOGEN
 10
739.66
 20
410
 30
0
 11
742
 21
412.34
 31
0
  0
LINE
  5
2ED
100
AcDbEntity
  8
200
100
AcDbLine
370
-1
  6
AUSGEZOGEN
 10
729.34
 20
410
 30
0
 11
739.66
 21
410
 31
0
  0
LINE
  5
2EE
100
AcDbEntity
  8
200
100
AcDbLine
370
-1
  6
AUSGEZOGEN
 10
727
 20
412.34
 30
0
 11
729.34
 21
410
 31
0
  0
LINE
  5
2EF
100
AcDbEntity
  8
200
100
AcDbLine
370
-1
  6
AUSGEZOGEN
 10
729.34
 20
418
 30
0
 11
727
 21
415.66
 31
0
  0
LINE
  5
2F0
100
AcDbEntity
  8
200
100
AcDbLine
370
-1
  6
AUSGEZOGEN
 10
727
 20
412.34
 30
0
 11
727
 21
415.66
 31
0
  0
LINE
  5
2F1
100
AcDbEntity
  8
200
100
AcDbLine
370
-1
  6
AUSGEZOGEN
 10
739.66
 20
418
 30
0
 11
729.34
 21
418
 31
0
  0
LINE
  5
2F2
100
AcDbEntity
  8
200
100
AcDbLine
370
-1
  6
AUSGEZOGEN
 10
767
 20
415.66
 30
0
 11
764.66
 21
418
 31
0
  0
LINE
  5
2F3
100
AcDbEntity
  8
200
100
AcDbLine
370
-1
  6
AUSGEZOGEN
 10
767
 20
412.34
 30
0
 11
767
 21
415.66
 31
0
  0
LINE
  5
2F4
100
AcDbEntity
  8
200
100
AcDbLine
370
-1
  6
AUSGEZOGEN
 10
764.66
 20
410
 30
0
 11
767
 21
412.34
 31
0
  0
LINE
  5
2F5
100
AcDbEntity
  8
200
100
AcDbLine
370
-1
  6
AUSGEZOGEN
 10
754.34
 20
410
 30
0
 11
764.66
 21
410
 31
0
  0
LINE
  5
2F6
100
AcDbEntity
  8
200
100
AcDbLine
370
-1
  6
AUSGEZOGEN
 10
752
 20
412.34
 30
0
 11
754.34
 21
410
 31
0
  0
LINE
  5
2F7
100
AcDbEntity
  8
200
100
AcDbLine
370
-1
  6
AUSGEZOGEN
 10
754.34
 20
418
 30
0
 11
752
 21
415.66
 31
0
  0
LINE
  5
2F8
100
AcDbEntity
  8
200
100
AcDbLine
370
-1
  6
AUSGEZOGEN
 10
752
 20
412.34
 30
0
 11
752
 21
415.66
 31
0
  0
LINE
  5
2F9
100
AcDbEntity
  8
200
100
AcDbLine
370
-1
  6
AUSGEZOGEN
 10
764.66
 20
418
 30
0
 11
754.34
 21
418
 31
0
  0
LINE
  5
2FA
100
AcDbEntity
  8
200
100
AcDbLine
370
-1
  6
AUSGEZOGEN
 10
792
 20
415.66
 30
0
 11
789.66
 21
418
 31
0
  0
LINE
  5
2FB
100
AcDbEntity
  8
200
100
AcDbLine
370
-1
  6
AUSGEZOGEN
 10
792
 20
412.34
 30
0
 11
792
 21
415.66
 31
0
  0
LINE
  5
2FC
100
AcDbEntity
  8
200
100
AcDbLine
370
-1
  6
AUSGEZOGEN
 10
789.66
 20
410
 30
0
 11
792
 21
412.34
 31
0
  0
LINE
  5
2FD
100
AcDbEntity
  8
200
100
AcDbLine
370
-1
  6
AUSGEZOGEN
 10
779.34
 20
410
 30
0
 11
789.66
 21
410
 31
0
  0
LINE
  5
2FE
100
AcDbEntity
  8
200
100
AcDbLine
370
-1
  6
AUSGEZOGEN
 10
777
 20
412.34
 30
0
 11
779.34
 21
410
 31
0
  0
LINE
  5
2FF
100
AcDbEntity
  8
200
100
AcDbLine
370
-1
  6
AUSGEZOGEN
 10
779.34
 20
418
 30
0
 11
777
 21
415.66
 31
0
  0
LINE
  5
300
100
AcDbEntity
  8
200
100
AcDbLine
370
-1
  6
AUSGEZOGEN
 10
777
 20
412.34
 30
0
 11
777
 21
415.66
 31
0
  0
LINE
  5
301
100
AcDbEntity
  8
200
100
AcDbLine
370
-1
  6
AUSGEZOGEN
 10
789.66
 20
418
 30
0
 11
779.34
 21
418
 31
0
  0
LINE
  5
302
100
AcDbEntity
  8
200
100
AcDbLine
370
-1
  6
AUSGEZOGEN
 10
817
 20
415.66
 30
0
 11
814.66
 21
418
 31
0
  0
LINE
  5
303
100
AcDbEntity
  8
200
100
AcDbLine
370
-1
  6
AUSGEZOGEN
 10
817
 20
412.34
 30
0
 11
817
 21
415.66
 31
0
  0
LINE
  5
304
100
AcDbEntity
  8
200
100
AcDbLine
370
-1
  6
AUSGEZOGEN
 10
814.66
 20
410
 30
0
 11
817
 21
412.34
 31
0
  0
LINE
  5
305
100
AcDbEntity
  8
200
100
AcDbLine
370
-1
  6
AUSGEZOGEN
 10
804.34
 20
410
 30
0
 11
814.66
 21
410
 31
0
  0
LINE
  5
306
100
AcDbEntity
  8
200
100
AcDbLine
370
-1
  6
AUSGEZOGEN
 10
802
 20
412.34
 30
0
 11
804.34
 21
410
 31
0
  0
LINE
  5
307
100
AcDbEntity
  8
200
100
AcDbLine
370
-1
  6
AUSGEZOGEN
 10
804.34
 20
418
 30
0
 11
802
 21
415.66
 31
0
  0
LINE
  5
308
100
AcDbEntity
  8
200
100
AcDbLine
370
-1
  6
AUSGEZOGEN
 10
802
 20
412.34
 30
0
 11
802
 21
415.66
 31
0
  0
LINE
  5
309
100
AcDbEntity
  8
200
100
AcDbLine
370
-1
  6
AUSGEZOGEN
 10
814.66
 20
418
 30
0
 11
804.34
 21
418
 31
0
  0
LINE
  5
30A
100
AcDbEntity
  8
200
100
AcDbLine
370
-1
  6
AUSGEZOGEN
 10
842
 20
415.66
 30
0
 11
839.66
 21
418
 31
0
  0
LINE
  5
30B
100
AcDbEntity
  8
200
100
AcDbLine
370
-1
  6
AUSGEZOGEN
 10
842
 20
412.34
 30
0
 11
842
 21
415.66
 31
0
  0
LINE
  5
30C
100
AcDbEntity
  8
200
100
AcDbLine
370
-1
  6
AUSGEZOGEN
 10
839.66
 20
410
 30
0
 11
842
 21
412.34
 31
0
  0
LINE
  5
30D
100
AcDbEntity
  8
200
100
AcDbLine
370
-1
  6
AUSGEZOGEN
 10
829.34
 20
410
 30
0
 11
839.66
 21
410
 31
0
  0
LINE
  5
30E
100
AcDbEntity
  8
200
100
AcDbLine
370
-1
  6
AUSGEZOGEN
 10
827
 20
412.34
 30
0
 11
829.34
 21
410
 31
0
  0
LINE
  5
30F
100
AcDbEntity
  8
200
100
AcDbLine
370
-1
  6
AUSGEZOGEN
 10
829.34
 20
418
 30
0
 11
827
 21
415.66
 31
0
  0
LINE
  5
310
100
AcDbEntity
  8
200
100
AcDbLine
370
-1
  6
AUSGEZOGEN
 10
827
 20
412.34
 30
0
 11
827
 21
415.66
 31
0
  0
LINE
  5
311
100
AcDbEntity
  8
200
100
AcDbLine
370
-1
  6
AUSGEZOGEN
 10
839.66
 20
418
 30
0
 11
829.34
 21
418
 31
0
  0
LINE
  5
312
100
AcDbEntity
  8
200
100
AcDbLine
370
-1
  6
AUSGEZOGEN
 10
867
 20
415.66
 30
0
 11
864.66
 21
418
 31
0
  0
LINE
  5
313
100
AcDbEntity
  8
200
100
AcDbLine
370
-1
  6
AUSGEZOGEN
 10
867
 20
412.34
 30
0
 11
867
 21
415.66
 31
0
  0
LINE
  5
314
100
AcDbEntity
  8
200
100
AcDbLine
370
-1
  6
AUSGEZOGEN
 10
864.66
 20
410
 30
0
 11
867
 21
412.34
 31
0
  0
LINE
  5
315
100
AcDbEntity
  8
200
100
AcDbLine
370
-1
  6
AUSGEZOGEN
 10
854.34
 20
410
 30
0
 11
864.66
 21
410
 31
0
  0
LINE
  5
316
100
AcDbEntity
  8
200
100
AcDbLine
370
-1
  6
AUSGEZOGEN
 10
852
 20
412.34
 30
0
 11
854.34
 21
410
 31
0
  0
LINE
  5
317
100
AcDbEntity
  8
200
100
AcDbLine
370
-1
  6
AUSGEZOGEN
 10
854.34
 20
418
 30
0
 11
852
 21
415.66
 31
0
  0
LINE
  5
318
100
AcDbEntity
  8
200
100
AcDbLine
370
-1
  6
AUSGEZOGEN
 10
852
 20
412.34
 30
0
 11
852
 21
415.66
 31
0
  0
LINE
  5
319
100
AcDbEntity
  8
200
100
AcDbLine
370
-1
  6
AUSGEZOGEN
 10
864.66
 20
418
 30
0
 11
854.34
 21
418
 31
0
  0
LINE
  5
31A
100
AcDbEntity
  8
200
100
AcDbLine
370
-1
  6
AUSGEZOGEN
 10
892
 20
415.66
 30
0
 11
889.66
 21
418
 31
0
  0
LINE
  5
31B
100
AcDbEntity
  8
200
100
AcDbLine
370
-1
  6
AUSGEZOGEN
 10
892
 20
412.34
 30
0
 11
892
 21
415.66
 31
0
  0
LINE
  5
31C
100
AcDbEntity
  8
200
100
AcDbLine
370
-1
  6
AUSGEZOGEN
 10
889.66
 20
410
 30
0
 11
892
 21
412.34
 31
0
  0
LINE
  5
31D
100
AcDbEntity
  8
200
100
AcDbLine
370
-1
  6
AUSGEZOGEN
 10
879.34
 20
410
 30
0
 11
889.66
 21
410
 31
0
  0
LINE
  5
31E
100
AcDbEntity
  8
200
100
AcDbLine
370
-1
  6
AUSGEZOGEN
 10
877
 20
412.34
 30
0
 11
879.34
 21
410
 31
0
  0
LINE
  5
31F
100
AcDbEntity
  8
200
100
AcDbLine
370
-1
  6
AUSGEZOGEN
 10
879.34
 20
418
 30
0
 11
877
 21
415.66
 31
0
  0
LINE
  5
320
100
AcDbEntity
  8
200
100
AcDbLine
370
-1
  6
AUSGEZOGEN
 10
877
 20
412.34
 30
0
 11
877
 21
415.66
 31
0
  0
LINE
  5
321
100
AcDbEntity
  8
200
100
AcDbLine
370
-1
  6
AUSGEZOGEN
 10
889.66
 20
418
 30
0
 11
879.34
 21
418
 31
0
  0
LINE
  5
322
100
AcDbEntity
  8
200
100
AcDbLine
370
-1
  6
AUSGEZOGEN
 10
917
 20
415.66
 30
0
 11
914.66
 21
418
 31
0
  0
LINE
  5
323
100
AcDbEntity
  8
200
100
AcDbLine
370
-1
  6
AUSGEZOGEN
 10
917
 20
412.34
 30
0
 11
917
 21
415.66
 31
0
  0
LINE
  5
324
100
AcDbEntity
  8
200
100
AcDbLine
370
-1
  6
AUSGEZOGEN
 10
914.66
 20
410
 30
0
 11
917
 21
412.34
 31
0
  0
LINE
  5
325
100
AcDbEntity
  8
200
100
AcDbLine
370
-1
  6
AUSGEZOGEN
 10
904.34
 20
410
 30
0
 11
914.66
 21
410
 31
0
  0
LINE
  5
326
100
AcDbEntity
  8
200
100
AcDbLine
370
-1
  6
AUSGEZOGEN
 10
902
 20
412.34
 30
0
 11
904.34
 21
410
 31
0
  0
LINE
  5
327
100
AcDbEntity
  8
200
100
AcDbLine
370
-1
  6
AUSGEZOGEN
 10
904.34
 20
418
 30
0
 11
902
 21
415.66
 31
0
  0
LINE
  5
328
100
AcDbEntity
  8
200
100
AcDbLine
370
-1
  6
AUSGEZOGEN
 10
902
 20
412.34
 30
0
 11
902
 21
415.66
 31
0
  0
LINE
  5
329
100
AcDbEntity
  8
200
100
AcDbLine
370
-1
  6
AUSGEZOGEN
 10
914.66
 20
418
 30
0
 11
904.34
 21
418
 31
0
  0
LINE
  5
32A
100
AcDbEntity
  8
200
100
AcDbLine
370
-1
  6
AUSGEZOGEN
 10
942
 20
415.66
 30
0
 11
939.66
 21
418
 31
0
  0
LINE
  5
32B
100
AcDbEntity
  8
200
100
AcDbLine
370
-1
  6
AUSGEZOGEN
 10
942
 20
412.34
 30
0
 11
942
 21
415.66
 31
0
  0
LINE
  5
32C
100
AcDbEntity
  8
200
100
AcDbLine
370
-1
  6
AUSGEZOGEN
 10
939.66
 20
410
 30
0
 11
942
 21
412.34
 31
0
  0
LINE
  5
32D
100
AcDbEntity
  8
200
100
AcDbLine
370
-1
  6
AUSGEZOGEN
 10
929.34
 20
410
 30
0
 11
939.66
 21
410
 31
0
  0
LINE
  5
32E
100
AcDbEntity
  8
200
100
AcDbLine
370
-1
  6
AUSGEZOGEN
 10
927
 20
412.34
 30
0
 11
929.34
 21
410
 31
0
  0
LINE
  5
32F
100
AcDbEntity
  8
200
100
AcDbLine
370
-1
  6
AUSGEZOGEN
 10
929.34
 20
418
 30
0
 11
927
 21
415.66
 31
0
  0
LINE
  5
330
100
AcDbEntity
  8
200
100
AcDbLine
370
-1
  6
AUSGEZOGEN
 10
927
 20
412.34
 30
0
 11
927
 21
415.66
 31
0
  0
LINE
  5
331
100
AcDbEntity
  8
200
100
AcDbLine
370
-1
  6
AUSGEZOGEN
 10
939.66
 20
418
 30
0
 11
929.34
 21
418
 31
0
  0
LINE
  5
332
100
AcDbEntity
  8
200
100
AcDbLine
370
-1
  6
AUSGEZOGEN
 10
942
 20
387.66
 30
0
 11
939.66
 21
390
 31
0
  0
LINE
  5
333
100
AcDbEntity
  8
200
100
AcDbLine
370
-1
  6
AUSGEZOGEN
 10
942
 20
384.34
 30
0
 11
942
 21
387.66
 31
0
  0
LINE
  5
334
100
AcDbEntity
  8
200
100
AcDbLine
370
-1
  6
AUSGEZOGEN
 10
939.66
 20
382
 30
0
 11
942
 21
384.34
 31
0
  0
LINE
  5
335
100
AcDbEntity
  8
200
100
AcDbLine
370
-1
  6
AUSGEZOGEN
 10
929.34
 20
382
 30
0
 11
939.66
 21
382
 31
0
  0
LINE
  5
336
100
AcDbEntity
  8
200
100
AcDbLine
370
-1
  6
AUSGEZOGEN
 10
927
 20
384.34
 30
0
 11
929.34
 21
382
 31
0
  0
LINE
  5
337
100
AcDbEntity
  8
200
100
AcDbLine
370
-1
  6
AUSGEZOGEN
 10
929.34
 20
390
 30
0
 11
927
 21
387.66
 31
0
  0
LINE
  5
338
100
AcDbEntity
  8
200
100
AcDbLine
370
-1
  6
AUSGEZOGEN
 10
927
 20
384.34
 30
0
 11
927
 21
387.66
 31
0
  0
LINE
  5
339
100
AcDbEntity
  8
200
100
AcDbLine
370
-1
  6
AUSGEZOGEN
 10
939.66
 20
390
 30
0
 11
929.34
 21
390
 31
0
  0
LINE
  5
33A
100
AcDbEntity
  8
200
100
AcDbLine
370
-1
  6
AUSGEZOGEN
 10
1142
 20
415.66
 30
0
 11
1139.66
 21
418
 31
0
  0
LINE
  5
33B
100
AcDbEntity
  8
200
100
AcDbLine
370
-1
  6
AUSGEZOGEN
 10
1142
 20
412.34
 30
0
 11
1142
 21
415.66
 31
0
  0
LINE
  5
33C
100
AcDbEntity
  8
200
100
AcDbLine
370
-1
  6
AUSGEZOGEN
 10
1139.66
 20
410
 30
0
 11
1142
 21
412.34
 31
0
  0
LINE
  5
33D
100
AcDbEntity
  8
200
100
AcDbLine
370
-1
  6
AUSGEZOGEN
 10
1129.34
 20
410
 30
0
 11
1139.66
 21
410
 31
0
  0
LINE
  5
33E
100
AcDbEntity
  8
200
100
AcDbLine
370
-1
  6
AUSGEZOGEN
 10
1127
 20
412.34
 30
0
 11
1129.34
 21
410
 31
0
  0
LINE
  5
33F
100
AcDbEntity
  8
200
100
AcDbLine
370
-1
  6
AUSGEZOGEN
 10
1129.34
 20
418
 30
0
 11
1127
 21
415.66
 31
0
  0
LINE
  5
340
100
AcDbEntity
  8
200
100
AcDbLine
370
-1
  6
AUSGEZOGEN
 10
1127
 20
412.34
 30
0
 11
1127
 21
415.66
 31
0
  0
LINE
  5
341
100
AcDbEntity
  8
200
100
AcDbLine
370
-1
  6
AUSGEZOGEN
 10
1139.66
 20
418
 30
0
 11
1129.34
 21
418
 31
0
  0
LINE
  5
342
100
AcDbEntity
  8
200
100
AcDbLine
370
-1
  6
AUSGEZOGEN
 10
1142
 20
387.66
 30
0
 11
1139.66
 21
390
 31
0
  0
LINE
  5
343
100
AcDbEntity
  8
200
100
AcDbLine
370
-1
  6
AUSGEZOGEN
 10
1142
 20
384.34
 30
0
 11
1142
 21
387.66
 31
0
  0
LINE
  5
344
100
AcDbEntity
  8
200
100
AcDbLine
370
-1
  6
AUSGEZOGEN
 10
1139.66
 20
382
 30
0
 11
1142
 21
384.34
 31
0
  0
LINE
  5
345
100
AcDbEntity
  8
200
100
AcDbLine
370
-1
  6
AUSGEZOGEN
 10
1129.34
 20
382
 30
0
 11
1139.66
 21
382
 31
0
  0
LINE
  5
346
100
AcDbEntity
  8
200
100
AcDbLine
370
-1
  6
AUSGEZOGEN
 10
1127
 20
384.34
 30
0
 11
1129.34
 21
382
 31
0
  0
LINE
  5
347
100
AcDbEntity
  8
200
100
AcDbLine
370
-1
  6
AUSGEZOGEN
 10
1129.34
 20
390
 30
0
 11
1127
 21
387.66
 31
0
  0
LINE
  5
348
100
AcDbEntity
  8
200
100
AcDbLine
370
-1
  6
AUSGEZOGEN
 10
1127
 20
384.34
 30
0
 11
1127
 21
387.66
 31
0
  0
LINE
  5
349
100
AcDbEntity
  8
200
100
AcDbLine
370
-1
  6
AUSGEZOGEN
 10
1139.66
 20
390
 30
0
 11
1129.34
 21
390
 31
0
  0
LINE
  5
34A
100
AcDbEntity
  8
200
100
AcDbLine
370
-1
  6
AUSGEZOGEN
 10
964.66
 20
418
 30
0
 11
967
 21
415.66
 31
0
  0
LINE
  5
34B
100
AcDbEntity
  8
200
100
AcDbLine
370
-1
  6
AUSGEZOGEN
 10
967
 20
412.34
 30
0
 11
967
 21
415.66
 31
0
  0
LINE
  5
34C
100
AcDbEntity
  8
200
100
AcDbLine
370
-1
  6
AUSGEZOGEN
 10
964.66
 20
410
 30
0
 11
967
 21
412.34
 31
0
  0
LINE
  5
34D
100
AcDbEntity
  8
200
100
AcDbLine
370
-1
  6
AUSGEZOGEN
 10
954.34
 20
410
 30
0
 11
964.66
 21
410
 31
0
  0
LINE
  5
34E
100
AcDbEntity
  8
200
100
AcDbLine
370
-1
  6
AUSGEZOGEN
 10
952
 20
412.34
 30
0
 11
954.34
 21
410
 31
0
  0
LINE
  5
34F
100
AcDbEntity
  8
200
100
AcDbLine
370
-1
  6
AUSGEZOGEN
 10
954.34
 20
418
 30
0
 11
952
 21
415.66
 31
0
  0
LINE
  5
350
100
AcDbEntity
  8
200
100
AcDbLine
370
-1
  6
AUSGEZOGEN
 10
952
 20
412.34
 30
0
 11
952
 21
415.66
 31
0
  0
LINE
  5
351
100
AcDbEntity
  8
200
100
AcDbLine
370
-1
  6
AUSGEZOGEN
 10
964.66
 20
418
 30
0
 11
954.34
 21
418
 31
0
  0
LINE
  5
352
100
AcDbEntity
  8
200
100
AcDbLine
370
-1
  6
AUSGEZOGEN
 10
967
 20
387.66
 30
0
 11
964.66
 21
390
 31
0
  0
LINE
  5
353
100
AcDbEntity
  8
200
100
AcDbLine
370
-1
  6
AUSGEZOGEN
 10
967
 20
384.34
 30
0
 11
967
 21
387.66
 31
0
  0
LINE
  5
354
100
AcDbEntity
  8
200
100
AcDbLine
370
-1
  6
AUSGEZOGEN
 10
964.66
 20
382
 30
0
 11
967
 21
384.34
 31
0
  0
LINE
  5
355
100
AcDbEntity
  8
200
100
AcDbLine
370
-1
  6
AUSGEZOGEN
 10
954.34
 20
382
 30
0
 11
964.66
 21
382
 31
0
  0
LINE
  5
356
100
AcDbEntity
  8
200
100
AcDbLine
370
-1
  6
AUSGEZOGEN
 10
952
 20
384.34
 30
0
 11
954.34
 21
382
 31
0
  0
LINE
  5
357
100
AcDbEntity
  8
200
100
AcDbLine
370
-1
  6
AUSGEZOGEN
 10
954.34
 20
390
 30
0
 11
952
 21
387.66
 31
0
  0
LINE
  5
358
100
AcDbEntity
  8
200
100
AcDbLine
370
-1
  6
AUSGEZOGEN
 10
952
 20
384.34
 30
0
 11
952
 21
387.66
 31
0
  0
LINE
  5
359
100
AcDbEntity
  8
200
100
AcDbLine
370
-1
  6
AUSGEZOGEN
 10
964.66
 20
390
 30
0
 11
954.34
 21
390
 31
0
  0
LINE
  5
35A
100
AcDbEntity
  8
200
100
AcDbLine
370
-1
  6
AUSGEZOGEN
 10
992
 20
415.66
 30
0
 11
989.66
 21
418
 31
0
  0
LINE
  5
35B
100
AcDbEntity
  8
200
100
AcDbLine
370
-1
  6
AUSGEZOGEN
 10
992
 20
412.34
 30
0
 11
992
 21
415.66
 31
0
  0
LINE
  5
35C
100
AcDbEntity
  8
200
100
AcDbLine
370
-1
  6
AUSGEZOGEN
 10
989.66
 20
410
 30
0
 11
992
 21
412.34
 31
0
  0
LINE
  5
35D
100
AcDbEntity
  8
200
100
AcDbLine
370
-1
  6
AUSGEZOGEN
 10
979.34
 20
410
 30
0
 11
989.66
 21
410
 31
0
  0
LINE
  5
35E
100
AcDbEntity
  8
200
100
AcDbLine
370
-1
  6
AUSGEZOGEN
 10
977
 20
412.34
 30
0
 11
979.34
 21
410
 31
0
  0
LINE
  5
35F
100
AcDbEntity
  8
200
100
AcDbLine
370
-1
  6
AUSGEZOGEN
 10
979.34
 20
418
 30
0
 11
977
 21
415.66
 31
0
  0
LINE
  5
360
100
AcDbEntity
  8
200
100
AcDbLine
370
-1
  6
AUSGEZOGEN
 10
977
 20
412.34
 30
0
 11
977
 21
415.66
 31
0
  0
LINE
  5
361
100
AcDbEntity
  8
200
100
AcDbLine
370
-1
  6
AUSGEZOGEN
 10
989.66
 20
418
 30
0
 11
979.34
 21
418
 31
0
  0
LINE
  5
362
100
AcDbEntity
  8
200
100
AcDbLine
370
-1
  6
AUSGEZOGEN
 10
992
 20
387.66
 30
0
 11
989.66
 21
390
 31
0
  0
LINE
  5
363
100
AcDbEntity
  8
200
100
AcDbLine
370
-1
  6
AUSGEZOGEN
 10
992
 20
384.34
 30
0
 11
992
 21
387.66
 31
0
  0
LINE
  5
364
100
AcDbEntity
  8
200
100
AcDbLine
370
-1
  6
AUSGEZOGEN
 10
989.66
 20
382
 30
0
 11
992
 21
384.34
 31
0
  0
LINE
  5
365
100
AcDbEntity
  8
200
100
AcDbLine
370
-1
  6
AUSGEZOGEN
 10
979.34
 20
382
 30
0
 11
989.66
 21
382
 31
0
  0
LINE
  5
366
100
AcDbEntity
  8
200
100
AcDbLine
370
-1
  6
AUSGEZOGEN
 10
977
 20
384.34
 30
0
 11
979.34
 21
382
 31
0
  0
LINE
  5
367
100
AcDbEntity
  8
200
100
AcDbLine
370
-1
  6
AUSGEZOGEN
 10
979.34
 20
390
 30
0
 11
977
 21
387.66
 31
0
  0
LINE
  5
368
100
AcDbEntity
  8
200
100
AcDbLine
370
-1
  6
AUSGEZOGEN
 10
977
 20
384.34
 30
0
 11
977
 21
387.66
 31
0
  0
LINE
  5
369
100
AcDbEntity
  8
200
100
AcDbLine
370
-1
  6
AUSGEZOGEN
 10
989.66
 20
390
 30
0
 11
979.34
 21
390
 31
0
  0
LINE
  5
36A
100
AcDbEntity
  8
200
100
AcDbLine
370
-1
  6
AUSGEZOGEN
 10
1017
 20
415.66
 30
0
 11
1014.66
 21
418
 31
0
  0
LINE
  5
36B
100
AcDbEntity
  8
200
100
AcDbLine
370
-1
  6
AUSGEZOGEN
 10
1017
 20
412.34
 30
0
 11
1017
 21
415.66
 31
0
  0
LINE
  5
36C
100
AcDbEntity
  8
200
100
AcDbLine
370
-1
  6
AUSGEZOGEN
 10
1014.66
 20
410
 30
0
 11
1017
 21
412.34
 31
0
  0
LINE
  5
36D
100
AcDbEntity
  8
200
100
AcDbLine
370
-1
  6
AUSGEZOGEN
 10
1004.34
 20
410
 30
0
 11
1014.66
 21
410
 31
0
  0
LINE
  5
36E
100
AcDbEntity
  8
200
100
AcDbLine
370
-1
  6
AUSGEZOGEN
 10
1002
 20
412.34
 30
0
 11
1004.34
 21
410
 31
0
  0
LINE
  5
36F
100
AcDbEntity
  8
200
100
AcDbLine
370
-1
  6
AUSGEZOGEN
 10
1004.34
 20
418
 30
0
 11
1002
 21
415.66
 31
0
  0
LINE
  5
370
100
AcDbEntity
  8
200
100
AcDbLine
370
-1
  6
AUSGEZOGEN
 10
1002
 20
412.34
 30
0
 11
1002
 21
415.66
 31
0
  0
LINE
  5
371
100
AcDbEntity
  8
200
100
AcDbLine
370
-1
  6
AUSGEZOGEN
 10
1014.66
 20
418
 30
0
 11
1004.34
 21
418
 31
0
  0
LINE
  5
372
100
AcDbEntity
  8
200
100
AcDbLine
370
-1
  6
AUSGEZOGEN
 10
1017
 20
387.66
 30
0
 11
1014.66
 21
390
 31
0
  0
LINE
  5
373
100
AcDbEntity
  8
200
100
AcDbLine
370
-1
  6
AUSGEZOGEN
 10
1017
 20
384.34
 30
0
 11
1017
 21
387.66
 31
0
  0
LINE
  5
374
100
AcDbEntity
  8
200
100
AcDbLine
370
-1
  6
AUSGEZOGEN
 10
1014.66
 20
382
 30
0
 11
1017
 21
384.34
 31
0
  0
LINE
  5
375
100
AcDbEntity
  8
200
100
AcDbLine
370
-1
  6
AUSGEZOGEN
 10
1004.34
 20
382
 30
0
 11
1014.66
 21
382
 31
0
  0
LINE
  5
376
100
AcDbEntity
  8
200
100
AcDbLine
370
-1
  6
AUSGEZOGEN
 10
1002
 20
384.34
 30
0
 11
1004.34
 21
382
 31
0
  0
LINE
  5
377
100
AcDbEntity
  8
200
100
AcDbLine
370
-1
  6
AUSGEZOGEN
 10
1004.34
 20
390
 30
0
 11
1002
 21
387.66
 31
0
  0
LINE
  5
378
100
AcDbEntity
  8
200
100
AcDbLine
370
-1
  6
AUSGEZOGEN
 10
1002
 20
384.34
 30
0
 11
1002
 21
387.66
 31
0
  0
LINE
  5
379
100
AcDbEntity
  8
200
100
AcDbLine
370
-1
  6
AUSGEZOGEN
 10
1014.66
 20
390
 30
0
 11
1004.34
 21
390
 31
0
  0
LINE
  5
37A
100
AcDbEntity
  8
200
100
AcDbLine
370
-1
  6
AUSGEZOGEN
 10
1042
 20
415.66
 30
0
 11
1039.66
 21
418
 31
0
  0
LINE
  5
37B
100
AcDbEntity
  8
200
100
AcDbLine
370
-1
  6
AUSGEZOGEN
 10
1042
 20
412.34
 30
0
 11
1042
 21
415.66
 31
0
  0
LINE
  5
37C
100
AcDbEntity
  8
200
100
AcDbLine
370
-1
  6
AUSGEZOGEN
 10
1039.66
 20
410
 30
0
 11
1042
 21
412.34
 31
0
  0
LINE
  5
37D
100
AcDbEntity
  8
200
100
AcDbLine
370
-1
  6
AUSGEZOGEN
 10
1029.34
 20
410
 30
0
 11
1039.66
 21
410
 31
0
  0
LINE
  5
37E
100
AcDbEntity
  8
200
100
AcDbLine
370
-1
  6
AUSGEZOGEN
 10
1027
 20
412.34
 30
0
 11
1029.34
 21
410
 31
0
  0
LINE
  5
37F
100
AcDbEntity
  8
200
100
AcDbLine
370
-1
  6
AUSGEZOGEN
 10
1029.34
 20
418
 30
0
 11
1027
 21
415.66
 31
0
  0
LINE
  5
380
100
AcDbEntity
  8
200
100
AcDbLine
370
-1
  6
AUSGEZOGEN
 10
1027
 20
412.34
 30
0
 11
1027
 21
415.66
 31
0
  0
LINE
  5
381
100
AcDbEntity
  8
200
100
AcDbLine
370
-1
  6
AUSGEZOGEN
 10
1039.66
 20
418
 30
0
 11
1029.34
 21
418
 31
0
  0
LINE
  5
382
100
AcDbEntity
  8
200
100
AcDbLine
370
-1
  6
AUSGEZOGEN
 10
1042
 20
387.66
 30
0
 11
1039.66
 21
390
 31
0
  0
LINE
  5
383
100
AcDbEntity
  8
200
100
AcDbLine
370
-1
  6
AUSGEZOGEN
 10
1042
 20
384.34
 30
0
 11
1042
 21
387.66
 31
0
  0
LINE
  5
384
100
AcDbEntity
  8
200
100
AcDbLine
370
-1
  6
AUSGEZOGEN
 10
1039.66
 20
382
 30
0
 11
1042
 21
384.34
 31
0
  0
LINE
  5
385
100
AcDbEntity
  8
200
100
AcDbLine
370
-1
  6
AUSGEZOGEN
 10
1029.34
 20
382
 30
0
 11
1039.66
 21
382
 31
0
  0
LINE
  5
386
100
AcDbEntity
  8
200
100
AcDbLine
370
-1
  6
AUSGEZOGEN
 10
1027
 20
384.34
 30
0
 11
1029.34
 21
382
 31
0
  0
LINE
  5
387
100
AcDbEntity
  8
200
100
AcDbLine
370
-1
  6
AUSGEZOGEN
 10
1029.34
 20
390
 30
0
 11
1027
 21
387.66
 31
0
  0
LINE
  5
388
100
AcDbEntity
  8
200
100
AcDbLine
370
-1
  6
AUSGEZOGEN
 10
1027
 20
384.34
 30
0
 11
1027
 21
387.66
 31
0
  0
LINE
  5
389
100
AcDbEntity
  8
200
100
AcDbLine
370
-1
  6
AUSGEZOGEN
 10
1039.66
 20
390
 30
0
 11
1029.34
 21
390
 31
0
  0
LINE
  5
38A
100
AcDbEntity
  8
200
100
AcDbLine
370
-1
  6
AUSGEZOGEN
 10
1067
 20
415.66
 30
0
 11
1064.66
 21
418
 31
0
  0
LINE
  5
38B
100
AcDbEntity
  8
200
100
AcDbLine
370
-1
  6
AUSGEZOGEN
 10
1067
 20
412.34
 30
0
 11
1067
 21
415.66
 31
0
  0
LINE
  5
38C
100
AcDbEntity
  8
200
100
AcDbLine
370
-1
  6
AUSGEZOGEN
 10
1064.66
 20
410
 30
0
 11
1067
 21
412.34
 31
0
  0
LINE
  5
38D
100
AcDbEntity
  8
200
100
AcDbLine
370
-1
  6
AUSGEZOGEN
 10
1054.34
 20
410
 30
0
 11
1064.66
 21
410
 31
0
  0
LINE
  5
38E
100
AcDbEntity
  8
200
100
AcDbLine
370
-1
  6
AUSGEZOGEN
 10
1052
 20
412.34
 30
0
 11
1054.34
 21
410
 31
0
  0
LINE
  5
38F
100
AcDbEntity
  8
200
100
AcDbLine
370
-1
  6
AUSGEZOGEN
 10
1054.34
 20
418
 30
0
 11
1052
 21
415.66
 31
0
  0
LINE
  5
390
100
AcDbEntity
  8
200
100
AcDbLine
370
-1
  6
AUSGEZOGEN
 10
1052
 20
412.34
 30
0
 11
1052
 21
415.66
 31
0
  0
LINE
  5
391
100
AcDbEntity
  8
200
100
AcDbLine
370
-1
  6
AUSGEZOGEN
 10
1064.66
 20
418
 30
0
 11
1054.34
 21
418
 31
0
  0
LINE
  5
392
100
AcDbEntity
  8
200
100
AcDbLine
370
-1
  6
AUSGEZOGEN
 10
1067
 20
387.66
 30
0
 11
1064.66
 21
390
 31
0
  0
LINE
  5
393
100
AcDbEntity
  8
200
100
AcDbLine
370
-1
  6
AUSGEZOGEN
 10
1067
 20
384.34
 30
0
 11
1067
 21
387.66
 31
0
  0
LINE
  5
394
100
AcDbEntity
  8
200
100
AcDbLine
370
-1
  6
AUSGEZOGEN
 10
1064.66
 20
382
 30
0
 11
1067
 21
384.34
 31
0
  0
LINE
  5
395
100
AcDbEntity
  8
200
100
AcDbLine
370
-1
  6
AUSGEZOGEN
 10
1054.34
 20
382
 30
0
 11
1064.66
 21
382
 31
0
  0
LINE
  5
396
100
AcDbEntity
  8
200
100
AcDbLine
370
-1
  6
AUSGEZOGEN
 10
1052
 20
384.34
 30
0
 11
1054.34
 21
382
 31
0
  0
LINE
  5
397
100
AcDbEntity
  8
200
100
AcDbLine
370
-1
  6
AUSGEZOGEN
 10
1054.34
 20
390
 30
0
 11
1052
 21
387.66
 31
0
  0
LINE
  5
398
100
AcDbEntity
  8
200
100
AcDbLine
370
-1
  6
AUSGEZOGEN
 10
1052
 20
384.34
 30
0
 11
1052
 21
387.66
 31
0
  0
LINE
  5
399
100
AcDbEntity
  8
200
100
AcDbLine
370
-1
  6
AUSGEZOGEN
 10
1064.66
 20
390
 30
0
 11
1054.34
 21
390
 31
0
  0
LINE
  5
39A
100
AcDbEntity
  8
200
100
AcDbLine
370
-1
  6
AUSGEZOGEN
 10
1092
 20
415.66
 30
0
 11
1089.66
 21
418
 31
0
  0
LINE
  5
39B
100
AcDbEntity
  8
200
100
AcDbLine
370
-1
  6
AUSGEZOGEN
 10
1092
 20
412.34
 30
0
 11
1092
 21
415.66
 31
0
  0
LINE
  5
39C
100
AcDbEntity
  8
200
100
AcDbLine
370
-1
  6
AUSGEZOGEN
 10
1089.66
 20
410
 30
0
 11
1092
 21
412.34
 31
0
  0
LINE
  5
39D
100
AcDbEntity
  8
200
100
AcDbLine
370
-1
  6
AUSGEZOGEN
 10
1079.34
 20
410
 30
0
 11
1089.66
 21
410
 31
0
  0
LINE
  5
39E
100
AcDbEntity
  8
200
100
AcDbLine
370
-1
  6
AUSGEZOGEN
 10
1077
 20
412.34
 30
0
 11
1079.34
 21
410
 31
0
  0
LINE
  5
39F
100
AcDbEntity
  8
200
100
AcDbLine
370
-1
  6
AUSGEZOGEN
 10
1079.34
 20
418
 30
0
 11
1077
 21
415.66
 31
0
  0
LINE
  5
3A0
100
AcDbEntity
  8
200
100
AcDbLine
370
-1
  6
AUSGEZOGEN
 10
1077
 20
412.34
 30
0
 11
1077
 21
415.66
 31
0
  0
LINE
  5
3A1
100
AcDbEntity
  8
200
100
AcDbLine
370
-1
  6
AUSGEZOGEN
 10
1089.66
 20
418
 30
0
 11
1079.34
 21
418
 31
0
  0
LINE
  5
3A2
100
AcDbEntity
  8
200
100
AcDbLine
370
-1
  6
AUSGEZOGEN
 10
1092
 20
387.66
 30
0
 11
1089.66
 21
390
 31
0
  0
LINE
  5
3A3
100
AcDbEntity
  8
200
100
AcDbLine
370
-1
  6
AUSGEZOGEN
 10
1092
 20
384.34
 30
0
 11
1092
 21
387.66
 31
0
  0
LINE
  5
3A4
100
AcDbEntity
  8
200
100
AcDbLine
370
-1
  6
AUSGEZOGEN
 10
1089.66
 20
382
 30
0
 11
1092
 21
384.34
 31
0
  0
LINE
  5
3A5
100
AcDbEntity
  8
200
100
AcDbLine
370
-1
  6
AUSGEZOGEN
 10
1079.34
 20
382
 30
0
 11
1089.66
 21
382
 31
0
  0
LINE
  5
3A6
100
AcDbEntity
  8
200
100
AcDbLine
370
-1
  6
AUSGEZOGEN
 10
1077
 20
384.34
 30
0
 11
1079.34
 21
382
 31
0
  0
LINE
  5
3A7
100
AcDbEntity
  8
200
100
AcDbLine
370
-1
  6
AUSGEZOGEN
 10
1079.34
 20
390
 30
0
 11
1077
 21
387.66
 31
0
  0
LINE
  5
3A8
100
AcDbEntity
  8
200
100
AcDbLine
370
-1
  6
AUSGEZOGEN
 10
1077
 20
384.34
 30
0
 11
1077
 21
387.66
 31
0
  0
LINE
  5
3A9
100
AcDbEntity
  8
200
100
AcDbLine
370
-1
  6
AUSGEZOGEN
 10
1089.66
 20
390
 30
0
 11
1079.34
 21
390
 31
0
  0
LINE
  5
3AA
100
AcDbEntity
  8
200
100
AcDbLine
370
-1
  6
AUSGEZOGEN
 10
1117
 20
415.66
 30
0
 11
1114.66
 21
418
 31
0
  0
LINE
  5
3AB
100
AcDbEntity
  8
200
100
AcDbLine
370
-1
  6
AUSGEZOGEN
 10
1117
 20
412.34
 30
0
 11
1117
 21
415.66
 31
0
  0
LINE
  5
3AC
100
AcDbEntity
  8
200
100
AcDbLine
370
-1
  6
AUSGEZOGEN
 10
1114.66
 20
410
 30
0
 11
1117
 21
412.34
 31
0
  0
LINE
  5
3AD
100
AcDbEntity
  8
200
100
AcDbLine
370
-1
  6
AUSGEZOGEN
 10
1104.34
 20
410
 30
0
 11
1114.66
 21
410
 31
0
  0
LINE
  5
3AE
100
AcDbEntity
  8
200
100
AcDbLine
370
-1
  6
AUSGEZOGEN
 10
1102
 20
412.34
 30
0
 11
1104.34
 21
410
 31
0
  0
LINE
  5
3AF
100
AcDbEntity
  8
200
100
AcDbLine
370
-1
  6
AUSGEZOGEN
 10
1104.34
 20
418
 30
0
 11
1102
 21
415.66
 31
0
  0
LINE
  5
3B0
100
AcDbEntity
  8
200
100
AcDbLine
370
-1
  6
AUSGEZOGEN
 10
1102
 20
412.34
 30
0
 11
1102
 21
415.66
 31
0
  0
LINE
  5
3B1
100
AcDbEntity
  8
200
100
AcDbLine
370
-1
  6
AUSGEZOGEN
 10
1114.66
 20
418
 30
0
 11
1104.34
 21
418
 31
0
  0
LINE
  5
3B2
100
AcDbEntity
  8
200
100
AcDbLine
370
-1
  6
AUSGEZOGEN
 10
1117
 20
387.66
 30
0
 11
1114.66
 21
390
 31
0
  0
LINE
  5
3B3
100
AcDbEntity
  8
200
100
AcDbLine
370
-1
  6
AUSGEZOGEN
 10
1117
 20
384.34
 30
0
 11
1117
 21
387.66
 31
0
  0
LINE
  5
3B4
100
AcDbEntity
  8
200
100
AcDbLine
370
-1
  6
AUSGEZOGEN
 10
1114.66
 20
382
 30
0
 11
1117
 21
384.34
 31
0
  0
LINE
  5
3B5
100
AcDbEntity
  8
200
100
AcDbLine
370
-1
  6
AUSGEZOGEN
 10
1104.34
 20
382
 30
0
 11
1114.66
 21
382
 31
0
  0
LINE
  5
3B6
100
AcDbEntity
  8
200
100
AcDbLine
370
-1
  6
AUSGEZOGEN
 10
1102
 20
384.34
 30
0
 11
1104.34
 21
382
 31
0
  0
LINE
  5
3B7
100
AcDbEntity
  8
200
100
AcDbLine
370
-1
  6
AUSGEZOGEN
 10
1104.34
 20
390
 30
0
 11
1102
 21
387.66
 31
0
  0
LINE
  5
3B8
100
AcDbEntity
  8
200
100
AcDbLine
370
-1
  6
AUSGEZOGEN
 10
1102
 20
384.34
 30
0
 11
1102
 21
387.66
 31
0
  0
LINE
  5
3B9
100
AcDbEntity
  8
200
100
AcDbLine
370
-1
  6
AUSGEZOGEN
 10
1114.66
 20
390
 30
0
 11
1104.34
 21
390
 31
0
  0
LINE
  5
3BA
100
AcDbEntity
  8
200
100
AcDbLine
370
-1
  6
AUSGEZOGEN
 10
952.66
 20
404
 30
0
 11
955
 21
401.66
 31
0
  0
LINE
  5
3BB
100
AcDbEntity
  8
200
100
AcDbLine
370
-1
  6
AUSGEZOGEN
 10
955
 20
398.34
 30
0
 11
955
 21
401.66
 31
0
  0
LINE
  5
3BC
100
AcDbEntity
  8
200
100
AcDbLine
370
-1
  6
AUSGEZOGEN
 10
952.66
 20
396
 30
0
 11
955
 21
398.34
 31
0
  0
LINE
  5
3BD
100
AcDbEntity
  8
200
100
AcDbLine
370
-1
  6
AUSGEZOGEN
 10
942.34
 20
396
 30
0
 11
952.66
 21
396
 31
0
  0
LINE
  5
3BE
100
AcDbEntity
  8
200
100
AcDbLine
370
-1
  6
AUSGEZOGEN
 10
940
 20
398.34
 30
0
 11
942.34
 21
396
 31
0
  0
LINE
  5
3BF
100
AcDbEntity
  8
200
100
AcDbLine
370
-1
  6
AUSGEZOGEN
 10
942.34
 20
404
 30
0
 11
940
 21
401.66
 31
0
  0
LINE
  5
3C0
100
AcDbEntity
  8
200
100
AcDbLine
370
-1
  6
AUSGEZOGEN
 10
940
 20
398.34
 30
0
 11
940
 21
401.66
 31
0
  0
LINE
  5
3C1
100
AcDbEntity
  8
200
100
AcDbLine
370
-1
  6
AUSGEZOGEN
 10
952.66
 20
404
 30
0
 11
942.34
 21
404
 31
0
  0
LINE
  5
3C2
100
AcDbEntity
  8
200
100
AcDbLine
370
-1
  6
AUSGEZOGEN
 10
980
 20
401.66
 30
0
 11
977.66
 21
404
 31
0
  0
LINE
  5
3C3
100
AcDbEntity
  8
200
100
AcDbLine
370
-1
  6
AUSGEZOGEN
 10
980
 20
398.34
 30
0
 11
980
 21
401.66
 31
0
  0
LINE
  5
3C4
100
AcDbEntity
  8
200
100
AcDbLine
370
-1
  6
AUSGEZOGEN
 10
977.66
 20
396
 30
0
 11
980
 21
398.34
 31
0
  0
LINE
  5
3C5
100
AcDbEntity
  8
200
100
AcDbLine
370
-1
  6
AUSGEZOGEN
 10
967.34
 20
396
 30
0
 11
977.66
 21
396
 31
0
  0
LINE
  5
3C6
100
AcDbEntity
  8
200
100
AcDbLine
370
-1
  6
AUSGEZOGEN
 10
965
 20
398.34
 30
0
 11
967.34
 21
396
 31
0
  0
LINE
  5
3C7
100
AcDbEntity
  8
200
100
AcDbLine
370
-1
  6
AUSGEZOGEN
 10
967.34
 20
404
 30
0
 11
965
 21
401.66
 31
0
  0
LINE
  5
3C8
100
AcDbEntity
  8
200
100
AcDbLine
370
-1
  6
AUSGEZOGEN
 10
965
 20
398.34
 30
0
 11
965
 21
401.66
 31
0
  0
LINE
  5
3C9
100
AcDbEntity
  8
200
100
AcDbLine
370
-1
  6
AUSGEZOGEN
 10
977.66
 20
404
 30
0
 11
967.34
 21
404
 31
0
  0
LINE
  5
3CA
100
AcDbEntity
  8
200
100
AcDbLine
370
-1
  6
AUSGEZOGEN
 10
1005
 20
401.66
 30
0
 11
1002.66
 21
404
 31
0
  0
LINE
  5
3CB
100
AcDbEntity
  8
200
100
AcDbLine
370
-1
  6
AUSGEZOGEN
 10
1005
 20
398.34
 30
0
 11
1005
 21
401.66
 31
0
  0
LINE
  5
3CC
100
AcDbEntity
  8
200
100
AcDbLine
370
-1
  6
AUSGEZOGEN
 10
1002.66
 20
396
 30
0
 11
1005
 21
398.34
 31
0
  0
LINE
  5
3CD
100
AcDbEntity
  8
200
100
AcDbLine
370
-1
  6
AUSGEZOGEN
 10
992.34
 20
396
 30
0
 11
1002.66
 21
396
 31
0
  0
LINE
  5
3CE
100
AcDbEntity
  8
200
100
AcDbLine
370
-1
  6
AUSGEZOGEN
 10
990
 20
398.34
 30
0
 11
992.34
 21
396
 31
0
  0
LINE
  5
3CF
100
AcDbEntity
  8
200
100
AcDbLine
370
-1
  6
AUSGEZOGEN
 10
992.34
 20
404
 30
0
 11
990
 21
401.66
 31
0
  0
LINE
  5
3D0
100
AcDbEntity
  8
200
100
AcDbLine
370
-1
  6
AUSGEZOGEN
 10
990
 20
398.34
 30
0
 11
990
 21
401.66
 31
0
  0
LINE
  5
3D1
100
AcDbEntity
  8
200
100
AcDbLine
370
-1
  6
AUSGEZOGEN
 10
1002.66
 20
404
 30
0
 11
992.34
 21
404
 31
0
  0
LINE
  5
3D2
100
AcDbEntity
  8
200
100
AcDbLine
370
-1
  6
AUSGEZOGEN
 10
1030
 20
401.66
 30
0
 11
1027.66
 21
404
 31
0
  0
LINE
  5
3D3
100
AcDbEntity
  8
200
100
AcDbLine
370
-1
  6
AUSGEZOGEN
 10
1030
 20
398.34
 30
0
 11
1030
 21
401.66
 31
0
  0
LINE
  5
3D4
100
AcDbEntity
  8
200
100
AcDbLine
370
-1
  6
AUSGEZOGEN
 10
1027.66
 20
396
 30
0
 11
1030
 21
398.34
 31
0
  0
LINE
  5
3D5
100
AcDbEntity
  8
200
100
AcDbLine
370
-1
  6
AUSGEZOGEN
 10
1017.34
 20
396
 30
0
 11
1027.66
 21
396
 31
0
  0
LINE
  5
3D6
100
AcDbEntity
  8
200
100
AcDbLine
370
-1
  6
AUSGEZOGEN
 10
1015
 20
398.34
 30
0
 11
1017.34
 21
396
 31
0
  0
LINE
  5
3D7
100
AcDbEntity
  8
200
100
AcDbLine
370
-1
  6
AUSGEZOGEN
 10
1017.34
 20
404
 30
0
 11
1015
 21
401.66
 31
0
  0
LINE
  5
3D8
100
AcDbEntity
  8
200
100
AcDbLine
370
-1
  6
AUSGEZOGEN
 10
1015
 20
398.34
 30
0
 11
1015
 21
401.66
 31
0
  0
LINE
  5
3D9
100
AcDbEntity
  8
200
100
AcDbLine
370
-1
  6
AUSGEZOGEN
 10
1027.66
 20
404
 30
0
 11
1017.34
 21
404
 31
0
  0
LINE
  5
3DA
100
AcDbEntity
  8
200
100
AcDbLine
370
-1
  6
AUSGEZOGEN
 10
1055
 20
401.66
 30
0
 11
1052.66
 21
404
 31
0
  0
LINE
  5
3DB
100
AcDbEntity
  8
200
100
AcDbLine
370
-1
  6
AUSGEZOGEN
 10
1055
 20
398.34
 30
0
 11
1055
 21
401.66
 31
0
  0
LINE
  5
3DC
100
AcDbEntity
  8
200
100
AcDbLine
370
-1
  6
AUSGEZOGEN
 10
1052.66
 20
396
 30
0
 11
1055
 21
398.34
 31
0
  0
LINE
  5
3DD
100
AcDbEntity
  8
200
100
AcDbLine
370
-1
  6
AUSGEZOGEN
 10
1042.34
 20
396
 30
0
 11
1052.66
 21
396
 31
0
  0
LINE
  5
3DE
100
AcDbEntity
  8
200
100
AcDbLine
370
-1
  6
AUSGEZOGEN
 10
1040
 20
398.34
 30
0
 11
1042.34
 21
396
 31
0
  0
LINE
  5
3DF
100
AcDbEntity
  8
200
100
AcDbLine
370
-1
  6
AUSGEZOGEN
 10
1042.34
 20
404
 30
0
 11
1040
 21
401.66
 31
0
  0
LINE
  5
3E0
100
AcDbEntity
  8
200
100
AcDbLine
370
-1
  6
AUSGEZOGEN
 10
1040
 20
398.34
 30
0
 11
1040
 21
401.66
 31
0
  0
LINE
  5
3E1
100
AcDbEntity
  8
200
100
AcDbLine
370
-1
  6
AUSGEZOGEN
 10
1052.66
 20
404
 30
0
 11
1042.34
 21
404
 31
0
  0
LINE
  5
3E2
100
AcDbEntity
  8
200
100
AcDbLine
370
-1
  6
AUSGEZOGEN
 10
1080
 20
401.66
 30
0
 11
1077.66
 21
404
 31
0
  0
LINE
  5
3E3
100
AcDbEntity
  8
200
100
AcDbLine
370
-1
  6
AUSGEZOGEN
 10
1080
 20
398.34
 30
0
 11
1080
 21
401.66
 31
0
  0
LINE
  5
3E4
100
AcDbEntity
  8
200
100
AcDbLine
370
-1
  6
AUSGEZOGEN
 10
1077.66
 20
396
 30
0
 11
1080
 21
398.34
 31
0
  0
LINE
  5
3E5
100
AcDbEntity
  8
200
100
AcDbLine
370
-1
  6
AUSGEZOGEN
 10
1067.34
 20
396
 30
0
 11
1077.66
 21
396
 31
0
  0
LINE
  5
3E6
100
AcDbEntity
  8
200
100
AcDbLine
370
-1
  6
AUSGEZOGEN
 10
1065
 20
398.34
 30
0
 11
1067.34
 21
396
 31
0
  0
LINE
  5
3E7
100
AcDbEntity
  8
200
100
AcDbLine
370
-1
  6
AUSGEZOGEN
 10
1067.34
 20
404
 30
0
 11
1065
 21
401.66
 31
0
  0
LINE
  5
3E8
100
AcDbEntity
  8
200
100
AcDbLine
370
-1
  6
AUSGEZOGEN
 10
1065
 20
398.34
 30
0
 11
1065
 21
401.66
 31
0
  0
LINE
  5
3E9
100
AcDbEntity
  8
200
100
AcDbLine
370
-1
  6
AUSGEZOGEN
 10
1077.66
 20
404
 30
0
 11
1067.34
 21
404
 31
0
  0
LINE
  5
3EA
100
AcDbEntity
  8
200
100
AcDbLine
370
-1
  6
AUSGEZOGEN
 10
1105
 20
401.66
 30
0
 11
1102.66
 21
404
 31
0
  0
LINE
  5
3EB
100
AcDbEntity
  8
200
100
AcDbLine
370
-1
  6
AUSGEZOGEN
 10
1105
 20
398.34
 30
0
 11
1105
 21
401.66
 31
0
  0
LINE
  5
3EC
100
AcDbEntity
  8
200
100
AcDbLine
370
-1
  6
AUSGEZOGEN
 10
1102.66
 20
396
 30
0
 11
1105
 21
398.34
 31
0
  0
LINE
  5
3ED
100
AcDbEntity
  8
200
100
AcDbLine
370
-1
  6
AUSGEZOGEN
 10
1092.34
 20
396
 30
0
 11
1102.66
 21
396
 31
0
  0
LINE
  5
3EE
100
AcDbEntity
  8
200
100
AcDbLine
370
-1
  6
AUSGEZOGEN
 10
1090
 20
398.34
 30
0
 11
1092.34
 21
396
 31
0
  0
LINE
  5
3EF
100
AcDbEntity
  8
200
100
AcDbLine
370
-1
  6
AUSGEZOGEN
 10
1092.34
 20
404
 30
0
 11
1090
 21
401.66
 31
0
  0
LINE
  5
3F0
100
AcDbEntity
  8
200
100
AcDbLine
370
-1
  6
AUSGEZOGEN
 10
1090
 20
398.34
 30
0
 11
1090
 21
401.66
 31
0
  0
LINE
  5
3F1
100
AcDbEntity
  8
200
100
AcDbLine
370
-1
  6
AUSGEZOGEN
 10
1102.66
 20
404
 30
0
 11
1092.34
 21
404
 31
0
  0
LINE
  5
3F2
100
AcDbEntity
  8
200
100
AcDbLine
370
-1
  6
AUSGEZOGEN
 10
1130
 20
401.66
 30
0
 11
1127.66
 21
404
 31
0
  0
LINE
  5
3F3
100
AcDbEntity
  8
200
100
AcDbLine
370
-1
  6
AUSGEZOGEN
 10
1130
 20
398.34
 30
0
 11
1130
 21
401.66
 31
0
  0
LINE
  5
3F4
100
AcDbEntity
  8
200
100
AcDbLine
370
-1
  6
AUSGEZOGEN
 10
1127.66
 20
396
 30
0
 11
1130
 21
398.34
 31
0
  0
LINE
  5
3F5
100
AcDbEntity
  8
200
100
AcDbLine
370
-1
  6
AUSGEZOGEN
 10
1117.34
 20
396
 30
0
 11
1127.66
 21
396
 31
0
  0
LINE
  5
3F6
100
AcDbEntity
  8
200
100
AcDbLine
370
-1
  6
AUSGEZOGEN
 10
1115
 20
398.34
 30
0
 11
1117.34
 21
396
 31
0
  0
LINE
  5
3F7
100
AcDbEntity
  8
200
100
AcDbLine
370
-1
  6
AUSGEZOGEN
 10
1117.34
 20
404
 30
0
 11
1115
 21
401.66
 31
0
  0
LINE
  5
3F8
100
AcDbEntity
  8
200
100
AcDbLine
370
-1
  6
AUSGEZOGEN
 10
1115
 20
398.34
 30
0
 11
1115
 21
401.66
 31
0
  0
LINE
  5
3F9
100
AcDbEntity
  8
200
100
AcDbLine
370
-1
  6
AUSGEZOGEN
 10
1127.66
 20
404
 30
0
 11
1117.34
 21
404
 31
0
  0
ATTDEF
  5
3FB
100
AcDbEntity
  8
0
100
AcDbText
370
-1
 10
0
 20
0
 30
0
 40
1
  1

 50
0
 41
1
 51
0
  7
STANDARD
 71
0
 72
0
 11
0
 21
0
 31
0
100
AcDbAttributeDefinition
  3

  2

 70
0
 74
0
1001
AcDbAttr
1070
0
1070
0
  0
ENDBLK
  5
418
100
AcDbEntity
  8
0
100
AcDbBlockEnd
  0
BLOCK
  5
401
100
AcDbEntity
  8
400
100
AcDbBlockBegin
  2
INST_BLOCK_00001
 70
2
 10
0
 20
0
 30
0
  3
INST_BLOCK_00001
  1

  0
CIRCLE
  5
20
100
AcDbEntity
  8
400
100
AcDbCircle
370
-1
  6
AUSGEZOGEN
 10
75
 20
75
 30
0
 40
50
  0
LINE
  5
21
100
AcDbEntity
  8
400
100
AcDbLine
370
-1
  6
AUSGEZOGEN
 10
0
 20
75
 30
0
 11
75
 21
75
 31
0
  0
LINE
  5
22
100
AcDbEntity
  8
400
100
AcDbLine
370
-1
  6
AUSGEZOGEN
 10
150
 20
75
 30
0
 11
75
 21
75
 31
0
  0
LINE
  5
23
100
AcDbEntity
  8
400
100
AcDbLine
370
-1
  6
AUSGEZOGEN
 10
75
 20
0
 30
0
 11
75
 21
75
 31
0
  0
LINE
  5
24
100
AcDbEntity
  8
400
100
AcDbLine
370
-1
  6
AUSGEZOGEN
 10
75
 20
150
 30
0
 11
75
 21
75
 31
0
  0
ATTDEF
  5
400
100
AcDbEntity
  8
0
100
AcDbText
370
-1
 10
0
 20
0
 30
0
 40
1
  1

 50
0
 41
1
 51
0
  7
STANDARD
 71
0
 72
0
 11
0
 21
0
 31
0
100
AcDbAttributeDefinition
  3

  2

 70
0
 74
0
1001
AcDbAttr
1070
0
1070
0
  0
ENDBLK
  5
419
100
AcDbEntity
  8
0
100
AcDbBlockEnd
  0
ENDSEC
  0
SECTION
  2
ENTITIES
  0
LINE
  5
1C
100
AcDbEntity
  8
400
100
AcDbLine
370
-1
  6
AUSGEZOGEN
 10
75
 20
75
 30
0
 11
1533.5
 21
341.5
 31
0
  0
LINE
  5
1F
100
AcDbEntity
  8
400
100
AcDbLine
370
-1
  6
AUSGEZOGEN
 10
2064.64
 20
341.5
 30
0
 11
1533.5
 21
341.5
 31
0
  0
TEXT
  5
3FA
100
AcDbEntity
  8
400
100
AcDbText
370
-1
 10
1547
 20
355
 30
0
 40
45
  1
EZ: 230V 50Hz 0,48kW
 50
0
 41
0.600000023841858
 51
0
  7
STANDARD
 71
0
 72
0
 11
0
 21
0
 31
0
100
AcDbText
 73
0
  0
INSERT
  5
3FF
100
AcDbEntity
  8
200
100
AcDbBlockReference
370
-1
  6
BYLAYER
 66
1
  2
GER_BLOCK_00001
 10
0
 20
0
 30
0
 41
1
 42
1
 43
1
  0
ATTRIB
  5
3FE
100
AcDbEntity
  8
0
100
AcDbText
370
-1
 10
0
 20
0
 30
0
 40
20
  1

 50
0
 41
1
 51
0
  7
STANDARD
 71
0
 72
0
 11
0
 21
0
 31
0
100
AcDbAttribute
  2

 70
0
 74
0
1001
AcDbAttr
1070
0
1070
0
  0
SEQEND
  5
41A
100
AcDbEntity
  8
0
  0
INSERT
  5
404
100
AcDbEntity
  8
400
100
AcDbBlockReference
370
-1
  6
BYLAYER
 66
1
  2
INST_BLOCK_00001
 10
0
 20
0
 30
0
 41
1
 42
1
 43
1
  0
ATTRIB
  5
403
100
AcDbEntity
  8
0
100
AcDbText
370
-1
 10
0
 20
0
 30
0
 40
20
  1

 50
0
 41
1
 51
0
  7
STANDARD
 71
0
 72
0
 11
0
 21
0
 31
0
100
AcDbAttribute
  2

 70
0
 74
0
1001
AcDbAttr
1070
0
1070
0
  0
SEQEND
  5
41B
100
AcDbEntity
  8
0
  0
ATTDEF
  5
405
100
AcDbEntity
  8
550
100
AcDbText
370
-1
 10
10
 20
100
 30
0
 40
30
  1

 50
0
 41
1
 51
0
  7
STANDARD
 71
0
 72
0
 11
0
 21
0
 31
0
100
AcDbAttributeDefinition
  3
KBS-91100112
  2
KBS-91100112
 70
1
 74
0
1001
AcDbAttr
1070
0
1070
0
  0
TEXT
  5
406
100
AcDbEntity
  8
510
100
AcDbText
370
-1
 10
10
 20
-45
 30
0
 40
30
  1

 50
0
 41
1
 51
0
  7
STANDARD
 71
0
 72
0
 11
0
 21
0
 31
0
100
AcDbText
 73
0
  0
ENDSEC
  0
SECTION
  2
OBJECTS
  0
DICTIONARY
  5
41C
100
AcDbDictionary
  3
ACAD_GROUP
350
41D
  3
ACAD_MATERIAL
350
41E
  3
ACAD_WIPEOUT_VARS
350
41F
  3
ACAD_MLINESTYLE
350
420
  3
ACAD_LAYOUT
350
421
  0
DICTIONARY
  5
41D
330
41C
100
AcDbDictionary
  0
DICTIONARY
  5
41E
330
41C
100
AcDbDictionary
  0
WIPEOUTVARIABLES
  5
41F
330
41C
100
AcDbWipeoutVariables
 70
1
  0
DICTIONARY
  5
420
330
41C
100
AcDbDictionary
  3
STANDARD
350
422
  0
MLINESTYLE
  5
422
100
AcDbMlineStyle
  2
STANDARD
 70
0
  3

 62
256
 51
90
 52
90
 71
2
 49
0.5
 62
256
  6
ByLayer
 49
-0.5
 62
256
  6
ByLayer
  0
DICTIONARY
  5
421
100
AcDbDictionary
281
1
  3
Model
350
407
  0
LAYOUT
  5
407
102
{ACAD_REACTORS
330
421
102
}
330
421
100
AcDbPlotSettings
  1

  2
none_device
  4

  6

 40
0
 41
0
 42
0
 43
0
 44
0
 45
0
 46
0
 47
0
 48
0
 49
0
 70
1712
 72
1
 73
0
 74
5
 75
16
 76
0
 77
0
 78
100
140
0
141
0
142
1
143
1
147
1
148
0
149
0
100
AcDbLayout
  1
Model
 70
1
 71
1
 10
0
 20
0
 11
2064.64
 21
475
 12
0
 22
0
 32
0
 14
0
 24
0
 34
0
 15
2064.64
 25
475
 35
0
146
0
 13
0
 23
0
 33
0
 16
1
 26
0
 36
0
 17
0
 27
1
 37
0
 76
0
330
1E
  0
DICTIONARY
  5
423
100
AcDbDictionary
280
1
  3
XINFO
360
424
  0
XRECORD
  5
424
102
{ACAD_REACTORS
330
423
102
}
330
423
100
AcDbXrecord
280
0
310
8F24010003000900
311
B5A4019D9ACD977D
  0
ENDSEC
  0
EOF
