999
     Created by SWS GmbH, Paderborn, Germany, www.sws-online.de
999
     and  Soft Gold Ltd. www.cadsofttools.com
999

999
SWS-intern Ausgabemassstab:
999
   0.0500
999

999
SWS-intern Koordinatenwerte 1:1:
999
1
999

  0
SECTION
  2
HEADER
  9
$ACADVER
  1
AC1018
  9
$DWGCODEPAGE
  3
ANSI_1252
  9
$CLAYER
  8
0
  9
$CELTYPE
  6
BYLAYER
  9
$CELTSCALE
 40
1
  9
$CELWEIGHT
370
-1
  9
$DIMALT
 70
0
  9
$DIMALTF
 40
1
  9
$DIMPOST
  1

  9
$DIMAPOST
  1

  9
$DIMSCALE
 40
1
  9
$DIMASZ
 40
0.18
  9
$DIMCLRD
 70
0
  9
$DIMCLRE
 70
0
  9
$DIMCLRT
 70
0
  9
$DIMEXE
 40
0.18
  9
$DIMEXO
 40
0.0625
  9
$DIMGAP
 40
0.0625
  9
$DIMLFAC
 40
1
  9
$DIMDEC
 70
4
  9
$DIMTAD
 70
0
  9
$DIMCEN
 40
0.09
  9
$DIMTIH
 70
1
  9
$DIMTIX
 70
0
  9
$DIMTOH
 70
1
  9
$DIMSE1
 70
0
  9
$DIMSE2
 70
0
  9
$DIMSD1
 70
0
  9
$DIMSD2
 70
0
  9
$DIMLWD
 70
-1
  9
$DIMLWE
 70
-1
  9
$DIMSAH
 70
0
  9
$DIMBLK
  1

  9
$DIMBLK1
  1

  9
$DIMBLK2
  1

  9
$DIMLDRBLK
  1

  9
$DIMSTYLE
  2
STANDARD
  9
$DIMTP
 40
0
  9
$DIMTM
 40
0
  9
$DIMTXT
 40
0.18
  9
$DIMLUNIT
 70
2
  9
$DIMDSEP
 70
46
  9
$DIMTXSTY
  7
STANDARD
  9
$TEXTSIZE
 40
0.18
  9
$TEXTSTYLE
  7
STANDARD
  9
$HANDSEED
  5
0000000000000401
  9
$FILLETRAD
 40
0.5
  9
$INSUNITS
 70
4
  9
$LIMMIN
 10
-296.86
 20
-146.875
  9
$LIMMAX
 10
2671.74
 20
1321.875
  9
$FILLMODE
 70
1
  9
$LTSCALE
 40
1
  9
$PSLTSCALE
 70
0
  9
$MEASUREMENT
 70
0
  9
$ATTMODE
 70
1
  9
$PDMODE
 70
0
  9
$PDSIZE
 40
0
  9
$TILEMODE
 70
1
  9
$UCSORG
 10
0
 20
0
 30
0
  9
$UCSXDIR
 10
1
 20
0
 30
0
  9
$UCSYDIR
 10
0
 20
1
 30
0
  9
$INSBASE
 10
0
 20
0
 30
0
  9
$XCLIPFRAME
290
1
  9
$DIMASSOC
280
2
  9
$TDCREATE
 40
2459104.65337822
  9
$TDINDWG
 40
1.50462962962963E-7
  9
$TDUPDATE
 40
2459104.65337837
  0
ENDSEC
  0
SECTION
  2
CLASSES
  0
CLASS
  1
IMAGE
  2
AcDbRasterImage
  3
ISM
 90
2175
 91
1
280
0
281
1
  0
CLASS
  1
IMAGEDEF
  2
AcDbRasterImageDef
  3
ISM
 90
0
 91
1
280
0
281
0
  0
CLASS
  1
WIPEOUT
  2
AcDbWipeout
  3
"WipeOut"
 90
2175
 91
1
280
0
281
1
  0
CLASS
  1
WIPEOUTVARIABLES
  2
AcDbWipeoutVariables
  3
"WipeOut"
 90
0
 91
1
280
0
281
0
  0
CLASS
  1
MPOLYGON
  2
AcDbMPolygon
  3
"AcMPolygonObj15"
 90
3071
 91
1
280
0
281
1
  0
ENDSEC
  0
SECTION
  2
TABLES
  0
TABLE
  2
APPID
  5
3E4
100
AcDbSymbolTable
  0
APPID
  5
3E5
100
AcDbSymbolTableRecord
100
AcDbRegAppTableRecord
  2
ACAD
 70
0
  0
APPID
  5
12
100
AcDbSymbolTableRecord
100
AcDbRegAppTableRecord
  2
CSTINVENTORY
 70
0
  0
APPID
  5
3E6
100
AcDbSymbolTableRecord
100
AcDbRegAppTableRecord
  2
AcDbAttr
 70
0
  0
APPID
  5
3E7
100
AcDbSymbolTableRecord
100
AcDbRegAppTableRecord
  2
PE_URL
 70
0
  0
ENDTAB
  0
TABLE
  2
BLOCK_RECORD
  5
3E8
100
AcDbSymbolTable
  0
BLOCK_RECORD
  5
1E
100
AcDbSymbolTableRecord
100
AcDbBlockTableRecord
  2
*MODEL_SPACE
  0
BLOCK_RECORD
  5
3E9
100
AcDbSymbolTableRecord
100
AcDbBlockTableRecord
  2
*PAPER_SPACE
  0
BLOCK_RECORD
  5
10
100
AcDbSymbolTableRecord
100
AcDbBlockTableRecord
  2
_CLOSEDFILLED
  0
BLOCK_RECORD
  5
3D9
100
AcDbSymbolTableRecord
100
AcDbBlockTableRecord
  2
GER_BLOCK_00001
  0
BLOCK_RECORD
  5
3DE
100
AcDbSymbolTableRecord
100
AcDbBlockTableRecord
  2
INST_BLOCK_00001
  0
ENDTAB
  0
TABLE
  2
STYLE
  5
3
100
AcDbSymbolTable
  0
STYLE
  5
A
100
AcDbSymbolTableRecord
100
AcDbTextStyleTableRecord
  2
STANDARD
 70
0
 40
0
 41
1
 50
0
 71
0
 42
30
  3
TXT.SHX
  4

1001
ACAD
1000
txt
1071
0
  0
ENDTAB
  0
TABLE
  2
LTYPE
  5
1
100
AcDbSymbolTable
  0
LTYPE
  5
9
100
AcDbSymbolTableRecord
100
AcDbLinetypeTableRecord
  2
CONTINUOUS
 70
0
  3

 72
65
 73
0
 40
0
  0
LTYPE
  5
7
100
AcDbSymbolTableRecord
100
AcDbLinetypeTableRecord
  2
BYLAYER
 70
0
  3

 72
65
 73
0
 40
0
  0
LTYPE
  5
8
100
AcDbSymbolTableRecord
100
AcDbLinetypeTableRecord
  2
BYBLOCK
 70
0
  3

 72
65
 73
0
 40
0
  0
LTYPE
  5
13
100
AcDbSymbolTableRecord
100
AcDbLinetypeTableRecord
  2
AUSGEZOGEN
 70
0
  3
.
 72
65
 73
1
 40
0
 49
0
 74
0
  0
LTYPE
  5
14
100
AcDbSymbolTableRecord
100
AcDbLinetypeTableRecord
  2
PUNKTIERT
 70
0
  3
. 
 72
65
 73
2
 40
30
 49
0
 74
0
 49
-30
 74
0
  0
LTYPE
  5
15
100
AcDbSymbolTableRecord
100
AcDbLinetypeTableRecord
  2
GESTRICHELT
 70
0
  3
_ 
 72
65
 73
2
 40
80
 49
50
 74
0
 49
-30
 74
0
  0
LTYPE
  5
16
100
AcDbSymbolTableRecord
100
AcDbLinetypeTableRecord
  2
STRICHPUNKT
 70
0
  3
_ . 
 72
65
 73
4
 40
160
 49
100
 74
0
 49
-30
 74
0
 49
0
 74
0
 49
-30
 74
0
  0
LTYPE
  5
17
100
AcDbSymbolTableRecord
100
AcDbLinetypeTableRecord
  2
GETRENNT
 70
0
  3
_ . . 
 72
65
 73
6
 40
190
 49
100
 74
0
 49
-30
 74
0
 49
0
 74
0
 49
-30
 74
0
 49
0
 74
0
 49
-30
 74
0
  0
ENDTAB
  0
TABLE
  2
LAYER
  5
2
100
AcDbSymbolTable
  0
LAYER
  5
E
100
AcDbSymbolTableRecord
100
AcDbLayerTableRecord
  2
0
 70
0
 62
1
420
16711680
  6
AUSGEZOGEN
290
1
370
-3
390
0
  0
LAYER
  5
18
100
AcDbSymbolTableRecord
100
AcDbLayerTableRecord
  2
550
 70
0
 62
2
420
16776960
  6
AUSGEZOGEN
290
1
370
-3
390
0
  0
LAYER
  5
19
100
AcDbSymbolTableRecord
100
AcDbLayerTableRecord
  2
510
 70
0
 62
2
420
16776960
  6
AUSGEZOGEN
290
1
370
-3
390
0
  0
LAYER
  5
1A
100
AcDbSymbolTableRecord
100
AcDbLayerTableRecord
  2
200
 70
0
 62
7
  6
AUSGEZOGEN
290
1
370
-3
390
0
  0
LAYER
  5
1B
100
AcDbSymbolTableRecord
100
AcDbLayerTableRecord
  2
400
 70
0
 62
4
420
65535
  6
AUSGEZOGEN
290
1
370
-3
390
0
  0
ENDTAB
  0
TABLE
  2
VPORT
  5
3EA
100
AcDbSymbolTable
  0
VPORT
  5
3EC
100
AcDbSymbolTableRecord
100
AcDbViewportTableRecord
  2
*ACTIVE
 70
0
 10
0
 20
0
 11
1
 21
1
 12
1187.44
 22
587.5
 32
0
 13
0
 23
0
 14
1
 24
1
 15
1
 25
1
 16
0
 26
0
 36
1
 17
0
 27
0
 37
0
 40
1175
 41
2.02117446808511
 42
50
 43
0
 44
0
 50
0
 51
0
 71
0
 72
100
 73
1
 74
1
 75
0
 76
0
 77
0
 78
0
  0
ENDTAB
  0
TABLE
  2
VIEW
  5
3ED
100
AcDbSymbolTable
  0
ENDTAB
  0
TABLE
  2
UCS
  5
3EE
100
AcDbSymbolTable
  0
ENDTAB
  0
TABLE
  2
DIMSTYLE
  5
4
100
AcDbSymbolTable
 70
1
100
AcDbDimStyleTable
 71
0
  0
DIMSTYLE
105
B
100
AcDbSymbolTableRecord
100
AcDbDimStyleTableRecord
  2
STANDARD
 70
0
  3

 40
1
 41
0.18
 42
0.0625
 44
0.18
 47
0
 48
0
 73
1
 74
1
 75
0
 76
0
 77
0
140
0.18
141
0.09
144
1
147
0.0625
173
0
174
0
176
0
177
0
178
0
277
2
278
46
281
0
282
0
271
4
340
A
371
-1
372
-1
  0
ENDTAB
  0
ENDSEC
  0
SECTION
  2
BLOCKS
  0
BLOCK
  5
3EF
100
AcDbEntity
  8
0
100
AcDbBlockBegin
  2
*MODEL_SPACE
 70
0
 10
0
 20
0
  0
ENDBLK
  5
3F0
100
AcDbEntity
  8
0
100
AcDbBlockEnd
  0
BLOCK
  5
3F1
100
AcDbEntity
  8
0
100
AcDbBlockBegin
  2
*PAPER_SPACE
 70
0
 10
0
 20
0
  0
ENDBLK
  5
3F2
100
AcDbEntity
  8
0
100
AcDbBlockEnd
  0
BLOCK
  5
F
100
AcDbEntity
  8
0
100
AcDbBlockBegin
  2
_CLOSEDFILLED
 70
0
 10
0
 20
0
 30
0
  3
_CLOSEDFILLED
  1

  0
SOLID
  5
C
100
AcDbEntity
  8
0
100
AcDbTrace
370
-2
 62
0
 10
-1
 20
0.166666666666667
 30
0
 11
0
 21
0
 31
0
 12
-1
 22
0.166666666666667
 32
0
 13
-1
 23
-0.166666666666667
 33
0
  0
LINE
  5
D
100
AcDbEntity
  8
0
100
AcDbLine
370
-2
 62
0
 10
-1
 20
0
 30
0
 11
-2
 21
0
 31
0
  0
ENDBLK
  5
3F3
100
AcDbEntity
  8
0
100
AcDbBlockEnd
  0
BLOCK
  5
3D8
100
AcDbEntity
  8
200
100
AcDbBlockBegin
  2
GER_BLOCK_00001
 70
2
 10
0
 20
0
 30
0
  3
GER_BLOCK_00001
  1

  0
LINE
  5
25
100
AcDbEntity
  8
200
100
AcDbLine
370
-1
  6
AUSGEZOGEN
 10
14
 20
240
 30
0
 11
15
 21
240
 31
0
  0
LINE
  5
26
100
AcDbEntity
  8
200
100
AcDbLine
370
-1
  6
AUSGEZOGEN
 10
1151
 20
240
 30
0
 11
1150
 21
240
 31
0
  0
LINE
  5
27
100
AcDbEntity
  8
200
100
AcDbLine
370
-1
  6
AUSGEZOGEN
 10
1500
 20
15
 30
0
 11
1500
 21
240
 31
0
  0
LINE
  5
28
100
AcDbEntity
  8
200
100
AcDbLine
370
-1
  6
AUSGEZOGEN
 10
10
 20
199
 30
0
 11
1490
 21
199
 31
0
  0
LINE
  5
29
100
AcDbEntity
  8
200
100
AcDbLine
370
-1
  6
AUSGEZOGEN
 10
11
 20
220
 30
0
 11
10
 21
220
 31
0
  0
LINE
  5
2A
100
AcDbEntity
  8
200
100
AcDbLine
370
-1
  6
AUSGEZOGEN
 10
15
 20
220
 30
0
 11
14
 21
220
 31
0
  0
LINE
  5
2B
100
AcDbEntity
  8
200
100
AcDbLine
370
-1
  6
AUSGEZOGEN
 10
1151
 20
220
 30
0
 11
1150
 21
220
 31
0
  0
LINE
  5
2C
100
AcDbEntity
  8
200
100
AcDbLine
370
-1
  6
AUSGEZOGEN
 10
1155
 20
220
 30
0
 11
1154
 21
220
 31
0
  0
LINE
  5
2D
100
AcDbEntity
  8
200
100
AcDbLine
370
-1
  6
AUSGEZOGEN
 10
1490
 20
220
 30
0
 11
1480
 21
220
 31
0
  0
LINE
  5
2E
100
AcDbEntity
  8
200
100
AcDbLine
370
-1
  6
AUSGEZOGEN
 10
1490
 20
15
 30
0
 11
1490
 21
240
 31
0
  0
LINE
  5
2F
100
AcDbEntity
  8
200
100
AcDbLine
370
-1
  6
AUSGEZOGEN
 10
0
 20
68
 30
0
 11
1500
 21
68
 31
0
  0
LINE
  5
30
100
AcDbEntity
  8
200
100
AcDbLine
370
-1
  6
AUSGEZOGEN
 10
0
 20
240
 30
0
 11
0
 21
15
 31
0
  0
LINE
  5
31
100
AcDbEntity
  8
200
100
AcDbLine
370
-1
  6
AUSGEZOGEN
 10
11
 20
240
 30
0
 11
0
 21
240
 31
0
  0
LINE
  5
32
100
AcDbEntity
  8
200
100
AcDbLine
370
-1
  6
AUSGEZOGEN
 10
10
 20
15
 30
0
 11
10
 21
240
 31
0
  0
LINE
  5
33
100
AcDbEntity
  8
200
100
AcDbLine
370
-1
  6
AUSGEZOGEN
 10
1210
 20
153
 30
0
 11
1198
 21
153
 31
0
  0
LINE
  5
34
100
AcDbEntity
  8
200
100
AcDbLine
370
-1
  6
AUSGEZOGEN
 10
1198
 20
173
 30
0
 11
1198
 21
153
 31
0
  0
LINE
  5
35
100
AcDbEntity
  8
200
100
AcDbLine
370
-1
  6
AUSGEZOGEN
 10
1210
 20
153
 30
0
 11
1210
 21
173
 31
0
  0
LINE
  5
36
100
AcDbEntity
  8
200
100
AcDbLine
370
-1
  6
AUSGEZOGEN
 10
1198
 20
173
 30
0
 11
1210
 21
173
 31
0
  0
LINE
  5
37
100
AcDbEntity
  8
200
100
AcDbLine
370
-1
  6
AUSGEZOGEN
 10
1216
 20
148
 30
0
 11
1192
 21
148
 31
0
  0
LINE
  5
38
100
AcDbEntity
  8
200
100
AcDbLine
370
-1
  6
AUSGEZOGEN
 10
1192
 20
178
 30
0
 11
1192
 21
148
 31
0
  0
LINE
  5
39
100
AcDbEntity
  8
200
100
AcDbLine
370
-1
  6
AUSGEZOGEN
 10
1216
 20
148
 30
0
 11
1216
 21
178
 31
0
  0
LINE
  5
3A
100
AcDbEntity
  8
200
100
AcDbLine
370
-1
  6
AUSGEZOGEN
 10
1192
 20
178
 30
0
 11
1216
 21
178
 31
0
  0
LINE
  5
3B
100
AcDbEntity
  8
200
100
AcDbLine
370
-1
  6
AUSGEZOGEN
 10
1235
 20
95
 30
0
 11
1165
 21
95
 31
0
  0
LINE
  5
3C
100
AcDbEntity
  8
200
100
AcDbLine
370
-1
  6
AUSGEZOGEN
 10
1165
 20
125
 30
0
 11
1165
 21
95
 31
0
  0
LINE
  5
3D
100
AcDbEntity
  8
200
100
AcDbLine
370
-1
  6
AUSGEZOGEN
 10
1235
 20
95
 30
0
 11
1235
 21
125
 31
0
  0
LINE
  5
3E
100
AcDbEntity
  8
200
100
AcDbLine
370
-1
  6
AUSGEZOGEN
 10
1165
 20
125
 30
0
 11
1235
 21
125
 31
0
  0
LINE
  5
3F
100
AcDbEntity
  8
200
100
AcDbLine
370
-1
  6
AUSGEZOGEN
 10
1180
 20
100
 30
0
 11
1170
 21
100
 31
0
  0
LINE
  5
40
100
AcDbEntity
  8
200
100
AcDbLine
370
-1
  6
AUSGEZOGEN
 10
1170
 20
120
 30
0
 11
1170
 21
100
 31
0
  0
LINE
  5
41
100
AcDbEntity
  8
200
100
AcDbLine
370
-1
  6
AUSGEZOGEN
 10
1180
 20
100
 30
0
 11
1180
 21
120
 31
0
  0
LINE
  5
42
100
AcDbEntity
  8
200
100
AcDbLine
370
-1
  6
AUSGEZOGEN
 10
1170
 20
120
 30
0
 11
1180
 21
120
 31
0
  0
LINE
  5
43
100
AcDbEntity
  8
200
100
AcDbLine
370
-1
  6
AUSGEZOGEN
 10
1230
 20
100
 30
0
 11
1220
 21
100
 31
0
  0
LINE
  5
44
100
AcDbEntity
  8
200
100
AcDbLine
370
-1
  6
AUSGEZOGEN
 10
1220
 20
120
 30
0
 11
1220
 21
100
 31
0
  0
LINE
  5
45
100
AcDbEntity
  8
200
100
AcDbLine
370
-1
  6
AUSGEZOGEN
 10
1230
 20
100
 30
0
 11
1230
 21
120
 31
0
  0
LINE
  5
46
100
AcDbEntity
  8
200
100
AcDbLine
370
-1
  6
AUSGEZOGEN
 10
1220
 20
120
 30
0
 11
1230
 21
120
 31
0
  0
LINE
  5
47
100
AcDbEntity
  8
200
100
AcDbLine
370
-1
  6
AUSGEZOGEN
 10
1500
 20
240
 30
0
 11
1154
 21
240
 31
0
  0
LINE
  5
48
100
AcDbEntity
  8
200
100
AcDbLine
370
-1
  6
AUSGEZOGEN
 10
1480
 20
202
 30
0
 11
1480
 21
240
 31
0
  0
LINE
  5
49
100
AcDbEntity
  8
200
100
AcDbLine
370
-1
  6
AUSGEZOGEN
 10
1155
 20
202
 30
0
 11
1480
 21
202
 31
0
  0
LINE
  5
4A
100
AcDbEntity
  8
200
100
AcDbLine
370
-1
  6
AUSGEZOGEN
 10
1155
 20
240
 30
0
 11
1155
 21
202
 31
0
  0
LINE
  5
4B
100
AcDbEntity
  8
200
100
AcDbLine
370
-1
  6
AUSGEZOGEN
 10
1273.04
 20
84.55
 30
0
 11
1269.03
 21
83
 31
0
  0
LINE
  5
4C
100
AcDbEntity
  8
200
100
AcDbLine
370
-1
  6
AUSGEZOGEN
 10
1265
 20
84.55
 30
0
 11
1269.03
 21
83
 31
0
  0
LINE
  5
4D
100
AcDbEntity
  8
200
100
AcDbLine
370
-1
  6
AUSGEZOGEN
 10
1269.03
 20
95.41
 30
0
 11
1265
 21
93.86
 31
0
  0
LINE
  5
4E
100
AcDbEntity
  8
200
100
AcDbLine
370
-1
  6
AUSGEZOGEN
 10
1273.04
 20
93.86
 30
0
 11
1269.03
 21
95.41
 31
0
  0
LINE
  5
4F
100
AcDbEntity
  8
200
100
AcDbLine
370
-1
  6
AUSGEZOGEN
 10
1273.04
 20
109.38
 30
0
 11
1273.04
 21
100.07
 31
0
  0
LINE
  5
50
100
AcDbEntity
  8
200
100
AcDbLine
370
-1
  6
AUSGEZOGEN
 10
1269.03
 20
98.52
 30
0
 11
1273.04
 21
100.07
 31
0
  0
LINE
  5
51
100
AcDbEntity
  8
200
100
AcDbLine
370
-1
  6
AUSGEZOGEN
 10
1265
 20
100.07
 30
0
 11
1269.03
 21
98.52
 31
0
  0
LINE
  5
52
100
AcDbEntity
  8
200
100
AcDbLine
370
-1
  6
AUSGEZOGEN
 10
1265
 20
109.38
 30
0
 11
1265
 21
100.07
 31
0
  0
LINE
  5
53
100
AcDbEntity
  8
200
100
AcDbLine
370
-1
  6
AUSGEZOGEN
 10
1269.03
 20
110.93
 30
0
 11
1265
 21
109.38
 31
0
  0
LINE
  5
54
100
AcDbEntity
  8
200
100
AcDbLine
370
-1
  6
AUSGEZOGEN
 10
1273.04
 20
109.38
 30
0
 11
1269.03
 21
110.93
 31
0
  0
LINE
  5
55
100
AcDbEntity
  8
200
100
AcDbLine
370
-1
  6
AUSGEZOGEN
 10
1269.03
 20
119.04
 30
0
 11
1273.04
 21
120.59
 31
0
  0
LINE
  5
56
100
AcDbEntity
  8
200
100
AcDbLine
370
-1
  6
AUSGEZOGEN
 10
1265
 20
120.59
 30
0
 11
1269.03
 21
119.04
 31
0
  0
LINE
  5
57
100
AcDbEntity
  8
200
100
AcDbLine
370
-1
  6
AUSGEZOGEN
 10
1269.03
 20
131.45
 30
0
 11
1265
 21
129.9
 31
0
  0
LINE
  5
58
100
AcDbEntity
  8
200
100
AcDbLine
370
-1
  6
AUSGEZOGEN
 10
1273.04
 20
129.9
 30
0
 11
1269.03
 21
131.45
 31
0
  0
LINE
  5
59
100
AcDbEntity
  8
200
100
AcDbLine
370
-1
  6
AUSGEZOGEN
 10
1273.04
 20
145.41
 30
0
 11
1273.04
 21
136.11
 31
0
  0
LINE
  5
5A
100
AcDbEntity
  8
200
100
AcDbLine
370
-1
  6
AUSGEZOGEN
 10
1269.03
 20
134.55
 30
0
 11
1273.04
 21
136.11
 31
0
  0
LINE
  5
5B
100
AcDbEntity
  8
200
100
AcDbLine
370
-1
  6
AUSGEZOGEN
 10
1265
 20
136.11
 30
0
 11
1269.03
 21
134.55
 31
0
  0
LINE
  5
5C
100
AcDbEntity
  8
200
100
AcDbLine
370
-1
  6
AUSGEZOGEN
 10
1265
 20
145.41
 30
0
 11
1265
 21
136.11
 31
0
  0
LINE
  5
5D
100
AcDbEntity
  8
200
100
AcDbLine
370
-1
  6
AUSGEZOGEN
 10
1269.03
 20
146.96
 30
0
 11
1265
 21
145.41
 31
0
  0
LINE
  5
5E
100
AcDbEntity
  8
200
100
AcDbLine
370
-1
  6
AUSGEZOGEN
 10
1273.04
 20
145.41
 30
0
 11
1269.03
 21
146.96
 31
0
  0
LINE
  5
5F
100
AcDbEntity
  8
200
100
AcDbLine
370
-1
  6
AUSGEZOGEN
 10
1273.04
 20
165.93
 30
0
 11
1273.04
 21
156.62
 31
0
  0
LINE
  5
60
100
AcDbEntity
  8
200
100
AcDbLine
370
-1
  6
AUSGEZOGEN
 10
1269.03
 20
155.07
 30
0
 11
1273.04
 21
156.62
 31
0
  0
LINE
  5
61
100
AcDbEntity
  8
200
100
AcDbLine
370
-1
  6
AUSGEZOGEN
 10
1265
 20
156.62
 30
0
 11
1269.03
 21
155.07
 31
0
  0
LINE
  5
62
100
AcDbEntity
  8
200
100
AcDbLine
370
-1
  6
AUSGEZOGEN
 10
1265
 20
165.93
 30
0
 11
1265
 21
156.62
 31
0
  0
LINE
  5
63
100
AcDbEntity
  8
200
100
AcDbLine
370
-1
  6
AUSGEZOGEN
 10
1269.03
 20
167.49
 30
0
 11
1265
 21
165.93
 31
0
  0
LINE
  5
64
100
AcDbEntity
  8
200
100
AcDbLine
370
-1
  6
AUSGEZOGEN
 10
1273.04
 20
165.93
 30
0
 11
1269.03
 21
167.49
 31
0
  0
LINE
  5
65
100
AcDbEntity
  8
200
100
AcDbLine
370
-1
  6
AUSGEZOGEN
 10
1269.03
 20
170.59
 30
0
 11
1273.04
 21
172.14
 31
0
  0
LINE
  5
66
100
AcDbEntity
  8
200
100
AcDbLine
370
-1
  6
AUSGEZOGEN
 10
1265
 20
172.14
 30
0
 11
1269.03
 21
170.59
 31
0
  0
LINE
  5
67
100
AcDbEntity
  8
200
100
AcDbLine
370
-1
  6
AUSGEZOGEN
 10
1269.03
 20
183
 30
0
 11
1265
 21
181.45
 31
0
  0
LINE
  5
68
100
AcDbEntity
  8
200
100
AcDbLine
370
-1
  6
AUSGEZOGEN
 10
1273.04
 20
181.45
 30
0
 11
1269.03
 21
183
 31
0
  0
LINE
  5
69
100
AcDbEntity
  8
200
100
AcDbLine
370
-1
  6
AUSGEZOGEN
 10
1285.74
 20
84.55
 30
0
 11
1281.71
 21
83
 31
0
  0
LINE
  5
6A
100
AcDbEntity
  8
200
100
AcDbLine
370
-1
  6
AUSGEZOGEN
 10
1277.68
 20
84.55
 30
0
 11
1281.71
 21
83
 31
0
  0
LINE
  5
6B
100
AcDbEntity
  8
200
100
AcDbLine
370
-1
  6
AUSGEZOGEN
 10
1281.71
 20
95.41
 30
0
 11
1277.68
 21
93.86
 31
0
  0
LINE
  5
6C
100
AcDbEntity
  8
200
100
AcDbLine
370
-1
  6
AUSGEZOGEN
 10
1285.74
 20
93.86
 30
0
 11
1281.71
 21
95.41
 31
0
  0
LINE
  5
6D
100
AcDbEntity
  8
200
100
AcDbLine
370
-1
  6
AUSGEZOGEN
 10
1285.74
 20
109.38
 30
0
 11
1285.74
 21
100.07
 31
0
  0
LINE
  5
6E
100
AcDbEntity
  8
200
100
AcDbLine
370
-1
  6
AUSGEZOGEN
 10
1281.71
 20
98.52
 30
0
 11
1285.74
 21
100.07
 31
0
  0
LINE
  5
6F
100
AcDbEntity
  8
200
100
AcDbLine
370
-1
  6
AUSGEZOGEN
 10
1277.68
 20
100.07
 30
0
 11
1281.71
 21
98.52
 31
0
  0
LINE
  5
70
100
AcDbEntity
  8
200
100
AcDbLine
370
-1
  6
AUSGEZOGEN
 10
1277.68
 20
109.38
 30
0
 11
1277.68
 21
100.07
 31
0
  0
LINE
  5
71
100
AcDbEntity
  8
200
100
AcDbLine
370
-1
  6
AUSGEZOGEN
 10
1281.71
 20
110.93
 30
0
 11
1277.68
 21
109.38
 31
0
  0
LINE
  5
72
100
AcDbEntity
  8
200
100
AcDbLine
370
-1
  6
AUSGEZOGEN
 10
1285.74
 20
109.38
 30
0
 11
1281.71
 21
110.93
 31
0
  0
LINE
  5
73
100
AcDbEntity
  8
200
100
AcDbLine
370
-1
  6
AUSGEZOGEN
 10
1281.71
 20
119.04
 30
0
 11
1285.74
 21
120.59
 31
0
  0
LINE
  5
74
100
AcDbEntity
  8
200
100
AcDbLine
370
-1
  6
AUSGEZOGEN
 10
1277.68
 20
120.59
 30
0
 11
1281.71
 21
119.04
 31
0
  0
LINE
  5
75
100
AcDbEntity
  8
200
100
AcDbLine
370
-1
  6
AUSGEZOGEN
 10
1281.71
 20
131.45
 30
0
 11
1277.68
 21
129.9
 31
0
  0
LINE
  5
76
100
AcDbEntity
  8
200
100
AcDbLine
370
-1
  6
AUSGEZOGEN
 10
1285.74
 20
129.9
 30
0
 11
1281.71
 21
131.45
 31
0
  0
LINE
  5
77
100
AcDbEntity
  8
200
100
AcDbLine
370
-1
  6
AUSGEZOGEN
 10
1285.74
 20
145.41
 30
0
 11
1285.74
 21
136.11
 31
0
  0
LINE
  5
78
100
AcDbEntity
  8
200
100
AcDbLine
370
-1
  6
AUSGEZOGEN
 10
1281.71
 20
134.55
 30
0
 11
1285.74
 21
136.11
 31
0
  0
LINE
  5
79
100
AcDbEntity
  8
200
100
AcDbLine
370
-1
  6
AUSGEZOGEN
 10
1277.68
 20
136.11
 30
0
 11
1281.71
 21
134.55
 31
0
  0
LINE
  5
7A
100
AcDbEntity
  8
200
100
AcDbLine
370
-1
  6
AUSGEZOGEN
 10
1277.68
 20
145.41
 30
0
 11
1277.68
 21
136.11
 31
0
  0
LINE
  5
7B
100
AcDbEntity
  8
200
100
AcDbLine
370
-1
  6
AUSGEZOGEN
 10
1281.71
 20
146.96
 30
0
 11
1277.68
 21
145.41
 31
0
  0
LINE
  5
7C
100
AcDbEntity
  8
200
100
AcDbLine
370
-1
  6
AUSGEZOGEN
 10
1285.74
 20
145.41
 30
0
 11
1281.71
 21
146.96
 31
0
  0
LINE
  5
7D
100
AcDbEntity
  8
200
100
AcDbLine
370
-1
  6
AUSGEZOGEN
 10
1285.74
 20
165.93
 30
0
 11
1285.74
 21
156.62
 31
0
  0
LINE
  5
7E
100
AcDbEntity
  8
200
100
AcDbLine
370
-1
  6
AUSGEZOGEN
 10
1281.71
 20
155.07
 30
0
 11
1285.74
 21
156.62
 31
0
  0
LINE
  5
7F
100
AcDbEntity
  8
200
100
AcDbLine
370
-1
  6
AUSGEZOGEN
 10
1277.68
 20
156.62
 30
0
 11
1281.71
 21
155.07
 31
0
  0
LINE
  5
80
100
AcDbEntity
  8
200
100
AcDbLine
370
-1
  6
AUSGEZOGEN
 10
1277.68
 20
165.93
 30
0
 11
1277.68
 21
156.62
 31
0
  0
LINE
  5
81
100
AcDbEntity
  8
200
100
AcDbLine
370
-1
  6
AUSGEZOGEN
 10
1281.71
 20
167.49
 30
0
 11
1277.68
 21
165.93
 31
0
  0
LINE
  5
82
100
AcDbEntity
  8
200
100
AcDbLine
370
-1
  6
AUSGEZOGEN
 10
1285.74
 20
165.93
 30
0
 11
1281.71
 21
167.49
 31
0
  0
LINE
  5
83
100
AcDbEntity
  8
200
100
AcDbLine
370
-1
  6
AUSGEZOGEN
 10
1281.71
 20
170.59
 30
0
 11
1285.74
 21
172.14
 31
0
  0
LINE
  5
84
100
AcDbEntity
  8
200
100
AcDbLine
370
-1
  6
AUSGEZOGEN
 10
1277.68
 20
172.14
 30
0
 11
1281.71
 21
170.59
 31
0
  0
LINE
  5
85
100
AcDbEntity
  8
200
100
AcDbLine
370
-1
  6
AUSGEZOGEN
 10
1281.71
 20
183
 30
0
 11
1277.68
 21
181.45
 31
0
  0
LINE
  5
86
100
AcDbEntity
  8
200
100
AcDbLine
370
-1
  6
AUSGEZOGEN
 10
1285.74
 20
181.45
 30
0
 11
1281.71
 21
183
 31
0
  0
LINE
  5
87
100
AcDbEntity
  8
200
100
AcDbLine
370
-1
  6
AUSGEZOGEN
 10
1298.42
 20
84.55
 30
0
 11
1294.4
 21
83
 31
0
  0
LINE
  5
88
100
AcDbEntity
  8
200
100
AcDbLine
370
-1
  6
AUSGEZOGEN
 10
1290.38
 20
84.55
 30
0
 11
1294.4
 21
83
 31
0
  0
LINE
  5
89
100
AcDbEntity
  8
200
100
AcDbLine
370
-1
  6
AUSGEZOGEN
 10
1294.4
 20
95.41
 30
0
 11
1290.38
 21
93.86
 31
0
  0
LINE
  5
8A
100
AcDbEntity
  8
200
100
AcDbLine
370
-1
  6
AUSGEZOGEN
 10
1298.42
 20
93.86
 30
0
 11
1294.4
 21
95.41
 31
0
  0
LINE
  5
8B
100
AcDbEntity
  8
200
100
AcDbLine
370
-1
  6
AUSGEZOGEN
 10
1298.42
 20
109.38
 30
0
 11
1298.42
 21
100.07
 31
0
  0
LINE
  5
8C
100
AcDbEntity
  8
200
100
AcDbLine
370
-1
  6
AUSGEZOGEN
 10
1294.4
 20
98.52
 30
0
 11
1298.42
 21
100.07
 31
0
  0
LINE
  5
8D
100
AcDbEntity
  8
200
100
AcDbLine
370
-1
  6
AUSGEZOGEN
 10
1290.38
 20
100.07
 30
0
 11
1294.4
 21
98.52
 31
0
  0
LINE
  5
8E
100
AcDbEntity
  8
200
100
AcDbLine
370
-1
  6
AUSGEZOGEN
 10
1290.38
 20
109.38
 30
0
 11
1290.38
 21
100.07
 31
0
  0
LINE
  5
8F
100
AcDbEntity
  8
200
100
AcDbLine
370
-1
  6
AUSGEZOGEN
 10
1294.4
 20
110.93
 30
0
 11
1290.38
 21
109.38
 31
0
  0
LINE
  5
90
100
AcDbEntity
  8
200
100
AcDbLine
370
-1
  6
AUSGEZOGEN
 10
1298.42
 20
109.38
 30
0
 11
1294.4
 21
110.93
 31
0
  0
LINE
  5
91
100
AcDbEntity
  8
200
100
AcDbLine
370
-1
  6
AUSGEZOGEN
 10
1294.4
 20
119.04
 30
0
 11
1298.42
 21
120.59
 31
0
  0
LINE
  5
92
100
AcDbEntity
  8
200
100
AcDbLine
370
-1
  6
AUSGEZOGEN
 10
1290.38
 20
120.59
 30
0
 11
1294.4
 21
119.04
 31
0
  0
LINE
  5
93
100
AcDbEntity
  8
200
100
AcDbLine
370
-1
  6
AUSGEZOGEN
 10
1294.4
 20
131.45
 30
0
 11
1290.38
 21
129.9
 31
0
  0
LINE
  5
94
100
AcDbEntity
  8
200
100
AcDbLine
370
-1
  6
AUSGEZOGEN
 10
1298.42
 20
129.9
 30
0
 11
1294.4
 21
131.45
 31
0
  0
LINE
  5
95
100
AcDbEntity
  8
200
100
AcDbLine
370
-1
  6
AUSGEZOGEN
 10
1298.42
 20
145.41
 30
0
 11
1298.42
 21
136.11
 31
0
  0
LINE
  5
96
100
AcDbEntity
  8
200
100
AcDbLine
370
-1
  6
AUSGEZOGEN
 10
1294.4
 20
134.55
 30
0
 11
1298.42
 21
136.11
 31
0
  0
LINE
  5
97
100
AcDbEntity
  8
200
100
AcDbLine
370
-1
  6
AUSGEZOGEN
 10
1290.38
 20
136.11
 30
0
 11
1294.4
 21
134.55
 31
0
  0
LINE
  5
98
100
AcDbEntity
  8
200
100
AcDbLine
370
-1
  6
AUSGEZOGEN
 10
1290.38
 20
145.41
 30
0
 11
1290.38
 21
136.11
 31
0
  0
LINE
  5
99
100
AcDbEntity
  8
200
100
AcDbLine
370
-1
  6
AUSGEZOGEN
 10
1294.4
 20
146.96
 30
0
 11
1290.38
 21
145.41
 31
0
  0
LINE
  5
9A
100
AcDbEntity
  8
200
100
AcDbLine
370
-1
  6
AUSGEZOGEN
 10
1298.42
 20
145.41
 30
0
 11
1294.4
 21
146.96
 31
0
  0
LINE
  5
9B
100
AcDbEntity
  8
200
100
AcDbLine
370
-1
  6
AUSGEZOGEN
 10
1298.42
 20
165.93
 30
0
 11
1298.42
 21
156.62
 31
0
  0
LINE
  5
9C
100
AcDbEntity
  8
200
100
AcDbLine
370
-1
  6
AUSGEZOGEN
 10
1294.4
 20
155.07
 30
0
 11
1298.42
 21
156.62
 31
0
  0
LINE
  5
9D
100
AcDbEntity
  8
200
100
AcDbLine
370
-1
  6
AUSGEZOGEN
 10
1290.38
 20
156.62
 30
0
 11
1294.4
 21
155.07
 31
0
  0
LINE
  5
9E
100
AcDbEntity
  8
200
100
AcDbLine
370
-1
  6
AUSGEZOGEN
 10
1290.38
 20
165.93
 30
0
 11
1290.38
 21
156.62
 31
0
  0
LINE
  5
9F
100
AcDbEntity
  8
200
100
AcDbLine
370
-1
  6
AUSGEZOGEN
 10
1294.4
 20
167.49
 30
0
 11
1290.38
 21
165.93
 31
0
  0
LINE
  5
A0
100
AcDbEntity
  8
200
100
AcDbLine
370
-1
  6
AUSGEZOGEN
 10
1298.42
 20
165.93
 30
0
 11
1294.4
 21
167.49
 31
0
  0
LINE
  5
A1
100
AcDbEntity
  8
200
100
AcDbLine
370
-1
  6
AUSGEZOGEN
 10
1294.4
 20
170.59
 30
0
 11
1298.42
 21
172.14
 31
0
  0
LINE
  5
A2
100
AcDbEntity
  8
200
100
AcDbLine
370
-1
  6
AUSGEZOGEN
 10
1290.38
 20
172.14
 30
0
 11
1294.4
 21
170.59
 31
0
  0
LINE
  5
A3
100
AcDbEntity
  8
200
100
AcDbLine
370
-1
  6
AUSGEZOGEN
 10
1294.4
 20
183
 30
0
 11
1290.38
 21
181.45
 31
0
  0
LINE
  5
A4
100
AcDbEntity
  8
200
100
AcDbLine
370
-1
  6
AUSGEZOGEN
 10
1298.42
 20
181.45
 30
0
 11
1294.4
 21
183
 31
0
  0
LINE
  5
A5
100
AcDbEntity
  8
200
100
AcDbLine
370
-1
  6
AUSGEZOGEN
 10
1311.11
 20
84.55
 30
0
 11
1307.09
 21
83
 31
0
  0
LINE
  5
A6
100
AcDbEntity
  8
200
100
AcDbLine
370
-1
  6
AUSGEZOGEN
 10
1303.06
 20
84.55
 30
0
 11
1307.09
 21
83
 31
0
  0
LINE
  5
A7
100
AcDbEntity
  8
200
100
AcDbLine
370
-1
  6
AUSGEZOGEN
 10
1307.09
 20
95.41
 30
0
 11
1303.06
 21
93.86
 31
0
  0
LINE
  5
A8
100
AcDbEntity
  8
200
100
AcDbLine
370
-1
  6
AUSGEZOGEN
 10
1311.11
 20
93.86
 30
0
 11
1307.09
 21
95.41
 31
0
  0
LINE
  5
A9
100
AcDbEntity
  8
200
100
AcDbLine
370
-1
  6
AUSGEZOGEN
 10
1311.11
 20
109.38
 30
0
 11
1311.11
 21
100.07
 31
0
  0
LINE
  5
AA
100
AcDbEntity
  8
200
100
AcDbLine
370
-1
  6
AUSGEZOGEN
 10
1307.09
 20
98.52
 30
0
 11
1311.11
 21
100.07
 31
0
  0
LINE
  5
AB
100
AcDbEntity
  8
200
100
AcDbLine
370
-1
  6
AUSGEZOGEN
 10
1303.06
 20
100.07
 30
0
 11
1307.09
 21
98.52
 31
0
  0
LINE
  5
AC
100
AcDbEntity
  8
200
100
AcDbLine
370
-1
  6
AUSGEZOGEN
 10
1303.06
 20
109.38
 30
0
 11
1303.06
 21
100.07
 31
0
  0
LINE
  5
AD
100
AcDbEntity
  8
200
100
AcDbLine
370
-1
  6
AUSGEZOGEN
 10
1307.09
 20
110.93
 30
0
 11
1303.06
 21
109.38
 31
0
  0
LINE
  5
AE
100
AcDbEntity
  8
200
100
AcDbLine
370
-1
  6
AUSGEZOGEN
 10
1311.11
 20
109.38
 30
0
 11
1307.09
 21
110.93
 31
0
  0
LINE
  5
AF
100
AcDbEntity
  8
200
100
AcDbLine
370
-1
  6
AUSGEZOGEN
 10
1307.09
 20
119.04
 30
0
 11
1311.11
 21
120.59
 31
0
  0
LINE
  5
B0
100
AcDbEntity
  8
200
100
AcDbLine
370
-1
  6
AUSGEZOGEN
 10
1303.06
 20
120.59
 30
0
 11
1307.09
 21
119.04
 31
0
  0
LINE
  5
B1
100
AcDbEntity
  8
200
100
AcDbLine
370
-1
  6
AUSGEZOGEN
 10
1307.09
 20
131.45
 30
0
 11
1303.06
 21
129.9
 31
0
  0
LINE
  5
B2
100
AcDbEntity
  8
200
100
AcDbLine
370
-1
  6
AUSGEZOGEN
 10
1311.11
 20
129.9
 30
0
 11
1307.09
 21
131.45
 31
0
  0
LINE
  5
B3
100
AcDbEntity
  8
200
100
AcDbLine
370
-1
  6
AUSGEZOGEN
 10
1311.11
 20
145.41
 30
0
 11
1311.11
 21
136.11
 31
0
  0
LINE
  5
B4
100
AcDbEntity
  8
200
100
AcDbLine
370
-1
  6
AUSGEZOGEN
 10
1307.09
 20
134.55
 30
0
 11
1311.11
 21
136.11
 31
0
  0
LINE
  5
B5
100
AcDbEntity
  8
200
100
AcDbLine
370
-1
  6
AUSGEZOGEN
 10
1303.06
 20
136.11
 30
0
 11
1307.09
 21
134.55
 31
0
  0
LINE
  5
B6
100
AcDbEntity
  8
200
100
AcDbLine
370
-1
  6
AUSGEZOGEN
 10
1303.06
 20
145.41
 30
0
 11
1303.06
 21
136.11
 31
0
  0
LINE
  5
B7
100
AcDbEntity
  8
200
100
AcDbLine
370
-1
  6
AUSGEZOGEN
 10
1307.09
 20
146.96
 30
0
 11
1303.06
 21
145.41
 31
0
  0
LINE
  5
B8
100
AcDbEntity
  8
200
100
AcDbLine
370
-1
  6
AUSGEZOGEN
 10
1311.11
 20
145.41
 30
0
 11
1307.09
 21
146.96
 31
0
  0
LINE
  5
B9
100
AcDbEntity
  8
200
100
AcDbLine
370
-1
  6
AUSGEZOGEN
 10
1311.11
 20
165.93
 30
0
 11
1311.11
 21
156.62
 31
0
  0
LINE
  5
BA
100
AcDbEntity
  8
200
100
AcDbLine
370
-1
  6
AUSGEZOGEN
 10
1307.09
 20
155.07
 30
0
 11
1311.11
 21
156.62
 31
0
  0
LINE
  5
BB
100
AcDbEntity
  8
200
100
AcDbLine
370
-1
  6
AUSGEZOGEN
 10
1303.06
 20
156.62
 30
0
 11
1307.09
 21
155.07
 31
0
  0
LINE
  5
BC
100
AcDbEntity
  8
200
100
AcDbLine
370
-1
  6
AUSGEZOGEN
 10
1303.06
 20
165.93
 30
0
 11
1303.06
 21
156.62
 31
0
  0
LINE
  5
BD
100
AcDbEntity
  8
200
100
AcDbLine
370
-1
  6
AUSGEZOGEN
 10
1307.09
 20
167.49
 30
0
 11
1303.06
 21
165.93
 31
0
  0
LINE
  5
BE
100
AcDbEntity
  8
200
100
AcDbLine
370
-1
  6
AUSGEZOGEN
 10
1311.11
 20
165.93
 30
0
 11
1307.09
 21
167.49
 31
0
  0
LINE
  5
BF
100
AcDbEntity
  8
200
100
AcDbLine
370
-1
  6
AUSGEZOGEN
 10
1307.09
 20
170.59
 30
0
 11
1311.11
 21
172.14
 31
0
  0
LINE
  5
C0
100
AcDbEntity
  8
200
100
AcDbLine
370
-1
  6
AUSGEZOGEN
 10
1303.06
 20
172.14
 30
0
 11
1307.09
 21
170.59
 31
0
  0
LINE
  5
C1
100
AcDbEntity
  8
200
100
AcDbLine
370
-1
  6
AUSGEZOGEN
 10
1307.09
 20
183
 30
0
 11
1303.06
 21
181.45
 31
0
  0
LINE
  5
C2
100
AcDbEntity
  8
200
100
AcDbLine
370
-1
  6
AUSGEZOGEN
 10
1311.11
 20
181.45
 30
0
 11
1307.09
 21
183
 31
0
  0
LINE
  5
C3
100
AcDbEntity
  8
200
100
AcDbLine
370
-1
  6
AUSGEZOGEN
 10
1323.8
 20
84.55
 30
0
 11
1319.77
 21
83
 31
0
  0
LINE
  5
C4
100
AcDbEntity
  8
200
100
AcDbLine
370
-1
  6
AUSGEZOGEN
 10
1315.76
 20
84.55
 30
0
 11
1319.77
 21
83
 31
0
  0
LINE
  5
C5
100
AcDbEntity
  8
200
100
AcDbLine
370
-1
  6
AUSGEZOGEN
 10
1319.77
 20
95.41
 30
0
 11
1315.76
 21
93.86
 31
0
  0
LINE
  5
C6
100
AcDbEntity
  8
200
100
AcDbLine
370
-1
  6
AUSGEZOGEN
 10
1323.8
 20
93.86
 30
0
 11
1319.77
 21
95.41
 31
0
  0
LINE
  5
C7
100
AcDbEntity
  8
200
100
AcDbLine
370
-1
  6
AUSGEZOGEN
 10
1323.8
 20
109.38
 30
0
 11
1323.8
 21
100.07
 31
0
  0
LINE
  5
C8
100
AcDbEntity
  8
200
100
AcDbLine
370
-1
  6
AUSGEZOGEN
 10
1319.77
 20
98.52
 30
0
 11
1323.8
 21
100.07
 31
0
  0
LINE
  5
C9
100
AcDbEntity
  8
200
100
AcDbLine
370
-1
  6
AUSGEZOGEN
 10
1315.76
 20
100.07
 30
0
 11
1319.77
 21
98.52
 31
0
  0
LINE
  5
CA
100
AcDbEntity
  8
200
100
AcDbLine
370
-1
  6
AUSGEZOGEN
 10
1315.76
 20
109.38
 30
0
 11
1315.76
 21
100.07
 31
0
  0
LINE
  5
CB
100
AcDbEntity
  8
200
100
AcDbLine
370
-1
  6
AUSGEZOGEN
 10
1319.77
 20
110.93
 30
0
 11
1315.76
 21
109.38
 31
0
  0
LINE
  5
CC
100
AcDbEntity
  8
200
100
AcDbLine
370
-1
  6
AUSGEZOGEN
 10
1323.8
 20
109.38
 30
0
 11
1319.77
 21
110.93
 31
0
  0
LINE
  5
CD
100
AcDbEntity
  8
200
100
AcDbLine
370
-1
  6
AUSGEZOGEN
 10
1319.77
 20
119.04
 30
0
 11
1323.8
 21
120.59
 31
0
  0
LINE
  5
CE
100
AcDbEntity
  8
200
100
AcDbLine
370
-1
  6
AUSGEZOGEN
 10
1315.76
 20
120.59
 30
0
 11
1319.77
 21
119.04
 31
0
  0
LINE
  5
CF
100
AcDbEntity
  8
200
100
AcDbLine
370
-1
  6
AUSGEZOGEN
 10
1319.77
 20
131.45
 30
0
 11
1315.76
 21
129.9
 31
0
  0
LINE
  5
D0
100
AcDbEntity
  8
200
100
AcDbLine
370
-1
  6
AUSGEZOGEN
 10
1323.8
 20
129.9
 30
0
 11
1319.77
 21
131.45
 31
0
  0
LINE
  5
D1
100
AcDbEntity
  8
200
100
AcDbLine
370
-1
  6
AUSGEZOGEN
 10
1323.8
 20
145.41
 30
0
 11
1323.8
 21
136.11
 31
0
  0
LINE
  5
D2
100
AcDbEntity
  8
200
100
AcDbLine
370
-1
  6
AUSGEZOGEN
 10
1319.77
 20
134.55
 30
0
 11
1323.8
 21
136.11
 31
0
  0
LINE
  5
D3
100
AcDbEntity
  8
200
100
AcDbLine
370
-1
  6
AUSGEZOGEN
 10
1315.76
 20
136.11
 30
0
 11
1319.77
 21
134.55
 31
0
  0
LINE
  5
D4
100
AcDbEntity
  8
200
100
AcDbLine
370
-1
  6
AUSGEZOGEN
 10
1315.76
 20
145.41
 30
0
 11
1315.76
 21
136.11
 31
0
  0
LINE
  5
D5
100
AcDbEntity
  8
200
100
AcDbLine
370
-1
  6
AUSGEZOGEN
 10
1319.77
 20
146.96
 30
0
 11
1315.76
 21
145.41
 31
0
  0
LINE
  5
D6
100
AcDbEntity
  8
200
100
AcDbLine
370
-1
  6
AUSGEZOGEN
 10
1323.8
 20
145.41
 30
0
 11
1319.77
 21
146.96
 31
0
  0
LINE
  5
D7
100
AcDbEntity
  8
200
100
AcDbLine
370
-1
  6
AUSGEZOGEN
 10
1323.8
 20
165.93
 30
0
 11
1323.8
 21
156.62
 31
0
  0
LINE
  5
D8
100
AcDbEntity
  8
200
100
AcDbLine
370
-1
  6
AUSGEZOGEN
 10
1319.77
 20
155.07
 30
0
 11
1323.8
 21
156.62
 31
0
  0
LINE
  5
D9
100
AcDbEntity
  8
200
100
AcDbLine
370
-1
  6
AUSGEZOGEN
 10
1315.76
 20
156.62
 30
0
 11
1319.77
 21
155.07
 31
0
  0
LINE
  5
DA
100
AcDbEntity
  8
200
100
AcDbLine
370
-1
  6
AUSGEZOGEN
 10
1315.76
 20
165.93
 30
0
 11
1315.76
 21
156.62
 31
0
  0
LINE
  5
DB
100
AcDbEntity
  8
200
100
AcDbLine
370
-1
  6
AUSGEZOGEN
 10
1319.77
 20
167.49
 30
0
 11
1315.76
 21
165.93
 31
0
  0
LINE
  5
DC
100
AcDbEntity
  8
200
100
AcDbLine
370
-1
  6
AUSGEZOGEN
 10
1323.8
 20
165.93
 30
0
 11
1319.77
 21
167.49
 31
0
  0
LINE
  5
DD
100
AcDbEntity
  8
200
100
AcDbLine
370
-1
  6
AUSGEZOGEN
 10
1319.77
 20
170.59
 30
0
 11
1323.8
 21
172.14
 31
0
  0
LINE
  5
DE
100
AcDbEntity
  8
200
100
AcDbLine
370
-1
  6
AUSGEZOGEN
 10
1315.76
 20
172.14
 30
0
 11
1319.77
 21
170.59
 31
0
  0
LINE
  5
DF
100
AcDbEntity
  8
200
100
AcDbLine
370
-1
  6
AUSGEZOGEN
 10
1319.77
 20
183
 30
0
 11
1315.76
 21
181.45
 31
0
  0
LINE
  5
E0
100
AcDbEntity
  8
200
100
AcDbLine
370
-1
  6
AUSGEZOGEN
 10
1323.8
 20
181.45
 30
0
 11
1319.77
 21
183
 31
0
  0
LINE
  5
E1
100
AcDbEntity
  8
200
100
AcDbLine
370
-1
  6
AUSGEZOGEN
 10
1336.48
 20
84.55
 30
0
 11
1332.47
 21
83
 31
0
  0
LINE
  5
E2
100
AcDbEntity
  8
200
100
AcDbLine
370
-1
  6
AUSGEZOGEN
 10
1328.44
 20
84.55
 30
0
 11
1332.47
 21
83
 31
0
  0
LINE
  5
E3
100
AcDbEntity
  8
200
100
AcDbLine
370
-1
  6
AUSGEZOGEN
 10
1332.47
 20
95.41
 30
0
 11
1328.44
 21
93.86
 31
0
  0
LINE
  5
E4
100
AcDbEntity
  8
200
100
AcDbLine
370
-1
  6
AUSGEZOGEN
 10
1336.48
 20
93.86
 30
0
 11
1332.47
 21
95.41
 31
0
  0
LINE
  5
E5
100
AcDbEntity
  8
200
100
AcDbLine
370
-1
  6
AUSGEZOGEN
 10
1336.48
 20
109.38
 30
0
 11
1336.48
 21
100.07
 31
0
  0
LINE
  5
E6
100
AcDbEntity
  8
200
100
AcDbLine
370
-1
  6
AUSGEZOGEN
 10
1332.47
 20
98.52
 30
0
 11
1336.48
 21
100.07
 31
0
  0
LINE
  5
E7
100
AcDbEntity
  8
200
100
AcDbLine
370
-1
  6
AUSGEZOGEN
 10
1328.44
 20
100.07
 30
0
 11
1332.47
 21
98.52
 31
0
  0
LINE
  5
E8
100
AcDbEntity
  8
200
100
AcDbLine
370
-1
  6
AUSGEZOGEN
 10
1328.44
 20
109.38
 30
0
 11
1328.44
 21
100.07
 31
0
  0
LINE
  5
E9
100
AcDbEntity
  8
200
100
AcDbLine
370
-1
  6
AUSGEZOGEN
 10
1332.47
 20
110.93
 30
0
 11
1328.44
 21
109.38
 31
0
  0
LINE
  5
EA
100
AcDbEntity
  8
200
100
AcDbLine
370
-1
  6
AUSGEZOGEN
 10
1336.48
 20
109.38
 30
0
 11
1332.47
 21
110.93
 31
0
  0
LINE
  5
EB
100
AcDbEntity
  8
200
100
AcDbLine
370
-1
  6
AUSGEZOGEN
 10
1332.47
 20
119.04
 30
0
 11
1336.48
 21
120.59
 31
0
  0
LINE
  5
EC
100
AcDbEntity
  8
200
100
AcDbLine
370
-1
  6
AUSGEZOGEN
 10
1328.44
 20
120.59
 30
0
 11
1332.47
 21
119.04
 31
0
  0
LINE
  5
ED
100
AcDbEntity
  8
200
100
AcDbLine
370
-1
  6
AUSGEZOGEN
 10
1332.47
 20
131.45
 30
0
 11
1328.44
 21
129.9
 31
0
  0
LINE
  5
EE
100
AcDbEntity
  8
200
100
AcDbLine
370
-1
  6
AUSGEZOGEN
 10
1336.48
 20
129.9
 30
0
 11
1332.47
 21
131.45
 31
0
  0
LINE
  5
EF
100
AcDbEntity
  8
200
100
AcDbLine
370
-1
  6
AUSGEZOGEN
 10
1336.48
 20
145.41
 30
0
 11
1336.48
 21
136.11
 31
0
  0
LINE
  5
F0
100
AcDbEntity
  8
200
100
AcDbLine
370
-1
  6
AUSGEZOGEN
 10
1332.47
 20
134.55
 30
0
 11
1336.48
 21
136.11
 31
0
  0
LINE
  5
F1
100
AcDbEntity
  8
200
100
AcDbLine
370
-1
  6
AUSGEZOGEN
 10
1328.44
 20
136.11
 30
0
 11
1332.47
 21
134.55
 31
0
  0
LINE
  5
F2
100
AcDbEntity
  8
200
100
AcDbLine
370
-1
  6
AUSGEZOGEN
 10
1328.44
 20
145.41
 30
0
 11
1328.44
 21
136.11
 31
0
  0
LINE
  5
F3
100
AcDbEntity
  8
200
100
AcDbLine
370
-1
  6
AUSGEZOGEN
 10
1332.47
 20
146.96
 30
0
 11
1328.44
 21
145.41
 31
0
  0
LINE
  5
F4
100
AcDbEntity
  8
200
100
AcDbLine
370
-1
  6
AUSGEZOGEN
 10
1336.48
 20
145.41
 30
0
 11
1332.47
 21
146.96
 31
0
  0
LINE
  5
F5
100
AcDbEntity
  8
200
100
AcDbLine
370
-1
  6
AUSGEZOGEN
 10
1336.48
 20
165.93
 30
0
 11
1336.48
 21
156.62
 31
0
  0
LINE
  5
F6
100
AcDbEntity
  8
200
100
AcDbLine
370
-1
  6
AUSGEZOGEN
 10
1332.47
 20
155.07
 30
0
 11
1336.48
 21
156.62
 31
0
  0
LINE
  5
F7
100
AcDbEntity
  8
200
100
AcDbLine
370
-1
  6
AUSGEZOGEN
 10
1328.44
 20
156.62
 30
0
 11
1332.47
 21
155.07
 31
0
  0
LINE
  5
F8
100
AcDbEntity
  8
200
100
AcDbLine
370
-1
  6
AUSGEZOGEN
 10
1328.44
 20
165.93
 30
0
 11
1328.44
 21
156.62
 31
0
  0
LINE
  5
F9
100
AcDbEntity
  8
200
100
AcDbLine
370
-1
  6
AUSGEZOGEN
 10
1332.47
 20
167.49
 30
0
 11
1328.44
 21
165.93
 31
0
  0
LINE
  5
FA
100
AcDbEntity
  8
200
100
AcDbLine
370
-1
  6
AUSGEZOGEN
 10
1336.48
 20
165.93
 30
0
 11
1332.47
 21
167.49
 31
0
  0
LINE
  5
FB
100
AcDbEntity
  8
200
100
AcDbLine
370
-1
  6
AUSGEZOGEN
 10
1332.47
 20
170.59
 30
0
 11
1336.48
 21
172.14
 31
0
  0
LINE
  5
FC
100
AcDbEntity
  8
200
100
AcDbLine
370
-1
  6
AUSGEZOGEN
 10
1328.44
 20
172.14
 30
0
 11
1332.47
 21
170.59
 31
0
  0
LINE
  5
FD
100
AcDbEntity
  8
200
100
AcDbLine
370
-1
  6
AUSGEZOGEN
 10
1332.47
 20
183
 30
0
 11
1328.44
 21
181.45
 31
0
  0
LINE
  5
FE
100
AcDbEntity
  8
200
100
AcDbLine
370
-1
  6
AUSGEZOGEN
 10
1336.48
 20
181.45
 30
0
 11
1332.47
 21
183
 31
0
  0
LINE
  5
FF
100
AcDbEntity
  8
200
100
AcDbLine
370
-1
  6
AUSGEZOGEN
 10
1349.18
 20
84.55
 30
0
 11
1345.15
 21
83
 31
0
  0
LINE
  5
100
100
AcDbEntity
  8
200
100
AcDbLine
370
-1
  6
AUSGEZOGEN
 10
1341.13
 20
84.55
 30
0
 11
1345.15
 21
83
 31
0
  0
LINE
  5
101
100
AcDbEntity
  8
200
100
AcDbLine
370
-1
  6
AUSGEZOGEN
 10
1345.15
 20
95.41
 30
0
 11
1341.13
 21
93.86
 31
0
  0
LINE
  5
102
100
AcDbEntity
  8
200
100
AcDbLine
370
-1
  6
AUSGEZOGEN
 10
1349.18
 20
93.86
 30
0
 11
1345.15
 21
95.41
 31
0
  0
LINE
  5
103
100
AcDbEntity
  8
200
100
AcDbLine
370
-1
  6
AUSGEZOGEN
 10
1349.18
 20
109.38
 30
0
 11
1349.18
 21
100.07
 31
0
  0
LINE
  5
104
100
AcDbEntity
  8
200
100
AcDbLine
370
-1
  6
AUSGEZOGEN
 10
1345.15
 20
98.52
 30
0
 11
1349.18
 21
100.07
 31
0
  0
LINE
  5
105
100
AcDbEntity
  8
200
100
AcDbLine
370
-1
  6
AUSGEZOGEN
 10
1341.13
 20
100.07
 30
0
 11
1345.15
 21
98.52
 31
0
  0
LINE
  5
106
100
AcDbEntity
  8
200
100
AcDbLine
370
-1
  6
AUSGEZOGEN
 10
1341.13
 20
109.38
 30
0
 11
1341.13
 21
100.07
 31
0
  0
LINE
  5
107
100
AcDbEntity
  8
200
100
AcDbLine
370
-1
  6
AUSGEZOGEN
 10
1345.15
 20
110.93
 30
0
 11
1341.13
 21
109.38
 31
0
  0
LINE
  5
108
100
AcDbEntity
  8
200
100
AcDbLine
370
-1
  6
AUSGEZOGEN
 10
1349.18
 20
109.38
 30
0
 11
1345.15
 21
110.93
 31
0
  0
LINE
  5
109
100
AcDbEntity
  8
200
100
AcDbLine
370
-1
  6
AUSGEZOGEN
 10
1345.15
 20
119.04
 30
0
 11
1349.18
 21
120.59
 31
0
  0
LINE
  5
10A
100
AcDbEntity
  8
200
100
AcDbLine
370
-1
  6
AUSGEZOGEN
 10
1341.13
 20
120.59
 30
0
 11
1345.15
 21
119.04
 31
0
  0
LINE
  5
10B
100
AcDbEntity
  8
200
100
AcDbLine
370
-1
  6
AUSGEZOGEN
 10
1345.15
 20
131.45
 30
0
 11
1341.13
 21
129.9
 31
0
  0
LINE
  5
10C
100
AcDbEntity
  8
200
100
AcDbLine
370
-1
  6
AUSGEZOGEN
 10
1349.18
 20
129.9
 30
0
 11
1345.15
 21
131.45
 31
0
  0
LINE
  5
10D
100
AcDbEntity
  8
200
100
AcDbLine
370
-1
  6
AUSGEZOGEN
 10
1349.18
 20
145.41
 30
0
 11
1349.18
 21
136.11
 31
0
  0
LINE
  5
10E
100
AcDbEntity
  8
200
100
AcDbLine
370
-1
  6
AUSGEZOGEN
 10
1345.15
 20
134.55
 30
0
 11
1349.18
 21
136.11
 31
0
  0
LINE
  5
10F
100
AcDbEntity
  8
200
100
AcDbLine
370
-1
  6
AUSGEZOGEN
 10
1341.13
 20
136.11
 30
0
 11
1345.15
 21
134.55
 31
0
  0
LINE
  5
110
100
AcDbEntity
  8
200
100
AcDbLine
370
-1
  6
AUSGEZOGEN
 10
1341.13
 20
145.41
 30
0
 11
1341.13
 21
136.11
 31
0
  0
LINE
  5
111
100
AcDbEntity
  8
200
100
AcDbLine
370
-1
  6
AUSGEZOGEN
 10
1345.15
 20
146.96
 30
0
 11
1341.13
 21
145.41
 31
0
  0
LINE
  5
112
100
AcDbEntity
  8
200
100
AcDbLine
370
-1
  6
AUSGEZOGEN
 10
1349.18
 20
145.41
 30
0
 11
1345.15
 21
146.96
 31
0
  0
LINE
  5
113
100
AcDbEntity
  8
200
100
AcDbLine
370
-1
  6
AUSGEZOGEN
 10
1349.18
 20
165.93
 30
0
 11
1349.18
 21
156.62
 31
0
  0
LINE
  5
114
100
AcDbEntity
  8
200
100
AcDbLine
370
-1
  6
AUSGEZOGEN
 10
1345.15
 20
155.07
 30
0
 11
1349.18
 21
156.62
 31
0
  0
LINE
  5
115
100
AcDbEntity
  8
200
100
AcDbLine
370
-1
  6
AUSGEZOGEN
 10
1341.13
 20
156.62
 30
0
 11
1345.15
 21
155.07
 31
0
  0
LINE
  5
116
100
AcDbEntity
  8
200
100
AcDbLine
370
-1
  6
AUSGEZOGEN
 10
1341.13
 20
165.93
 30
0
 11
1341.13
 21
156.62
 31
0
  0
LINE
  5
117
100
AcDbEntity
  8
200
100
AcDbLine
370
-1
  6
AUSGEZOGEN
 10
1345.15
 20
167.49
 30
0
 11
1341.13
 21
165.93
 31
0
  0
LINE
  5
118
100
AcDbEntity
  8
200
100
AcDbLine
370
-1
  6
AUSGEZOGEN
 10
1349.18
 20
165.93
 30
0
 11
1345.15
 21
167.49
 31
0
  0
LINE
  5
119
100
AcDbEntity
  8
200
100
AcDbLine
370
-1
  6
AUSGEZOGEN
 10
1345.15
 20
170.59
 30
0
 11
1349.18
 21
172.14
 31
0
  0
LINE
  5
11A
100
AcDbEntity
  8
200
100
AcDbLine
370
-1
  6
AUSGEZOGEN
 10
1341.13
 20
172.14
 30
0
 11
1345.15
 21
170.59
 31
0
  0
LINE
  5
11B
100
AcDbEntity
  8
200
100
AcDbLine
370
-1
  6
AUSGEZOGEN
 10
1345.15
 20
183
 30
0
 11
1341.13
 21
181.45
 31
0
  0
LINE
  5
11C
100
AcDbEntity
  8
200
100
AcDbLine
370
-1
  6
AUSGEZOGEN
 10
1349.18
 20
181.45
 30
0
 11
1345.15
 21
183
 31
0
  0
LINE
  5
11D
100
AcDbEntity
  8
200
100
AcDbLine
370
-1
  6
AUSGEZOGEN
 10
1361.86
 20
84.55
 30
0
 11
1357.84
 21
83
 31
0
  0
LINE
  5
11E
100
AcDbEntity
  8
200
100
AcDbLine
370
-1
  6
AUSGEZOGEN
 10
1353.82
 20
84.55
 30
0
 11
1357.84
 21
83
 31
0
  0
LINE
  5
11F
100
AcDbEntity
  8
200
100
AcDbLine
370
-1
  6
AUSGEZOGEN
 10
1357.84
 20
95.41
 30
0
 11
1353.82
 21
93.86
 31
0
  0
LINE
  5
120
100
AcDbEntity
  8
200
100
AcDbLine
370
-1
  6
AUSGEZOGEN
 10
1361.86
 20
93.86
 30
0
 11
1357.84
 21
95.41
 31
0
  0
LINE
  5
121
100
AcDbEntity
  8
200
100
AcDbLine
370
-1
  6
AUSGEZOGEN
 10
1361.86
 20
109.38
 30
0
 11
1361.86
 21
100.07
 31
0
  0
LINE
  5
122
100
AcDbEntity
  8
200
100
AcDbLine
370
-1
  6
AUSGEZOGEN
 10
1357.84
 20
98.52
 30
0
 11
1361.86
 21
100.07
 31
0
  0
LINE
  5
123
100
AcDbEntity
  8
200
100
AcDbLine
370
-1
  6
AUSGEZOGEN
 10
1353.82
 20
100.07
 30
0
 11
1357.84
 21
98.52
 31
0
  0
LINE
  5
124
100
AcDbEntity
  8
200
100
AcDbLine
370
-1
  6
AUSGEZOGEN
 10
1353.82
 20
109.38
 30
0
 11
1353.82
 21
100.07
 31
0
  0
LINE
  5
125
100
AcDbEntity
  8
200
100
AcDbLine
370
-1
  6
AUSGEZOGEN
 10
1357.84
 20
110.93
 30
0
 11
1353.82
 21
109.38
 31
0
  0
LINE
  5
126
100
AcDbEntity
  8
200
100
AcDbLine
370
-1
  6
AUSGEZOGEN
 10
1361.86
 20
109.38
 30
0
 11
1357.84
 21
110.93
 31
0
  0
LINE
  5
127
100
AcDbEntity
  8
200
100
AcDbLine
370
-1
  6
AUSGEZOGEN
 10
1357.84
 20
119.04
 30
0
 11
1361.86
 21
120.59
 31
0
  0
LINE
  5
128
100
AcDbEntity
  8
200
100
AcDbLine
370
-1
  6
AUSGEZOGEN
 10
1353.82
 20
120.59
 30
0
 11
1357.84
 21
119.04
 31
0
  0
LINE
  5
129
100
AcDbEntity
  8
200
100
AcDbLine
370
-1
  6
AUSGEZOGEN
 10
1357.84
 20
131.45
 30
0
 11
1353.82
 21
129.9
 31
0
  0
LINE
  5
12A
100
AcDbEntity
  8
200
100
AcDbLine
370
-1
  6
AUSGEZOGEN
 10
1361.86
 20
129.9
 30
0
 11
1357.84
 21
131.45
 31
0
  0
LINE
  5
12B
100
AcDbEntity
  8
200
100
AcDbLine
370
-1
  6
AUSGEZOGEN
 10
1361.86
 20
145.41
 30
0
 11
1361.86
 21
136.11
 31
0
  0
LINE
  5
12C
100
AcDbEntity
  8
200
100
AcDbLine
370
-1
  6
AUSGEZOGEN
 10
1357.84
 20
134.55
 30
0
 11
1361.86
 21
136.11
 31
0
  0
LINE
  5
12D
100
AcDbEntity
  8
200
100
AcDbLine
370
-1
  6
AUSGEZOGEN
 10
1353.82
 20
136.11
 30
0
 11
1357.84
 21
134.55
 31
0
  0
LINE
  5
12E
100
AcDbEntity
  8
200
100
AcDbLine
370
-1
  6
AUSGEZOGEN
 10
1353.82
 20
145.41
 30
0
 11
1353.82
 21
136.11
 31
0
  0
LINE
  5
12F
100
AcDbEntity
  8
200
100
AcDbLine
370
-1
  6
AUSGEZOGEN
 10
1357.84
 20
146.96
 30
0
 11
1353.82
 21
145.41
 31
0
  0
LINE
  5
130
100
AcDbEntity
  8
200
100
AcDbLine
370
-1
  6
AUSGEZOGEN
 10
1361.86
 20
145.41
 30
0
 11
1357.84
 21
146.96
 31
0
  0
LINE
  5
131
100
AcDbEntity
  8
200
100
AcDbLine
370
-1
  6
AUSGEZOGEN
 10
1361.86
 20
165.93
 30
0
 11
1361.86
 21
156.62
 31
0
  0
LINE
  5
132
100
AcDbEntity
  8
200
100
AcDbLine
370
-1
  6
AUSGEZOGEN
 10
1357.84
 20
155.07
 30
0
 11
1361.86
 21
156.62
 31
0
  0
LINE
  5
133
100
AcDbEntity
  8
200
100
AcDbLine
370
-1
  6
AUSGEZOGEN
 10
1353.82
 20
156.62
 30
0
 11
1357.84
 21
155.07
 31
0
  0
LINE
  5
134
100
AcDbEntity
  8
200
100
AcDbLine
370
-1
  6
AUSGEZOGEN
 10
1353.82
 20
165.93
 30
0
 11
1353.82
 21
156.62
 31
0
  0
LINE
  5
135
100
AcDbEntity
  8
200
100
AcDbLine
370
-1
  6
AUSGEZOGEN
 10
1357.84
 20
167.49
 30
0
 11
1353.82
 21
165.93
 31
0
  0
LINE
  5
136
100
AcDbEntity
  8
200
100
AcDbLine
370
-1
  6
AUSGEZOGEN
 10
1361.86
 20
165.93
 30
0
 11
1357.84
 21
167.49
 31
0
  0
LINE
  5
137
100
AcDbEntity
  8
200
100
AcDbLine
370
-1
  6
AUSGEZOGEN
 10
1357.84
 20
170.59
 30
0
 11
1361.86
 21
172.14
 31
0
  0
LINE
  5
138
100
AcDbEntity
  8
200
100
AcDbLine
370
-1
  6
AUSGEZOGEN
 10
1353.82
 20
172.14
 30
0
 11
1357.84
 21
170.59
 31
0
  0
LINE
  5
139
100
AcDbEntity
  8
200
100
AcDbLine
370
-1
  6
AUSGEZOGEN
 10
1357.84
 20
183
 30
0
 11
1353.82
 21
181.45
 31
0
  0
LINE
  5
13A
100
AcDbEntity
  8
200
100
AcDbLine
370
-1
  6
AUSGEZOGEN
 10
1361.86
 20
181.45
 30
0
 11
1357.84
 21
183
 31
0
  0
LINE
  5
13B
100
AcDbEntity
  8
200
100
AcDbLine
370
-1
  6
AUSGEZOGEN
 10
1374.55
 20
84.55
 30
0
 11
1370.53
 21
83
 31
0
  0
LINE
  5
13C
100
AcDbEntity
  8
200
100
AcDbLine
370
-1
  6
AUSGEZOGEN
 10
1366.5
 20
84.55
 30
0
 11
1370.53
 21
83
 31
0
  0
LINE
  5
13D
100
AcDbEntity
  8
200
100
AcDbLine
370
-1
  6
AUSGEZOGEN
 10
1370.53
 20
95.41
 30
0
 11
1366.5
 21
93.86
 31
0
  0
LINE
  5
13E
100
AcDbEntity
  8
200
100
AcDbLine
370
-1
  6
AUSGEZOGEN
 10
1374.55
 20
93.86
 30
0
 11
1370.53
 21
95.41
 31
0
  0
LINE
  5
13F
100
AcDbEntity
  8
200
100
AcDbLine
370
-1
  6
AUSGEZOGEN
 10
1374.55
 20
109.38
 30
0
 11
1374.55
 21
100.07
 31
0
  0
LINE
  5
140
100
AcDbEntity
  8
200
100
AcDbLine
370
-1
  6
AUSGEZOGEN
 10
1370.53
 20
98.52
 30
0
 11
1374.55
 21
100.07
 31
0
  0
LINE
  5
141
100
AcDbEntity
  8
200
100
AcDbLine
370
-1
  6
AUSGEZOGEN
 10
1366.5
 20
100.07
 30
0
 11
1370.53
 21
98.52
 31
0
  0
LINE
  5
142
100
AcDbEntity
  8
200
100
AcDbLine
370
-1
  6
AUSGEZOGEN
 10
1366.5
 20
109.38
 30
0
 11
1366.5
 21
100.07
 31
0
  0
LINE
  5
143
100
AcDbEntity
  8
200
100
AcDbLine
370
-1
  6
AUSGEZOGEN
 10
1370.53
 20
110.93
 30
0
 11
1366.5
 21
109.38
 31
0
  0
LINE
  5
144
100
AcDbEntity
  8
200
100
AcDbLine
370
-1
  6
AUSGEZOGEN
 10
1374.55
 20
109.38
 30
0
 11
1370.53
 21
110.93
 31
0
  0
LINE
  5
145
100
AcDbEntity
  8
200
100
AcDbLine
370
-1
  6
AUSGEZOGEN
 10
1370.53
 20
119.04
 30
0
 11
1374.55
 21
120.59
 31
0
  0
LINE
  5
146
100
AcDbEntity
  8
200
100
AcDbLine
370
-1
  6
AUSGEZOGEN
 10
1366.5
 20
120.59
 30
0
 11
1370.53
 21
119.04
 31
0
  0
LINE
  5
147
100
AcDbEntity
  8
200
100
AcDbLine
370
-1
  6
AUSGEZOGEN
 10
1370.53
 20
131.45
 30
0
 11
1366.5
 21
129.9
 31
0
  0
LINE
  5
148
100
AcDbEntity
  8
200
100
AcDbLine
370
-1
  6
AUSGEZOGEN
 10
1374.55
 20
129.9
 30
0
 11
1370.53
 21
131.45
 31
0
  0
LINE
  5
149
100
AcDbEntity
  8
200
100
AcDbLine
370
-1
  6
AUSGEZOGEN
 10
1374.55
 20
145.41
 30
0
 11
1374.55
 21
136.11
 31
0
  0
LINE
  5
14A
100
AcDbEntity
  8
200
100
AcDbLine
370
-1
  6
AUSGEZOGEN
 10
1370.53
 20
134.55
 30
0
 11
1374.55
 21
136.11
 31
0
  0
LINE
  5
14B
100
AcDbEntity
  8
200
100
AcDbLine
370
-1
  6
AUSGEZOGEN
 10
1366.5
 20
136.11
 30
0
 11
1370.53
 21
134.55
 31
0
  0
LINE
  5
14C
100
AcDbEntity
  8
200
100
AcDbLine
370
-1
  6
AUSGEZOGEN
 10
1366.5
 20
145.41
 30
0
 11
1366.5
 21
136.11
 31
0
  0
LINE
  5
14D
100
AcDbEntity
  8
200
100
AcDbLine
370
-1
  6
AUSGEZOGEN
 10
1370.53
 20
146.96
 30
0
 11
1366.5
 21
145.41
 31
0
  0
LINE
  5
14E
100
AcDbEntity
  8
200
100
AcDbLine
370
-1
  6
AUSGEZOGEN
 10
1374.55
 20
145.41
 30
0
 11
1370.53
 21
146.96
 31
0
  0
LINE
  5
14F
100
AcDbEntity
  8
200
100
AcDbLine
370
-1
  6
AUSGEZOGEN
 10
1374.55
 20
165.93
 30
0
 11
1374.55
 21
156.62
 31
0
  0
LINE
  5
150
100
AcDbEntity
  8
200
100
AcDbLine
370
-1
  6
AUSGEZOGEN
 10
1370.53
 20
155.07
 30
0
 11
1374.55
 21
156.62
 31
0
  0
LINE
  5
151
100
AcDbEntity
  8
200
100
AcDbLine
370
-1
  6
AUSGEZOGEN
 10
1366.5
 20
156.62
 30
0
 11
1370.53
 21
155.07
 31
0
  0
LINE
  5
152
100
AcDbEntity
  8
200
100
AcDbLine
370
-1
  6
AUSGEZOGEN
 10
1366.5
 20
165.93
 30
0
 11
1366.5
 21
156.62
 31
0
  0
LINE
  5
153
100
AcDbEntity
  8
200
100
AcDbLine
370
-1
  6
AUSGEZOGEN
 10
1370.53
 20
167.49
 30
0
 11
1366.5
 21
165.93
 31
0
  0
LINE
  5
154
100
AcDbEntity
  8
200
100
AcDbLine
370
-1
  6
AUSGEZOGEN
 10
1374.55
 20
165.93
 30
0
 11
1370.53
 21
167.49
 31
0
  0
LINE
  5
155
100
AcDbEntity
  8
200
100
AcDbLine
370
-1
  6
AUSGEZOGEN
 10
1370.53
 20
170.59
 30
0
 11
1374.55
 21
172.14
 31
0
  0
LINE
  5
156
100
AcDbEntity
  8
200
100
AcDbLine
370
-1
  6
AUSGEZOGEN
 10
1366.5
 20
172.14
 30
0
 11
1370.53
 21
170.59
 31
0
  0
LINE
  5
157
100
AcDbEntity
  8
200
100
AcDbLine
370
-1
  6
AUSGEZOGEN
 10
1370.53
 20
183
 30
0
 11
1366.5
 21
181.45
 31
0
  0
LINE
  5
158
100
AcDbEntity
  8
200
100
AcDbLine
370
-1
  6
AUSGEZOGEN
 10
1374.55
 20
181.45
 30
0
 11
1370.53
 21
183
 31
0
  0
LINE
  5
159
100
AcDbEntity
  8
200
100
AcDbLine
370
-1
  6
AUSGEZOGEN
 10
1387.24
 20
84.55
 30
0
 11
1383.21
 21
83
 31
0
  0
LINE
  5
15A
100
AcDbEntity
  8
200
100
AcDbLine
370
-1
  6
AUSGEZOGEN
 10
1379.2
 20
84.55
 30
0
 11
1383.21
 21
83
 31
0
  0
LINE
  5
15B
100
AcDbEntity
  8
200
100
AcDbLine
370
-1
  6
AUSGEZOGEN
 10
1383.21
 20
95.41
 30
0
 11
1379.2
 21
93.86
 31
0
  0
LINE
  5
15C
100
AcDbEntity
  8
200
100
AcDbLine
370
-1
  6
AUSGEZOGEN
 10
1387.24
 20
93.86
 30
0
 11
1383.21
 21
95.41
 31
0
  0
LINE
  5
15D
100
AcDbEntity
  8
200
100
AcDbLine
370
-1
  6
AUSGEZOGEN
 10
1387.24
 20
109.38
 30
0
 11
1387.24
 21
100.07
 31
0
  0
LINE
  5
15E
100
AcDbEntity
  8
200
100
AcDbLine
370
-1
  6
AUSGEZOGEN
 10
1383.21
 20
98.52
 30
0
 11
1387.24
 21
100.07
 31
0
  0
LINE
  5
15F
100
AcDbEntity
  8
200
100
AcDbLine
370
-1
  6
AUSGEZOGEN
 10
1379.2
 20
100.07
 30
0
 11
1383.21
 21
98.52
 31
0
  0
LINE
  5
160
100
AcDbEntity
  8
200
100
AcDbLine
370
-1
  6
AUSGEZOGEN
 10
1379.2
 20
109.38
 30
0
 11
1379.2
 21
100.07
 31
0
  0
LINE
  5
161
100
AcDbEntity
  8
200
100
AcDbLine
370
-1
  6
AUSGEZOGEN
 10
1383.21
 20
110.93
 30
0
 11
1379.2
 21
109.38
 31
0
  0
LINE
  5
162
100
AcDbEntity
  8
200
100
AcDbLine
370
-1
  6
AUSGEZOGEN
 10
1387.24
 20
109.38
 30
0
 11
1383.21
 21
110.93
 31
0
  0
LINE
  5
163
100
AcDbEntity
  8
200
100
AcDbLine
370
-1
  6
AUSGEZOGEN
 10
1383.21
 20
119.04
 30
0
 11
1387.24
 21
120.59
 31
0
  0
LINE
  5
164
100
AcDbEntity
  8
200
100
AcDbLine
370
-1
  6
AUSGEZOGEN
 10
1379.2
 20
120.59
 30
0
 11
1383.21
 21
119.04
 31
0
  0
LINE
  5
165
100
AcDbEntity
  8
200
100
AcDbLine
370
-1
  6
AUSGEZOGEN
 10
1383.21
 20
131.45
 30
0
 11
1379.2
 21
129.9
 31
0
  0
LINE
  5
166
100
AcDbEntity
  8
200
100
AcDbLine
370
-1
  6
AUSGEZOGEN
 10
1387.24
 20
129.9
 30
0
 11
1383.21
 21
131.45
 31
0
  0
LINE
  5
167
100
AcDbEntity
  8
200
100
AcDbLine
370
-1
  6
AUSGEZOGEN
 10
1387.24
 20
145.41
 30
0
 11
1387.24
 21
136.11
 31
0
  0
LINE
  5
168
100
AcDbEntity
  8
200
100
AcDbLine
370
-1
  6
AUSGEZOGEN
 10
1383.21
 20
134.55
 30
0
 11
1387.24
 21
136.11
 31
0
  0
LINE
  5
169
100
AcDbEntity
  8
200
100
AcDbLine
370
-1
  6
AUSGEZOGEN
 10
1379.2
 20
136.11
 30
0
 11
1383.21
 21
134.55
 31
0
  0
LINE
  5
16A
100
AcDbEntity
  8
200
100
AcDbLine
370
-1
  6
AUSGEZOGEN
 10
1379.2
 20
145.41
 30
0
 11
1379.2
 21
136.11
 31
0
  0
LINE
  5
16B
100
AcDbEntity
  8
200
100
AcDbLine
370
-1
  6
AUSGEZOGEN
 10
1383.21
 20
146.96
 30
0
 11
1379.2
 21
145.41
 31
0
  0
LINE
  5
16C
100
AcDbEntity
  8
200
100
AcDbLine
370
-1
  6
AUSGEZOGEN
 10
1387.24
 20
145.41
 30
0
 11
1383.21
 21
146.96
 31
0
  0
LINE
  5
16D
100
AcDbEntity
  8
200
100
AcDbLine
370
-1
  6
AUSGEZOGEN
 10
1387.24
 20
165.93
 30
0
 11
1387.24
 21
156.62
 31
0
  0
LINE
  5
16E
100
AcDbEntity
  8
200
100
AcDbLine
370
-1
  6
AUSGEZOGEN
 10
1383.21
 20
155.07
 30
0
 11
1387.24
 21
156.62
 31
0
  0
LINE
  5
16F
100
AcDbEntity
  8
200
100
AcDbLine
370
-1
  6
AUSGEZOGEN
 10
1379.2
 20
156.62
 30
0
 11
1383.21
 21
155.07
 31
0
  0
LINE
  5
170
100
AcDbEntity
  8
200
100
AcDbLine
370
-1
  6
AUSGEZOGEN
 10
1379.2
 20
165.93
 30
0
 11
1379.2
 21
156.62
 31
0
  0
LINE
  5
171
100
AcDbEntity
  8
200
100
AcDbLine
370
-1
  6
AUSGEZOGEN
 10
1383.21
 20
167.49
 30
0
 11
1379.2
 21
165.93
 31
0
  0
LINE
  5
172
100
AcDbEntity
  8
200
100
AcDbLine
370
-1
  6
AUSGEZOGEN
 10
1387.24
 20
165.93
 30
0
 11
1383.21
 21
167.49
 31
0
  0
LINE
  5
173
100
AcDbEntity
  8
200
100
AcDbLine
370
-1
  6
AUSGEZOGEN
 10
1383.21
 20
170.59
 30
0
 11
1387.24
 21
172.14
 31
0
  0
LINE
  5
174
100
AcDbEntity
  8
200
100
AcDbLine
370
-1
  6
AUSGEZOGEN
 10
1379.2
 20
172.14
 30
0
 11
1383.21
 21
170.59
 31
0
  0
LINE
  5
175
100
AcDbEntity
  8
200
100
AcDbLine
370
-1
  6
AUSGEZOGEN
 10
1383.21
 20
183
 30
0
 11
1379.2
 21
181.45
 31
0
  0
LINE
  5
176
100
AcDbEntity
  8
200
100
AcDbLine
370
-1
  6
AUSGEZOGEN
 10
1387.24
 20
181.45
 30
0
 11
1383.21
 21
183
 31
0
  0
LINE
  5
177
100
AcDbEntity
  8
200
100
AcDbLine
370
-1
  6
AUSGEZOGEN
 10
1399.93
 20
84.55
 30
0
 11
1395.91
 21
83
 31
0
  0
LINE
  5
178
100
AcDbEntity
  8
200
100
AcDbLine
370
-1
  6
AUSGEZOGEN
 10
1391.88
 20
84.55
 30
0
 11
1395.91
 21
83
 31
0
  0
LINE
  5
179
100
AcDbEntity
  8
200
100
AcDbLine
370
-1
  6
AUSGEZOGEN
 10
1395.91
 20
95.41
 30
0
 11
1391.88
 21
93.86
 31
0
  0
LINE
  5
17A
100
AcDbEntity
  8
200
100
AcDbLine
370
-1
  6
AUSGEZOGEN
 10
1399.93
 20
93.86
 30
0
 11
1395.91
 21
95.41
 31
0
  0
LINE
  5
17B
100
AcDbEntity
  8
200
100
AcDbLine
370
-1
  6
AUSGEZOGEN
 10
1399.93
 20
109.38
 30
0
 11
1399.93
 21
100.07
 31
0
  0
LINE
  5
17C
100
AcDbEntity
  8
200
100
AcDbLine
370
-1
  6
AUSGEZOGEN
 10
1395.91
 20
98.52
 30
0
 11
1399.93
 21
100.07
 31
0
  0
LINE
  5
17D
100
AcDbEntity
  8
200
100
AcDbLine
370
-1
  6
AUSGEZOGEN
 10
1391.88
 20
100.07
 30
0
 11
1395.91
 21
98.52
 31
0
  0
LINE
  5
17E
100
AcDbEntity
  8
200
100
AcDbLine
370
-1
  6
AUSGEZOGEN
 10
1391.88
 20
109.38
 30
0
 11
1391.88
 21
100.07
 31
0
  0
LINE
  5
17F
100
AcDbEntity
  8
200
100
AcDbLine
370
-1
  6
AUSGEZOGEN
 10
1395.91
 20
110.93
 30
0
 11
1391.88
 21
109.38
 31
0
  0
LINE
  5
180
100
AcDbEntity
  8
200
100
AcDbLine
370
-1
  6
AUSGEZOGEN
 10
1399.93
 20
109.38
 30
0
 11
1395.91
 21
110.93
 31
0
  0
LINE
  5
181
100
AcDbEntity
  8
200
100
AcDbLine
370
-1
  6
AUSGEZOGEN
 10
1395.91
 20
119.04
 30
0
 11
1399.93
 21
120.59
 31
0
  0
LINE
  5
182
100
AcDbEntity
  8
200
100
AcDbLine
370
-1
  6
AUSGEZOGEN
 10
1391.88
 20
120.59
 30
0
 11
1395.91
 21
119.04
 31
0
  0
LINE
  5
183
100
AcDbEntity
  8
200
100
AcDbLine
370
-1
  6
AUSGEZOGEN
 10
1395.91
 20
131.45
 30
0
 11
1391.88
 21
129.9
 31
0
  0
LINE
  5
184
100
AcDbEntity
  8
200
100
AcDbLine
370
-1
  6
AUSGEZOGEN
 10
1399.93
 20
129.9
 30
0
 11
1395.91
 21
131.45
 31
0
  0
LINE
  5
185
100
AcDbEntity
  8
200
100
AcDbLine
370
-1
  6
AUSGEZOGEN
 10
1399.93
 20
145.41
 30
0
 11
1399.93
 21
136.11
 31
0
  0
LINE
  5
186
100
AcDbEntity
  8
200
100
AcDbLine
370
-1
  6
AUSGEZOGEN
 10
1395.91
 20
134.55
 30
0
 11
1399.93
 21
136.11
 31
0
  0
LINE
  5
187
100
AcDbEntity
  8
200
100
AcDbLine
370
-1
  6
AUSGEZOGEN
 10
1391.88
 20
136.11
 30
0
 11
1395.91
 21
134.55
 31
0
  0
LINE
  5
188
100
AcDbEntity
  8
200
100
AcDbLine
370
-1
  6
AUSGEZOGEN
 10
1391.88
 20
145.41
 30
0
 11
1391.88
 21
136.11
 31
0
  0
LINE
  5
189
100
AcDbEntity
  8
200
100
AcDbLine
370
-1
  6
AUSGEZOGEN
 10
1395.91
 20
146.96
 30
0
 11
1391.88
 21
145.41
 31
0
  0
LINE
  5
18A
100
AcDbEntity
  8
200
100
AcDbLine
370
-1
  6
AUSGEZOGEN
 10
1399.93
 20
145.41
 30
0
 11
1395.91
 21
146.96
 31
0
  0
LINE
  5
18B
100
AcDbEntity
  8
200
100
AcDbLine
370
-1
  6
AUSGEZOGEN
 10
1399.93
 20
165.93
 30
0
 11
1399.93
 21
156.62
 31
0
  0
LINE
  5
18C
100
AcDbEntity
  8
200
100
AcDbLine
370
-1
  6
AUSGEZOGEN
 10
1395.91
 20
155.07
 30
0
 11
1399.93
 21
156.62
 31
0
  0
LINE
  5
18D
100
AcDbEntity
  8
200
100
AcDbLine
370
-1
  6
AUSGEZOGEN
 10
1391.88
 20
156.62
 30
0
 11
1395.91
 21
155.07
 31
0
  0
LINE
  5
18E
100
AcDbEntity
  8
200
100
AcDbLine
370
-1
  6
AUSGEZOGEN
 10
1391.88
 20
165.93
 30
0
 11
1391.88
 21
156.62
 31
0
  0
LINE
  5
18F
100
AcDbEntity
  8
200
100
AcDbLine
370
-1
  6
AUSGEZOGEN
 10
1395.91
 20
167.49
 30
0
 11
1391.88
 21
165.93
 31
0
  0
LINE
  5
190
100
AcDbEntity
  8
200
100
AcDbLine
370
-1
  6
AUSGEZOGEN
 10
1399.93
 20
165.93
 30
0
 11
1395.91
 21
167.49
 31
0
  0
LINE
  5
191
100
AcDbEntity
  8
200
100
AcDbLine
370
-1
  6
AUSGEZOGEN
 10
1395.91
 20
170.59
 30
0
 11
1399.93
 21
172.14
 31
0
  0
LINE
  5
192
100
AcDbEntity
  8
200
100
AcDbLine
370
-1
  6
AUSGEZOGEN
 10
1391.88
 20
172.14
 30
0
 11
1395.91
 21
170.59
 31
0
  0
LINE
  5
193
100
AcDbEntity
  8
200
100
AcDbLine
370
-1
  6
AUSGEZOGEN
 10
1395.91
 20
183
 30
0
 11
1391.88
 21
181.45
 31
0
  0
LINE
  5
194
100
AcDbEntity
  8
200
100
AcDbLine
370
-1
  6
AUSGEZOGEN
 10
1399.93
 20
181.45
 30
0
 11
1395.91
 21
183
 31
0
  0
LINE
  5
195
100
AcDbEntity
  8
200
100
AcDbLine
370
-1
  6
AUSGEZOGEN
 10
1412.62
 20
84.55
 30
0
 11
1408.59
 21
83
 31
0
  0
LINE
  5
196
100
AcDbEntity
  8
200
100
AcDbLine
370
-1
  6
AUSGEZOGEN
 10
1404.58
 20
84.55
 30
0
 11
1408.59
 21
83
 31
0
  0
LINE
  5
197
100
AcDbEntity
  8
200
100
AcDbLine
370
-1
  6
AUSGEZOGEN
 10
1408.59
 20
95.41
 30
0
 11
1404.58
 21
93.86
 31
0
  0
LINE
  5
198
100
AcDbEntity
  8
200
100
AcDbLine
370
-1
  6
AUSGEZOGEN
 10
1412.62
 20
93.86
 30
0
 11
1408.59
 21
95.41
 31
0
  0
LINE
  5
199
100
AcDbEntity
  8
200
100
AcDbLine
370
-1
  6
AUSGEZOGEN
 10
1412.62
 20
109.38
 30
0
 11
1412.62
 21
100.07
 31
0
  0
LINE
  5
19A
100
AcDbEntity
  8
200
100
AcDbLine
370
-1
  6
AUSGEZOGEN
 10
1408.59
 20
98.52
 30
0
 11
1412.62
 21
100.07
 31
0
  0
LINE
  5
19B
100
AcDbEntity
  8
200
100
AcDbLine
370
-1
  6
AUSGEZOGEN
 10
1404.58
 20
100.07
 30
0
 11
1408.59
 21
98.52
 31
0
  0
LINE
  5
19C
100
AcDbEntity
  8
200
100
AcDbLine
370
-1
  6
AUSGEZOGEN
 10
1404.58
 20
109.38
 30
0
 11
1404.58
 21
100.07
 31
0
  0
LINE
  5
19D
100
AcDbEntity
  8
200
100
AcDbLine
370
-1
  6
AUSGEZOGEN
 10
1408.59
 20
110.93
 30
0
 11
1404.58
 21
109.38
 31
0
  0
LINE
  5
19E
100
AcDbEntity
  8
200
100
AcDbLine
370
-1
  6
AUSGEZOGEN
 10
1412.62
 20
109.38
 30
0
 11
1408.59
 21
110.93
 31
0
  0
LINE
  5
19F
100
AcDbEntity
  8
200
100
AcDbLine
370
-1
  6
AUSGEZOGEN
 10
1408.59
 20
119.04
 30
0
 11
1412.62
 21
120.59
 31
0
  0
LINE
  5
1A0
100
AcDbEntity
  8
200
100
AcDbLine
370
-1
  6
AUSGEZOGEN
 10
1404.58
 20
120.59
 30
0
 11
1408.59
 21
119.04
 31
0
  0
LINE
  5
1A1
100
AcDbEntity
  8
200
100
AcDbLine
370
-1
  6
AUSGEZOGEN
 10
1408.59
 20
131.45
 30
0
 11
1404.58
 21
129.9
 31
0
  0
LINE
  5
1A2
100
AcDbEntity
  8
200
100
AcDbLine
370
-1
  6
AUSGEZOGEN
 10
1412.62
 20
129.9
 30
0
 11
1408.59
 21
131.45
 31
0
  0
LINE
  5
1A3
100
AcDbEntity
  8
200
100
AcDbLine
370
-1
  6
AUSGEZOGEN
 10
1412.62
 20
145.41
 30
0
 11
1412.62
 21
136.11
 31
0
  0
LINE
  5
1A4
100
AcDbEntity
  8
200
100
AcDbLine
370
-1
  6
AUSGEZOGEN
 10
1408.59
 20
134.55
 30
0
 11
1412.62
 21
136.11
 31
0
  0
LINE
  5
1A5
100
AcDbEntity
  8
200
100
AcDbLine
370
-1
  6
AUSGEZOGEN
 10
1404.58
 20
136.11
 30
0
 11
1408.59
 21
134.55
 31
0
  0
LINE
  5
1A6
100
AcDbEntity
  8
200
100
AcDbLine
370
-1
  6
AUSGEZOGEN
 10
1404.58
 20
145.41
 30
0
 11
1404.58
 21
136.11
 31
0
  0
LINE
  5
1A7
100
AcDbEntity
  8
200
100
AcDbLine
370
-1
  6
AUSGEZOGEN
 10
1408.59
 20
146.96
 30
0
 11
1404.58
 21
145.41
 31
0
  0
LINE
  5
1A8
100
AcDbEntity
  8
200
100
AcDbLine
370
-1
  6
AUSGEZOGEN
 10
1412.62
 20
145.41
 30
0
 11
1408.59
 21
146.96
 31
0
  0
LINE
  5
1A9
100
AcDbEntity
  8
200
100
AcDbLine
370
-1
  6
AUSGEZOGEN
 10
1412.62
 20
165.93
 30
0
 11
1412.62
 21
156.62
 31
0
  0
LINE
  5
1AA
100
AcDbEntity
  8
200
100
AcDbLine
370
-1
  6
AUSGEZOGEN
 10
1408.59
 20
155.07
 30
0
 11
1412.62
 21
156.62
 31
0
  0
LINE
  5
1AB
100
AcDbEntity
  8
200
100
AcDbLine
370
-1
  6
AUSGEZOGEN
 10
1404.58
 20
156.62
 30
0
 11
1408.59
 21
155.07
 31
0
  0
LINE
  5
1AC
100
AcDbEntity
  8
200
100
AcDbLine
370
-1
  6
AUSGEZOGEN
 10
1404.58
 20
165.93
 30
0
 11
1404.58
 21
156.62
 31
0
  0
LINE
  5
1AD
100
AcDbEntity
  8
200
100
AcDbLine
370
-1
  6
AUSGEZOGEN
 10
1408.59
 20
167.49
 30
0
 11
1404.58
 21
165.93
 31
0
  0
LINE
  5
1AE
100
AcDbEntity
  8
200
100
AcDbLine
370
-1
  6
AUSGEZOGEN
 10
1412.62
 20
165.93
 30
0
 11
1408.59
 21
167.49
 31
0
  0
LINE
  5
1AF
100
AcDbEntity
  8
200
100
AcDbLine
370
-1
  6
AUSGEZOGEN
 10
1408.59
 20
170.59
 30
0
 11
1412.62
 21
172.14
 31
0
  0
LINE
  5
1B0
100
AcDbEntity
  8
200
100
AcDbLine
370
-1
  6
AUSGEZOGEN
 10
1404.58
 20
172.14
 30
0
 11
1408.59
 21
170.59
 31
0
  0
LINE
  5
1B1
100
AcDbEntity
  8
200
100
AcDbLine
370
-1
  6
AUSGEZOGEN
 10
1408.59
 20
183
 30
0
 11
1404.58
 21
181.45
 31
0
  0
LINE
  5
1B2
100
AcDbEntity
  8
200
100
AcDbLine
370
-1
  6
AUSGEZOGEN
 10
1412.62
 20
181.45
 30
0
 11
1408.59
 21
183
 31
0
  0
LINE
  5
1B3
100
AcDbEntity
  8
200
100
AcDbLine
370
-1
  6
AUSGEZOGEN
 10
1425.3
 20
84.55
 30
0
 11
1421.29
 21
83
 31
0
  0
LINE
  5
1B4
100
AcDbEntity
  8
200
100
AcDbLine
370
-1
  6
AUSGEZOGEN
 10
1417.26
 20
84.55
 30
0
 11
1421.29
 21
83
 31
0
  0
LINE
  5
1B5
100
AcDbEntity
  8
200
100
AcDbLine
370
-1
  6
AUSGEZOGEN
 10
1421.29
 20
95.41
 30
0
 11
1417.26
 21
93.86
 31
0
  0
LINE
  5
1B6
100
AcDbEntity
  8
200
100
AcDbLine
370
-1
  6
AUSGEZOGEN
 10
1425.3
 20
93.86
 30
0
 11
1421.29
 21
95.41
 31
0
  0
LINE
  5
1B7
100
AcDbEntity
  8
200
100
AcDbLine
370
-1
  6
AUSGEZOGEN
 10
1425.3
 20
109.38
 30
0
 11
1425.3
 21
100.07
 31
0
  0
LINE
  5
1B8
100
AcDbEntity
  8
200
100
AcDbLine
370
-1
  6
AUSGEZOGEN
 10
1421.29
 20
98.52
 30
0
 11
1425.3
 21
100.07
 31
0
  0
LINE
  5
1B9
100
AcDbEntity
  8
200
100
AcDbLine
370
-1
  6
AUSGEZOGEN
 10
1417.26
 20
100.07
 30
0
 11
1421.29
 21
98.52
 31
0
  0
LINE
  5
1BA
100
AcDbEntity
  8
200
100
AcDbLine
370
-1
  6
AUSGEZOGEN
 10
1417.26
 20
109.38
 30
0
 11
1417.26
 21
100.07
 31
0
  0
LINE
  5
1BB
100
AcDbEntity
  8
200
100
AcDbLine
370
-1
  6
AUSGEZOGEN
 10
1421.29
 20
110.93
 30
0
 11
1417.26
 21
109.38
 31
0
  0
LINE
  5
1BC
100
AcDbEntity
  8
200
100
AcDbLine
370
-1
  6
AUSGEZOGEN
 10
1425.3
 20
109.38
 30
0
 11
1421.29
 21
110.93
 31
0
  0
LINE
  5
1BD
100
AcDbEntity
  8
200
100
AcDbLine
370
-1
  6
AUSGEZOGEN
 10
1421.29
 20
119.04
 30
0
 11
1425.3
 21
120.59
 31
0
  0
LINE
  5
1BE
100
AcDbEntity
  8
200
100
AcDbLine
370
-1
  6
AUSGEZOGEN
 10
1417.26
 20
120.59
 30
0
 11
1421.29
 21
119.04
 31
0
  0
LINE
  5
1BF
100
AcDbEntity
  8
200
100
AcDbLine
370
-1
  6
AUSGEZOGEN
 10
1421.29
 20
131.45
 30
0
 11
1417.26
 21
129.9
 31
0
  0
LINE
  5
1C0
100
AcDbEntity
  8
200
100
AcDbLine
370
-1
  6
AUSGEZOGEN
 10
1425.3
 20
129.9
 30
0
 11
1421.29
 21
131.45
 31
0
  0
LINE
  5
1C1
100
AcDbEntity
  8
200
100
AcDbLine
370
-1
  6
AUSGEZOGEN
 10
1425.3
 20
145.41
 30
0
 11
1425.3
 21
136.11
 31
0
  0
LINE
  5
1C2
100
AcDbEntity
  8
200
100
AcDbLine
370
-1
  6
AUSGEZOGEN
 10
1421.29
 20
134.55
 30
0
 11
1425.3
 21
136.11
 31
0
  0
LINE
  5
1C3
100
AcDbEntity
  8
200
100
AcDbLine
370
-1
  6
AUSGEZOGEN
 10
1417.26
 20
136.11
 30
0
 11
1421.29
 21
134.55
 31
0
  0
LINE
  5
1C4
100
AcDbEntity
  8
200
100
AcDbLine
370
-1
  6
AUSGEZOGEN
 10
1417.26
 20
145.41
 30
0
 11
1417.26
 21
136.11
 31
0
  0
LINE
  5
1C5
100
AcDbEntity
  8
200
100
AcDbLine
370
-1
  6
AUSGEZOGEN
 10
1421.29
 20
146.96
 30
0
 11
1417.26
 21
145.41
 31
0
  0
LINE
  5
1C6
100
AcDbEntity
  8
200
100
AcDbLine
370
-1
  6
AUSGEZOGEN
 10
1425.3
 20
145.41
 30
0
 11
1421.29
 21
146.96
 31
0
  0
LINE
  5
1C7
100
AcDbEntity
  8
200
100
AcDbLine
370
-1
  6
AUSGEZOGEN
 10
1425.3
 20
165.93
 30
0
 11
1425.3
 21
156.62
 31
0
  0
LINE
  5
1C8
100
AcDbEntity
  8
200
100
AcDbLine
370
-1
  6
AUSGEZOGEN
 10
1421.29
 20
155.07
 30
0
 11
1425.3
 21
156.62
 31
0
  0
LINE
  5
1C9
100
AcDbEntity
  8
200
100
AcDbLine
370
-1
  6
AUSGEZOGEN
 10
1417.26
 20
156.62
 30
0
 11
1421.29
 21
155.07
 31
0
  0
LINE
  5
1CA
100
AcDbEntity
  8
200
100
AcDbLine
370
-1
  6
AUSGEZOGEN
 10
1417.26
 20
165.93
 30
0
 11
1417.26
 21
156.62
 31
0
  0
LINE
  5
1CB
100
AcDbEntity
  8
200
100
AcDbLine
370
-1
  6
AUSGEZOGEN
 10
1421.29
 20
167.49
 30
0
 11
1417.26
 21
165.93
 31
0
  0
LINE
  5
1CC
100
AcDbEntity
  8
200
100
AcDbLine
370
-1
  6
AUSGEZOGEN
 10
1425.3
 20
165.93
 30
0
 11
1421.29
 21
167.49
 31
0
  0
LINE
  5
1CD
100
AcDbEntity
  8
200
100
AcDbLine
370
-1
  6
AUSGEZOGEN
 10
1421.29
 20
170.59
 30
0
 11
1425.3
 21
172.14
 31
0
  0
LINE
  5
1CE
100
AcDbEntity
  8
200
100
AcDbLine
370
-1
  6
AUSGEZOGEN
 10
1417.26
 20
172.14
 30
0
 11
1421.29
 21
170.59
 31
0
  0
LINE
  5
1CF
100
AcDbEntity
  8
200
100
AcDbLine
370
-1
  6
AUSGEZOGEN
 10
1421.29
 20
183
 30
0
 11
1417.26
 21
181.45
 31
0
  0
LINE
  5
1D0
100
AcDbEntity
  8
200
100
AcDbLine
370
-1
  6
AUSGEZOGEN
 10
1425.3
 20
181.45
 30
0
 11
1421.29
 21
183
 31
0
  0
LINE
  5
1D1
100
AcDbEntity
  8
200
100
AcDbLine
370
-1
  6
AUSGEZOGEN
 10
1438
 20
84.55
 30
0
 11
1433.97
 21
83
 31
0
  0
LINE
  5
1D2
100
AcDbEntity
  8
200
100
AcDbLine
370
-1
  6
AUSGEZOGEN
 10
1429.95
 20
84.55
 30
0
 11
1433.97
 21
83
 31
0
  0
LINE
  5
1D3
100
AcDbEntity
  8
200
100
AcDbLine
370
-1
  6
AUSGEZOGEN
 10
1433.97
 20
95.41
 30
0
 11
1429.95
 21
93.86
 31
0
  0
LINE
  5
1D4
100
AcDbEntity
  8
200
100
AcDbLine
370
-1
  6
AUSGEZOGEN
 10
1438
 20
93.86
 30
0
 11
1433.97
 21
95.41
 31
0
  0
LINE
  5
1D5
100
AcDbEntity
  8
200
100
AcDbLine
370
-1
  6
AUSGEZOGEN
 10
1438
 20
109.38
 30
0
 11
1438
 21
100.07
 31
0
  0
LINE
  5
1D6
100
AcDbEntity
  8
200
100
AcDbLine
370
-1
  6
AUSGEZOGEN
 10
1433.97
 20
98.52
 30
0
 11
1438
 21
100.07
 31
0
  0
LINE
  5
1D7
100
AcDbEntity
  8
200
100
AcDbLine
370
-1
  6
AUSGEZOGEN
 10
1429.95
 20
100.07
 30
0
 11
1433.97
 21
98.52
 31
0
  0
LINE
  5
1D8
100
AcDbEntity
  8
200
100
AcDbLine
370
-1
  6
AUSGEZOGEN
 10
1429.95
 20
109.38
 30
0
 11
1429.95
 21
100.07
 31
0
  0
LINE
  5
1D9
100
AcDbEntity
  8
200
100
AcDbLine
370
-1
  6
AUSGEZOGEN
 10
1433.97
 20
110.93
 30
0
 11
1429.95
 21
109.38
 31
0
  0
LINE
  5
1DA
100
AcDbEntity
  8
200
100
AcDbLine
370
-1
  6
AUSGEZOGEN
 10
1438
 20
109.38
 30
0
 11
1433.97
 21
110.93
 31
0
  0
LINE
  5
1DB
100
AcDbEntity
  8
200
100
AcDbLine
370
-1
  6
AUSGEZOGEN
 10
1433.97
 20
119.04
 30
0
 11
1438
 21
120.59
 31
0
  0
LINE
  5
1DC
100
AcDbEntity
  8
200
100
AcDbLine
370
-1
  6
AUSGEZOGEN
 10
1429.95
 20
120.59
 30
0
 11
1433.97
 21
119.04
 31
0
  0
LINE
  5
1DD
100
AcDbEntity
  8
200
100
AcDbLine
370
-1
  6
AUSGEZOGEN
 10
1433.97
 20
131.45
 30
0
 11
1429.95
 21
129.9
 31
0
  0
LINE
  5
1DE
100
AcDbEntity
  8
200
100
AcDbLine
370
-1
  6
AUSGEZOGEN
 10
1438
 20
129.9
 30
0
 11
1433.97
 21
131.45
 31
0
  0
LINE
  5
1DF
100
AcDbEntity
  8
200
100
AcDbLine
370
-1
  6
AUSGEZOGEN
 10
1438
 20
145.41
 30
0
 11
1438
 21
136.11
 31
0
  0
LINE
  5
1E0
100
AcDbEntity
  8
200
100
AcDbLine
370
-1
  6
AUSGEZOGEN
 10
1433.97
 20
134.55
 30
0
 11
1438
 21
136.11
 31
0
  0
LINE
  5
1E1
100
AcDbEntity
  8
200
100
AcDbLine
370
-1
  6
AUSGEZOGEN
 10
1429.95
 20
136.11
 30
0
 11
1433.97
 21
134.55
 31
0
  0
LINE
  5
1E2
100
AcDbEntity
  8
200
100
AcDbLine
370
-1
  6
AUSGEZOGEN
 10
1429.95
 20
145.41
 30
0
 11
1429.95
 21
136.11
 31
0
  0
LINE
  5
1E3
100
AcDbEntity
  8
200
100
AcDbLine
370
-1
  6
AUSGEZOGEN
 10
1433.97
 20
146.96
 30
0
 11
1429.95
 21
145.41
 31
0
  0
LINE
  5
1E4
100
AcDbEntity
  8
200
100
AcDbLine
370
-1
  6
AUSGEZOGEN
 10
1438
 20
145.41
 30
0
 11
1433.97
 21
146.96
 31
0
  0
LINE
  5
1E5
100
AcDbEntity
  8
200
100
AcDbLine
370
-1
  6
AUSGEZOGEN
 10
1438
 20
165.93
 30
0
 11
1438
 21
156.62
 31
0
  0
LINE
  5
1E6
100
AcDbEntity
  8
200
100
AcDbLine
370
-1
  6
AUSGEZOGEN
 10
1433.97
 20
155.07
 30
0
 11
1438
 21
156.62
 31
0
  0
LINE
  5
1E7
100
AcDbEntity
  8
200
100
AcDbLine
370
-1
  6
AUSGEZOGEN
 10
1429.95
 20
156.62
 30
0
 11
1433.97
 21
155.07
 31
0
  0
LINE
  5
1E8
100
AcDbEntity
  8
200
100
AcDbLine
370
-1
  6
AUSGEZOGEN
 10
1429.95
 20
165.93
 30
0
 11
1429.95
 21
156.62
 31
0
  0
LINE
  5
1E9
100
AcDbEntity
  8
200
100
AcDbLine
370
-1
  6
AUSGEZOGEN
 10
1433.97
 20
167.49
 30
0
 11
1429.95
 21
165.93
 31
0
  0
LINE
  5
1EA
100
AcDbEntity
  8
200
100
AcDbLine
370
-1
  6
AUSGEZOGEN
 10
1438
 20
165.93
 30
0
 11
1433.97
 21
167.49
 31
0
  0
LINE
  5
1EB
100
AcDbEntity
  8
200
100
AcDbLine
370
-1
  6
AUSGEZOGEN
 10
1433.97
 20
170.59
 30
0
 11
1438
 21
172.14
 31
0
  0
LINE
  5
1EC
100
AcDbEntity
  8
200
100
AcDbLine
370
-1
  6
AUSGEZOGEN
 10
1429.95
 20
172.14
 30
0
 11
1433.97
 21
170.59
 31
0
  0
LINE
  5
1ED
100
AcDbEntity
  8
200
100
AcDbLine
370
-1
  6
AUSGEZOGEN
 10
1433.97
 20
183
 30
0
 11
1429.95
 21
181.45
 31
0
  0
LINE
  5
1EE
100
AcDbEntity
  8
200
100
AcDbLine
370
-1
  6
AUSGEZOGEN
 10
1438
 20
181.45
 30
0
 11
1433.97
 21
183
 31
0
  0
LINE
  5
1EF
100
AcDbEntity
  8
200
100
AcDbLine
370
-1
  6
AUSGEZOGEN
 10
1450.68
 20
84.55
 30
0
 11
1446.66
 21
83
 31
0
  0
LINE
  5
1F0
100
AcDbEntity
  8
200
100
AcDbLine
370
-1
  6
AUSGEZOGEN
 10
1442.64
 20
84.55
 30
0
 11
1446.66
 21
83
 31
0
  0
LINE
  5
1F1
100
AcDbEntity
  8
200
100
AcDbLine
370
-1
  6
AUSGEZOGEN
 10
1446.66
 20
95.41
 30
0
 11
1442.64
 21
93.86
 31
0
  0
LINE
  5
1F2
100
AcDbEntity
  8
200
100
AcDbLine
370
-1
  6
AUSGEZOGEN
 10
1450.68
 20
93.86
 30
0
 11
1446.66
 21
95.41
 31
0
  0
LINE
  5
1F3
100
AcDbEntity
  8
200
100
AcDbLine
370
-1
  6
AUSGEZOGEN
 10
1450.68
 20
109.38
 30
0
 11
1450.68
 21
100.07
 31
0
  0
LINE
  5
1F4
100
AcDbEntity
  8
200
100
AcDbLine
370
-1
  6
AUSGEZOGEN
 10
1446.66
 20
98.52
 30
0
 11
1450.68
 21
100.07
 31
0
  0
LINE
  5
1F5
100
AcDbEntity
  8
200
100
AcDbLine
370
-1
  6
AUSGEZOGEN
 10
1442.64
 20
100.07
 30
0
 11
1446.66
 21
98.52
 31
0
  0
LINE
  5
1F6
100
AcDbEntity
  8
200
100
AcDbLine
370
-1
  6
AUSGEZOGEN
 10
1442.64
 20
109.38
 30
0
 11
1442.64
 21
100.07
 31
0
  0
LINE
  5
1F7
100
AcDbEntity
  8
200
100
AcDbLine
370
-1
  6
AUSGEZOGEN
 10
1446.66
 20
110.93
 30
0
 11
1442.64
 21
109.38
 31
0
  0
LINE
  5
1F8
100
AcDbEntity
  8
200
100
AcDbLine
370
-1
  6
AUSGEZOGEN
 10
1450.68
 20
109.38
 30
0
 11
1446.66
 21
110.93
 31
0
  0
LINE
  5
1F9
100
AcDbEntity
  8
200
100
AcDbLine
370
-1
  6
AUSGEZOGEN
 10
1446.66
 20
119.04
 30
0
 11
1450.68
 21
120.59
 31
0
  0
LINE
  5
1FA
100
AcDbEntity
  8
200
100
AcDbLine
370
-1
  6
AUSGEZOGEN
 10
1442.64
 20
120.59
 30
0
 11
1446.66
 21
119.04
 31
0
  0
LINE
  5
1FB
100
AcDbEntity
  8
200
100
AcDbLine
370
-1
  6
AUSGEZOGEN
 10
1446.66
 20
131.45
 30
0
 11
1442.64
 21
129.9
 31
0
  0
LINE
  5
1FC
100
AcDbEntity
  8
200
100
AcDbLine
370
-1
  6
AUSGEZOGEN
 10
1450.68
 20
129.9
 30
0
 11
1446.66
 21
131.45
 31
0
  0
LINE
  5
1FD
100
AcDbEntity
  8
200
100
AcDbLine
370
-1
  6
AUSGEZOGEN
 10
1450.68
 20
145.41
 30
0
 11
1450.68
 21
136.11
 31
0
  0
LINE
  5
1FE
100
AcDbEntity
  8
200
100
AcDbLine
370
-1
  6
AUSGEZOGEN
 10
1446.66
 20
134.55
 30
0
 11
1450.68
 21
136.11
 31
0
  0
LINE
  5
1FF
100
AcDbEntity
  8
200
100
AcDbLine
370
-1
  6
AUSGEZOGEN
 10
1442.64
 20
136.11
 30
0
 11
1446.66
 21
134.55
 31
0
  0
LINE
  5
200
100
AcDbEntity
  8
200
100
AcDbLine
370
-1
  6
AUSGEZOGEN
 10
1442.64
 20
145.41
 30
0
 11
1442.64
 21
136.11
 31
0
  0
LINE
  5
201
100
AcDbEntity
  8
200
100
AcDbLine
370
-1
  6
AUSGEZOGEN
 10
1446.66
 20
146.96
 30
0
 11
1442.64
 21
145.41
 31
0
  0
LINE
  5
202
100
AcDbEntity
  8
200
100
AcDbLine
370
-1
  6
AUSGEZOGEN
 10
1450.68
 20
145.41
 30
0
 11
1446.66
 21
146.96
 31
0
  0
LINE
  5
203
100
AcDbEntity
  8
200
100
AcDbLine
370
-1
  6
AUSGEZOGEN
 10
1450.68
 20
165.93
 30
0
 11
1450.68
 21
156.62
 31
0
  0
LINE
  5
204
100
AcDbEntity
  8
200
100
AcDbLine
370
-1
  6
AUSGEZOGEN
 10
1446.66
 20
155.07
 30
0
 11
1450.68
 21
156.62
 31
0
  0
LINE
  5
205
100
AcDbEntity
  8
200
100
AcDbLine
370
-1
  6
AUSGEZOGEN
 10
1442.64
 20
156.62
 30
0
 11
1446.66
 21
155.07
 31
0
  0
LINE
  5
206
100
AcDbEntity
  8
200
100
AcDbLine
370
-1
  6
AUSGEZOGEN
 10
1442.64
 20
165.93
 30
0
 11
1442.64
 21
156.62
 31
0
  0
LINE
  5
207
100
AcDbEntity
  8
200
100
AcDbLine
370
-1
  6
AUSGEZOGEN
 10
1446.66
 20
167.49
 30
0
 11
1442.64
 21
165.93
 31
0
  0
LINE
  5
208
100
AcDbEntity
  8
200
100
AcDbLine
370
-1
  6
AUSGEZOGEN
 10
1450.68
 20
165.93
 30
0
 11
1446.66
 21
167.49
 31
0
  0
LINE
  5
209
100
AcDbEntity
  8
200
100
AcDbLine
370
-1
  6
AUSGEZOGEN
 10
1446.66
 20
170.59
 30
0
 11
1450.68
 21
172.14
 31
0
  0
LINE
  5
20A
100
AcDbEntity
  8
200
100
AcDbLine
370
-1
  6
AUSGEZOGEN
 10
1442.64
 20
172.14
 30
0
 11
1446.66
 21
170.59
 31
0
  0
LINE
  5
20B
100
AcDbEntity
  8
200
100
AcDbLine
370
-1
  6
AUSGEZOGEN
 10
1446.66
 20
183
 30
0
 11
1442.64
 21
181.45
 31
0
  0
LINE
  5
20C
100
AcDbEntity
  8
200
100
AcDbLine
370
-1
  6
AUSGEZOGEN
 10
1450.68
 20
181.45
 30
0
 11
1446.66
 21
183
 31
0
  0
LINE
  5
20D
100
AcDbEntity
  8
200
100
AcDbLine
370
-1
  6
AUSGEZOGEN
 10
1463.37
 20
84.55
 30
0
 11
1459.35
 21
83
 31
0
  0
LINE
  5
20E
100
AcDbEntity
  8
200
100
AcDbLine
370
-1
  6
AUSGEZOGEN
 10
1455.32
 20
84.55
 30
0
 11
1459.35
 21
83
 31
0
  0
LINE
  5
20F
100
AcDbEntity
  8
200
100
AcDbLine
370
-1
  6
AUSGEZOGEN
 10
1459.35
 20
95.41
 30
0
 11
1455.32
 21
93.86
 31
0
  0
LINE
  5
210
100
AcDbEntity
  8
200
100
AcDbLine
370
-1
  6
AUSGEZOGEN
 10
1463.37
 20
93.86
 30
0
 11
1459.35
 21
95.41
 31
0
  0
LINE
  5
211
100
AcDbEntity
  8
200
100
AcDbLine
370
-1
  6
AUSGEZOGEN
 10
1463.37
 20
109.38
 30
0
 11
1463.37
 21
100.07
 31
0
  0
LINE
  5
212
100
AcDbEntity
  8
200
100
AcDbLine
370
-1
  6
AUSGEZOGEN
 10
1459.35
 20
98.52
 30
0
 11
1463.37
 21
100.07
 31
0
  0
LINE
  5
213
100
AcDbEntity
  8
200
100
AcDbLine
370
-1
  6
AUSGEZOGEN
 10
1455.32
 20
100.07
 30
0
 11
1459.35
 21
98.52
 31
0
  0
LINE
  5
214
100
AcDbEntity
  8
200
100
AcDbLine
370
-1
  6
AUSGEZOGEN
 10
1455.32
 20
109.38
 30
0
 11
1455.32
 21
100.07
 31
0
  0
LINE
  5
215
100
AcDbEntity
  8
200
100
AcDbLine
370
-1
  6
AUSGEZOGEN
 10
1459.35
 20
110.93
 30
0
 11
1455.32
 21
109.38
 31
0
  0
LINE
  5
216
100
AcDbEntity
  8
200
100
AcDbLine
370
-1
  6
AUSGEZOGEN
 10
1463.37
 20
109.38
 30
0
 11
1459.35
 21
110.93
 31
0
  0
LINE
  5
217
100
AcDbEntity
  8
200
100
AcDbLine
370
-1
  6
AUSGEZOGEN
 10
1459.35
 20
119.04
 30
0
 11
1463.37
 21
120.59
 31
0
  0
LINE
  5
218
100
AcDbEntity
  8
200
100
AcDbLine
370
-1
  6
AUSGEZOGEN
 10
1455.32
 20
120.59
 30
0
 11
1459.35
 21
119.04
 31
0
  0
LINE
  5
219
100
AcDbEntity
  8
200
100
AcDbLine
370
-1
  6
AUSGEZOGEN
 10
1459.35
 20
131.45
 30
0
 11
1455.32
 21
129.9
 31
0
  0
LINE
  5
21A
100
AcDbEntity
  8
200
100
AcDbLine
370
-1
  6
AUSGEZOGEN
 10
1463.37
 20
129.9
 30
0
 11
1459.35
 21
131.45
 31
0
  0
LINE
  5
21B
100
AcDbEntity
  8
200
100
AcDbLine
370
-1
  6
AUSGEZOGEN
 10
1463.37
 20
145.41
 30
0
 11
1463.37
 21
136.11
 31
0
  0
LINE
  5
21C
100
AcDbEntity
  8
200
100
AcDbLine
370
-1
  6
AUSGEZOGEN
 10
1459.35
 20
134.55
 30
0
 11
1463.37
 21
136.11
 31
0
  0
LINE
  5
21D
100
AcDbEntity
  8
200
100
AcDbLine
370
-1
  6
AUSGEZOGEN
 10
1455.32
 20
136.11
 30
0
 11
1459.35
 21
134.55
 31
0
  0
LINE
  5
21E
100
AcDbEntity
  8
200
100
AcDbLine
370
-1
  6
AUSGEZOGEN
 10
1455.32
 20
145.41
 30
0
 11
1455.32
 21
136.11
 31
0
  0
LINE
  5
21F
100
AcDbEntity
  8
200
100
AcDbLine
370
-1
  6
AUSGEZOGEN
 10
1459.35
 20
146.96
 30
0
 11
1455.32
 21
145.41
 31
0
  0
LINE
  5
220
100
AcDbEntity
  8
200
100
AcDbLine
370
-1
  6
AUSGEZOGEN
 10
1463.37
 20
145.41
 30
0
 11
1459.35
 21
146.96
 31
0
  0
LINE
  5
221
100
AcDbEntity
  8
200
100
AcDbLine
370
-1
  6
AUSGEZOGEN
 10
1463.37
 20
165.93
 30
0
 11
1463.37
 21
156.62
 31
0
  0
LINE
  5
222
100
AcDbEntity
  8
200
100
AcDbLine
370
-1
  6
AUSGEZOGEN
 10
1459.35
 20
155.07
 30
0
 11
1463.37
 21
156.62
 31
0
  0
LINE
  5
223
100
AcDbEntity
  8
200
100
AcDbLine
370
-1
  6
AUSGEZOGEN
 10
1455.32
 20
156.62
 30
0
 11
1459.35
 21
155.07
 31
0
  0
LINE
  5
224
100
AcDbEntity
  8
200
100
AcDbLine
370
-1
  6
AUSGEZOGEN
 10
1455.32
 20
165.93
 30
0
 11
1455.32
 21
156.62
 31
0
  0
LINE
  5
225
100
AcDbEntity
  8
200
100
AcDbLine
370
-1
  6
AUSGEZOGEN
 10
1459.35
 20
167.49
 30
0
 11
1455.32
 21
165.93
 31
0
  0
LINE
  5
226
100
AcDbEntity
  8
200
100
AcDbLine
370
-1
  6
AUSGEZOGEN
 10
1463.37
 20
165.93
 30
0
 11
1459.35
 21
167.49
 31
0
  0
LINE
  5
227
100
AcDbEntity
  8
200
100
AcDbLine
370
-1
  6
AUSGEZOGEN
 10
1459.35
 20
170.59
 30
0
 11
1463.37
 21
172.14
 31
0
  0
LINE
  5
228
100
AcDbEntity
  8
200
100
AcDbLine
370
-1
  6
AUSGEZOGEN
 10
1455.32
 20
172.14
 30
0
 11
1459.35
 21
170.59
 31
0
  0
LINE
  5
229
100
AcDbEntity
  8
200
100
AcDbLine
370
-1
  6
AUSGEZOGEN
 10
1459.35
 20
183
 30
0
 11
1455.32
 21
181.45
 31
0
  0
LINE
  5
22A
100
AcDbEntity
  8
200
100
AcDbLine
370
-1
  6
AUSGEZOGEN
 10
1463.37
 20
181.45
 30
0
 11
1459.35
 21
183
 31
0
  0
LINE
  5
22B
100
AcDbEntity
  8
200
100
AcDbLine
370
-1
  6
AUSGEZOGEN
 10
1455.32
 20
172.14
 30
0
 11
1455.32
 21
181.45
 31
0
  0
LINE
  5
22C
100
AcDbEntity
  8
200
100
AcDbLine
370
-1
  6
AUSGEZOGEN
 10
1463.37
 20
181.45
 30
0
 11
1463.37
 21
172.14
 31
0
  0
LINE
  5
22D
100
AcDbEntity
  8
200
100
AcDbLine
370
-1
  6
AUSGEZOGEN
 10
1455.32
 20
120.59
 30
0
 11
1455.32
 21
129.9
 31
0
  0
LINE
  5
22E
100
AcDbEntity
  8
200
100
AcDbLine
370
-1
  6
AUSGEZOGEN
 10
1463.37
 20
129.9
 30
0
 11
1463.37
 21
120.59
 31
0
  0
LINE
  5
22F
100
AcDbEntity
  8
200
100
AcDbLine
370
-1
  6
AUSGEZOGEN
 10
1455.32
 20
84.55
 30
0
 11
1455.32
 21
93.86
 31
0
  0
LINE
  5
230
100
AcDbEntity
  8
200
100
AcDbLine
370
-1
  6
AUSGEZOGEN
 10
1463.37
 20
93.86
 30
0
 11
1463.37
 21
84.55
 31
0
  0
LINE
  5
231
100
AcDbEntity
  8
200
100
AcDbLine
370
-1
  6
AUSGEZOGEN
 10
1442.64
 20
181.45
 30
0
 11
1442.64
 21
172.14
 31
0
  0
LINE
  5
232
100
AcDbEntity
  8
200
100
AcDbLine
370
-1
  6
AUSGEZOGEN
 10
1450.68
 20
172.14
 30
0
 11
1450.68
 21
181.45
 31
0
  0
LINE
  5
233
100
AcDbEntity
  8
200
100
AcDbLine
370
-1
  6
AUSGEZOGEN
 10
1442.64
 20
120.59
 30
0
 11
1442.64
 21
129.9
 31
0
  0
LINE
  5
234
100
AcDbEntity
  8
200
100
AcDbLine
370
-1
  6
AUSGEZOGEN
 10
1450.68
 20
129.9
 30
0
 11
1450.68
 21
120.59
 31
0
  0
LINE
  5
235
100
AcDbEntity
  8
200
100
AcDbLine
370
-1
  6
AUSGEZOGEN
 10
1442.64
 20
84.55
 30
0
 11
1442.64
 21
93.86
 31
0
  0
LINE
  5
236
100
AcDbEntity
  8
200
100
AcDbLine
370
-1
  6
AUSGEZOGEN
 10
1450.68
 20
93.86
 30
0
 11
1450.68
 21
84.55
 31
0
  0
LINE
  5
237
100
AcDbEntity
  8
200
100
AcDbLine
370
-1
  6
AUSGEZOGEN
 10
1429.95
 20
181.45
 30
0
 11
1429.95
 21
172.14
 31
0
  0
LINE
  5
238
100
AcDbEntity
  8
200
100
AcDbLine
370
-1
  6
AUSGEZOGEN
 10
1438
 20
172.14
 30
0
 11
1438
 21
181.45
 31
0
  0
LINE
  5
239
100
AcDbEntity
  8
200
100
AcDbLine
370
-1
  6
AUSGEZOGEN
 10
1429.95
 20
120.59
 30
0
 11
1429.95
 21
129.9
 31
0
  0
LINE
  5
23A
100
AcDbEntity
  8
200
100
AcDbLine
370
-1
  6
AUSGEZOGEN
 10
1438
 20
129.9
 30
0
 11
1438
 21
120.59
 31
0
  0
LINE
  5
23B
100
AcDbEntity
  8
200
100
AcDbLine
370
-1
  6
AUSGEZOGEN
 10
1429.95
 20
84.55
 30
0
 11
1429.95
 21
93.86
 31
0
  0
LINE
  5
23C
100
AcDbEntity
  8
200
100
AcDbLine
370
-1
  6
AUSGEZOGEN
 10
1438
 20
93.86
 30
0
 11
1438
 21
84.55
 31
0
  0
LINE
  5
23D
100
AcDbEntity
  8
200
100
AcDbLine
370
-1
  6
AUSGEZOGEN
 10
1417.26
 20
181.45
 30
0
 11
1417.26
 21
172.14
 31
0
  0
LINE
  5
23E
100
AcDbEntity
  8
200
100
AcDbLine
370
-1
  6
AUSGEZOGEN
 10
1425.3
 20
172.14
 30
0
 11
1425.3
 21
181.45
 31
0
  0
LINE
  5
23F
100
AcDbEntity
  8
200
100
AcDbLine
370
-1
  6
AUSGEZOGEN
 10
1417.26
 20
120.59
 30
0
 11
1417.26
 21
129.9
 31
0
  0
LINE
  5
240
100
AcDbEntity
  8
200
100
AcDbLine
370
-1
  6
AUSGEZOGEN
 10
1425.3
 20
129.9
 30
0
 11
1425.3
 21
120.59
 31
0
  0
LINE
  5
241
100
AcDbEntity
  8
200
100
AcDbLine
370
-1
  6
AUSGEZOGEN
 10
1417.26
 20
84.55
 30
0
 11
1417.26
 21
93.86
 31
0
  0
LINE
  5
242
100
AcDbEntity
  8
200
100
AcDbLine
370
-1
  6
AUSGEZOGEN
 10
1425.3
 20
93.86
 30
0
 11
1425.3
 21
84.55
 31
0
  0
LINE
  5
243
100
AcDbEntity
  8
200
100
AcDbLine
370
-1
  6
AUSGEZOGEN
 10
1404.58
 20
181.45
 30
0
 11
1404.58
 21
172.14
 31
0
  0
LINE
  5
244
100
AcDbEntity
  8
200
100
AcDbLine
370
-1
  6
AUSGEZOGEN
 10
1412.62
 20
172.14
 30
0
 11
1412.62
 21
181.45
 31
0
  0
LINE
  5
245
100
AcDbEntity
  8
200
100
AcDbLine
370
-1
  6
AUSGEZOGEN
 10
1404.58
 20
120.59
 30
0
 11
1404.58
 21
129.9
 31
0
  0
LINE
  5
246
100
AcDbEntity
  8
200
100
AcDbLine
370
-1
  6
AUSGEZOGEN
 10
1412.62
 20
129.9
 30
0
 11
1412.62
 21
120.59
 31
0
  0
LINE
  5
247
100
AcDbEntity
  8
200
100
AcDbLine
370
-1
  6
AUSGEZOGEN
 10
1404.58
 20
84.55
 30
0
 11
1404.58
 21
93.86
 31
0
  0
LINE
  5
248
100
AcDbEntity
  8
200
100
AcDbLine
370
-1
  6
AUSGEZOGEN
 10
1412.62
 20
93.86
 30
0
 11
1412.62
 21
84.55
 31
0
  0
LINE
  5
249
100
AcDbEntity
  8
200
100
AcDbLine
370
-1
  6
AUSGEZOGEN
 10
1391.88
 20
181.45
 30
0
 11
1391.88
 21
172.14
 31
0
  0
LINE
  5
24A
100
AcDbEntity
  8
200
100
AcDbLine
370
-1
  6
AUSGEZOGEN
 10
1399.93
 20
172.14
 30
0
 11
1399.93
 21
181.45
 31
0
  0
LINE
  5
24B
100
AcDbEntity
  8
200
100
AcDbLine
370
-1
  6
AUSGEZOGEN
 10
1391.88
 20
120.59
 30
0
 11
1391.88
 21
129.9
 31
0
  0
LINE
  5
24C
100
AcDbEntity
  8
200
100
AcDbLine
370
-1
  6
AUSGEZOGEN
 10
1399.93
 20
129.9
 30
0
 11
1399.93
 21
120.59
 31
0
  0
LINE
  5
24D
100
AcDbEntity
  8
200
100
AcDbLine
370
-1
  6
AUSGEZOGEN
 10
1391.88
 20
84.55
 30
0
 11
1391.88
 21
93.86
 31
0
  0
LINE
  5
24E
100
AcDbEntity
  8
200
100
AcDbLine
370
-1
  6
AUSGEZOGEN
 10
1399.93
 20
93.86
 30
0
 11
1399.93
 21
84.55
 31
0
  0
LINE
  5
24F
100
AcDbEntity
  8
200
100
AcDbLine
370
-1
  6
AUSGEZOGEN
 10
1379.2
 20
181.45
 30
0
 11
1379.2
 21
172.14
 31
0
  0
LINE
  5
250
100
AcDbEntity
  8
200
100
AcDbLine
370
-1
  6
AUSGEZOGEN
 10
1387.24
 20
172.14
 30
0
 11
1387.24
 21
181.45
 31
0
  0
LINE
  5
251
100
AcDbEntity
  8
200
100
AcDbLine
370
-1
  6
AUSGEZOGEN
 10
1379.2
 20
120.59
 30
0
 11
1379.2
 21
129.9
 31
0
  0
LINE
  5
252
100
AcDbEntity
  8
200
100
AcDbLine
370
-1
  6
AUSGEZOGEN
 10
1387.24
 20
129.9
 30
0
 11
1387.24
 21
120.59
 31
0
  0
LINE
  5
253
100
AcDbEntity
  8
200
100
AcDbLine
370
-1
  6
AUSGEZOGEN
 10
1379.2
 20
84.55
 30
0
 11
1379.2
 21
93.86
 31
0
  0
LINE
  5
254
100
AcDbEntity
  8
200
100
AcDbLine
370
-1
  6
AUSGEZOGEN
 10
1387.24
 20
93.86
 30
0
 11
1387.24
 21
84.55
 31
0
  0
LINE
  5
255
100
AcDbEntity
  8
200
100
AcDbLine
370
-1
  6
AUSGEZOGEN
 10
1366.5
 20
181.45
 30
0
 11
1366.5
 21
172.14
 31
0
  0
LINE
  5
256
100
AcDbEntity
  8
200
100
AcDbLine
370
-1
  6
AUSGEZOGEN
 10
1374.55
 20
172.14
 30
0
 11
1374.55
 21
181.45
 31
0
  0
LINE
  5
257
100
AcDbEntity
  8
200
100
AcDbLine
370
-1
  6
AUSGEZOGEN
 10
1366.5
 20
120.59
 30
0
 11
1366.5
 21
129.9
 31
0
  0
LINE
  5
258
100
AcDbEntity
  8
200
100
AcDbLine
370
-1
  6
AUSGEZOGEN
 10
1374.55
 20
129.9
 30
0
 11
1374.55
 21
120.59
 31
0
  0
LINE
  5
259
100
AcDbEntity
  8
200
100
AcDbLine
370
-1
  6
AUSGEZOGEN
 10
1366.5
 20
84.55
 30
0
 11
1366.5
 21
93.86
 31
0
  0
LINE
  5
25A
100
AcDbEntity
  8
200
100
AcDbLine
370
-1
  6
AUSGEZOGEN
 10
1374.55
 20
93.86
 30
0
 11
1374.55
 21
84.55
 31
0
  0
LINE
  5
25B
100
AcDbEntity
  8
200
100
AcDbLine
370
-1
  6
AUSGEZOGEN
 10
1353.82
 20
181.45
 30
0
 11
1353.82
 21
172.14
 31
0
  0
LINE
  5
25C
100
AcDbEntity
  8
200
100
AcDbLine
370
-1
  6
AUSGEZOGEN
 10
1361.86
 20
172.14
 30
0
 11
1361.86
 21
181.45
 31
0
  0
LINE
  5
25D
100
AcDbEntity
  8
200
100
AcDbLine
370
-1
  6
AUSGEZOGEN
 10
1353.82
 20
120.59
 30
0
 11
1353.82
 21
129.9
 31
0
  0
LINE
  5
25E
100
AcDbEntity
  8
200
100
AcDbLine
370
-1
  6
AUSGEZOGEN
 10
1361.86
 20
129.9
 30
0
 11
1361.86
 21
120.59
 31
0
  0
LINE
  5
25F
100
AcDbEntity
  8
200
100
AcDbLine
370
-1
  6
AUSGEZOGEN
 10
1353.82
 20
84.55
 30
0
 11
1353.82
 21
93.86
 31
0
  0
LINE
  5
260
100
AcDbEntity
  8
200
100
AcDbLine
370
-1
  6
AUSGEZOGEN
 10
1361.86
 20
93.86
 30
0
 11
1361.86
 21
84.55
 31
0
  0
LINE
  5
261
100
AcDbEntity
  8
200
100
AcDbLine
370
-1
  6
AUSGEZOGEN
 10
1341.13
 20
181.45
 30
0
 11
1341.13
 21
172.14
 31
0
  0
LINE
  5
262
100
AcDbEntity
  8
200
100
AcDbLine
370
-1
  6
AUSGEZOGEN
 10
1349.18
 20
172.14
 30
0
 11
1349.18
 21
181.45
 31
0
  0
LINE
  5
263
100
AcDbEntity
  8
200
100
AcDbLine
370
-1
  6
AUSGEZOGEN
 10
1341.13
 20
120.59
 30
0
 11
1341.13
 21
129.9
 31
0
  0
LINE
  5
264
100
AcDbEntity
  8
200
100
AcDbLine
370
-1
  6
AUSGEZOGEN
 10
1349.18
 20
129.9
 30
0
 11
1349.18
 21
120.59
 31
0
  0
LINE
  5
265
100
AcDbEntity
  8
200
100
AcDbLine
370
-1
  6
AUSGEZOGEN
 10
1341.13
 20
84.55
 30
0
 11
1341.13
 21
93.86
 31
0
  0
LINE
  5
266
100
AcDbEntity
  8
200
100
AcDbLine
370
-1
  6
AUSGEZOGEN
 10
1349.18
 20
93.86
 30
0
 11
1349.18
 21
84.55
 31
0
  0
LINE
  5
267
100
AcDbEntity
  8
200
100
AcDbLine
370
-1
  6
AUSGEZOGEN
 10
1328.44
 20
181.45
 30
0
 11
1328.44
 21
172.14
 31
0
  0
LINE
  5
268
100
AcDbEntity
  8
200
100
AcDbLine
370
-1
  6
AUSGEZOGEN
 10
1336.48
 20
172.14
 30
0
 11
1336.48
 21
181.45
 31
0
  0
LINE
  5
269
100
AcDbEntity
  8
200
100
AcDbLine
370
-1
  6
AUSGEZOGEN
 10
1328.44
 20
120.59
 30
0
 11
1328.44
 21
129.9
 31
0
  0
LINE
  5
26A
100
AcDbEntity
  8
200
100
AcDbLine
370
-1
  6
AUSGEZOGEN
 10
1336.48
 20
129.9
 30
0
 11
1336.48
 21
120.59
 31
0
  0
LINE
  5
26B
100
AcDbEntity
  8
200
100
AcDbLine
370
-1
  6
AUSGEZOGEN
 10
1328.44
 20
84.55
 30
0
 11
1328.44
 21
93.86
 31
0
  0
LINE
  5
26C
100
AcDbEntity
  8
200
100
AcDbLine
370
-1
  6
AUSGEZOGEN
 10
1336.48
 20
93.86
 30
0
 11
1336.48
 21
84.55
 31
0
  0
LINE
  5
26D
100
AcDbEntity
  8
200
100
AcDbLine
370
-1
  6
AUSGEZOGEN
 10
1315.76
 20
181.45
 30
0
 11
1315.76
 21
172.14
 31
0
  0
LINE
  5
26E
100
AcDbEntity
  8
200
100
AcDbLine
370
-1
  6
AUSGEZOGEN
 10
1323.8
 20
172.14
 30
0
 11
1323.8
 21
181.45
 31
0
  0
LINE
  5
26F
100
AcDbEntity
  8
200
100
AcDbLine
370
-1
  6
AUSGEZOGEN
 10
1315.76
 20
120.59
 30
0
 11
1315.76
 21
129.9
 31
0
  0
LINE
  5
270
100
AcDbEntity
  8
200
100
AcDbLine
370
-1
  6
AUSGEZOGEN
 10
1323.8
 20
129.9
 30
0
 11
1323.8
 21
120.59
 31
0
  0
LINE
  5
271
100
AcDbEntity
  8
200
100
AcDbLine
370
-1
  6
AUSGEZOGEN
 10
1315.76
 20
84.55
 30
0
 11
1315.76
 21
93.86
 31
0
  0
LINE
  5
272
100
AcDbEntity
  8
200
100
AcDbLine
370
-1
  6
AUSGEZOGEN
 10
1323.8
 20
93.86
 30
0
 11
1323.8
 21
84.55
 31
0
  0
LINE
  5
273
100
AcDbEntity
  8
200
100
AcDbLine
370
-1
  6
AUSGEZOGEN
 10
1303.06
 20
181.45
 30
0
 11
1303.06
 21
172.14
 31
0
  0
LINE
  5
274
100
AcDbEntity
  8
200
100
AcDbLine
370
-1
  6
AUSGEZOGEN
 10
1311.11
 20
172.14
 30
0
 11
1311.11
 21
181.45
 31
0
  0
LINE
  5
275
100
AcDbEntity
  8
200
100
AcDbLine
370
-1
  6
AUSGEZOGEN
 10
1303.06
 20
120.59
 30
0
 11
1303.06
 21
129.9
 31
0
  0
LINE
  5
276
100
AcDbEntity
  8
200
100
AcDbLine
370
-1
  6
AUSGEZOGEN
 10
1311.11
 20
129.9
 30
0
 11
1311.11
 21
120.59
 31
0
  0
LINE
  5
277
100
AcDbEntity
  8
200
100
AcDbLine
370
-1
  6
AUSGEZOGEN
 10
1303.06
 20
84.55
 30
0
 11
1303.06
 21
93.86
 31
0
  0
LINE
  5
278
100
AcDbEntity
  8
200
100
AcDbLine
370
-1
  6
AUSGEZOGEN
 10
1311.11
 20
93.86
 30
0
 11
1311.11
 21
84.55
 31
0
  0
LINE
  5
279
100
AcDbEntity
  8
200
100
AcDbLine
370
-1
  6
AUSGEZOGEN
 10
1290.38
 20
181.45
 30
0
 11
1290.38
 21
172.14
 31
0
  0
LINE
  5
27A
100
AcDbEntity
  8
200
100
AcDbLine
370
-1
  6
AUSGEZOGEN
 10
1298.42
 20
172.14
 30
0
 11
1298.42
 21
181.45
 31
0
  0
LINE
  5
27B
100
AcDbEntity
  8
200
100
AcDbLine
370
-1
  6
AUSGEZOGEN
 10
1290.38
 20
120.59
 30
0
 11
1290.38
 21
129.9
 31
0
  0
LINE
  5
27C
100
AcDbEntity
  8
200
100
AcDbLine
370
-1
  6
AUSGEZOGEN
 10
1298.42
 20
129.9
 30
0
 11
1298.42
 21
120.59
 31
0
  0
LINE
  5
27D
100
AcDbEntity
  8
200
100
AcDbLine
370
-1
  6
AUSGEZOGEN
 10
1290.38
 20
84.55
 30
0
 11
1290.38
 21
93.86
 31
0
  0
LINE
  5
27E
100
AcDbEntity
  8
200
100
AcDbLine
370
-1
  6
AUSGEZOGEN
 10
1298.42
 20
93.86
 30
0
 11
1298.42
 21
84.55
 31
0
  0
LINE
  5
27F
100
AcDbEntity
  8
200
100
AcDbLine
370
-1
  6
AUSGEZOGEN
 10
1277.68
 20
181.45
 30
0
 11
1277.68
 21
172.14
 31
0
  0
LINE
  5
280
100
AcDbEntity
  8
200
100
AcDbLine
370
-1
  6
AUSGEZOGEN
 10
1285.74
 20
172.14
 30
0
 11
1285.74
 21
181.45
 31
0
  0
LINE
  5
281
100
AcDbEntity
  8
200
100
AcDbLine
370
-1
  6
AUSGEZOGEN
 10
1277.68
 20
120.59
 30
0
 11
1277.68
 21
129.9
 31
0
  0
LINE
  5
282
100
AcDbEntity
  8
200
100
AcDbLine
370
-1
  6
AUSGEZOGEN
 10
1285.74
 20
129.9
 30
0
 11
1285.74
 21
120.59
 31
0
  0
LINE
  5
283
100
AcDbEntity
  8
200
100
AcDbLine
370
-1
  6
AUSGEZOGEN
 10
1277.68
 20
84.55
 30
0
 11
1277.68
 21
93.86
 31
0
  0
LINE
  5
284
100
AcDbEntity
  8
200
100
AcDbLine
370
-1
  6
AUSGEZOGEN
 10
1285.74
 20
93.86
 30
0
 11
1285.74
 21
84.55
 31
0
  0
LINE
  5
285
100
AcDbEntity
  8
200
100
AcDbLine
370
-1
  6
AUSGEZOGEN
 10
1265
 20
181.45
 30
0
 11
1265
 21
172.14
 31
0
  0
LINE
  5
286
100
AcDbEntity
  8
200
100
AcDbLine
370
-1
  6
AUSGEZOGEN
 10
1273.04
 20
172.14
 30
0
 11
1273.04
 21
181.45
 31
0
  0
LINE
  5
287
100
AcDbEntity
  8
200
100
AcDbLine
370
-1
  6
AUSGEZOGEN
 10
1265
 20
120.59
 30
0
 11
1265
 21
129.9
 31
0
  0
LINE
  5
288
100
AcDbEntity
  8
200
100
AcDbLine
370
-1
  6
AUSGEZOGEN
 10
1273.04
 20
129.9
 30
0
 11
1273.04
 21
120.59
 31
0
  0
LINE
  5
289
100
AcDbEntity
  8
200
100
AcDbLine
370
-1
  6
AUSGEZOGEN
 10
1265
 20
84.55
 30
0
 11
1265
 21
93.86
 31
0
  0
LINE
  5
28A
100
AcDbEntity
  8
200
100
AcDbLine
370
-1
  6
AUSGEZOGEN
 10
1273.04
 20
93.86
 30
0
 11
1273.04
 21
84.55
 31
0
  0
LINE
  5
28B
100
AcDbEntity
  8
200
100
AcDbLine
370
-1
  6
AUSGEZOGEN
 10
1457.58
 20
42.48
 30
0
 11
1457.58
 21
51.99
 31
0
  0
LINE
  5
28C
100
AcDbEntity
  8
200
100
AcDbLine
370
-1
  6
AUSGEZOGEN
 10
1465
 20
51.99
 30
0
 11
1465
 21
42.48
 31
0
  0
LINE
  5
28D
100
AcDbEntity
  8
200
100
AcDbLine
370
-1
  6
AUSGEZOGEN
 10
1445.88
 20
42.48
 30
0
 11
1445.88
 21
51.99
 31
0
  0
LINE
  5
28E
100
AcDbEntity
  8
200
100
AcDbLine
370
-1
  6
AUSGEZOGEN
 10
1453.3
 20
51.99
 30
0
 11
1453.3
 21
42.48
 31
0
  0
LINE
  5
28F
100
AcDbEntity
  8
200
100
AcDbLine
370
-1
  6
AUSGEZOGEN
 10
1434.18
 20
42.48
 30
0
 11
1434.18
 21
51.99
 31
0
  0
LINE
  5
290
100
AcDbEntity
  8
200
100
AcDbLine
370
-1
  6
AUSGEZOGEN
 10
1441.59
 20
51.99
 30
0
 11
1441.59
 21
42.48
 31
0
  0
LINE
  5
291
100
AcDbEntity
  8
200
100
AcDbLine
370
-1
  6
AUSGEZOGEN
 10
1422.47
 20
42.48
 30
0
 11
1422.47
 21
51.99
 31
0
  0
LINE
  5
292
100
AcDbEntity
  8
200
100
AcDbLine
370
-1
  6
AUSGEZOGEN
 10
1429.89
 20
51.99
 30
0
 11
1429.89
 21
42.48
 31
0
  0
LINE
  5
293
100
AcDbEntity
  8
200
100
AcDbLine
370
-1
  6
AUSGEZOGEN
 10
1410.77
 20
42.48
 30
0
 11
1410.77
 21
51.99
 31
0
  0
LINE
  5
294
100
AcDbEntity
  8
200
100
AcDbLine
370
-1
  6
AUSGEZOGEN
 10
1418.18
 20
51.99
 30
0
 11
1418.18
 21
42.48
 31
0
  0
LINE
  5
295
100
AcDbEntity
  8
200
100
AcDbLine
370
-1
  6
AUSGEZOGEN
 10
1399.07
 20
42.48
 30
0
 11
1399.07
 21
51.99
 31
0
  0
LINE
  5
296
100
AcDbEntity
  8
200
100
AcDbLine
370
-1
  6
AUSGEZOGEN
 10
1406.48
 20
51.99
 30
0
 11
1406.48
 21
42.48
 31
0
  0
LINE
  5
297
100
AcDbEntity
  8
200
100
AcDbLine
370
-1
  6
AUSGEZOGEN
 10
1387.36
 20
42.48
 30
0
 11
1387.36
 21
51.99
 31
0
  0
LINE
  5
298
100
AcDbEntity
  8
200
100
AcDbLine
370
-1
  6
AUSGEZOGEN
 10
1394.78
 20
51.99
 30
0
 11
1394.78
 21
42.48
 31
0
  0
LINE
  5
299
100
AcDbEntity
  8
200
100
AcDbLine
370
-1
  6
AUSGEZOGEN
 10
1375.66
 20
42.48
 30
0
 11
1375.66
 21
51.99
 31
0
  0
LINE
  5
29A
100
AcDbEntity
  8
200
100
AcDbLine
370
-1
  6
AUSGEZOGEN
 10
1383.08
 20
51.99
 30
0
 11
1383.08
 21
42.48
 31
0
  0
LINE
  5
29B
100
AcDbEntity
  8
200
100
AcDbLine
370
-1
  6
AUSGEZOGEN
 10
1363.95
 20
42.48
 30
0
 11
1363.95
 21
51.99
 31
0
  0
LINE
  5
29C
100
AcDbEntity
  8
200
100
AcDbLine
370
-1
  6
AUSGEZOGEN
 10
1371.38
 20
51.99
 30
0
 11
1371.38
 21
42.48
 31
0
  0
LINE
  5
29D
100
AcDbEntity
  8
200
100
AcDbLine
370
-1
  6
AUSGEZOGEN
 10
1352.25
 20
42.48
 30
0
 11
1352.25
 21
51.99
 31
0
  0
LINE
  5
29E
100
AcDbEntity
  8
200
100
AcDbLine
370
-1
  6
AUSGEZOGEN
 10
1359.67
 20
51.99
 30
0
 11
1359.67
 21
42.48
 31
0
  0
LINE
  5
29F
100
AcDbEntity
  8
200
100
AcDbLine
370
-1
  6
AUSGEZOGEN
 10
1340.54
 20
42.48
 30
0
 11
1340.54
 21
51.99
 31
0
  0
LINE
  5
2A0
100
AcDbEntity
  8
200
100
AcDbLine
370
-1
  6
AUSGEZOGEN
 10
1347.97
 20
51.99
 30
0
 11
1347.97
 21
42.48
 31
0
  0
LINE
  5
2A1
100
AcDbEntity
  8
200
100
AcDbLine
370
-1
  6
AUSGEZOGEN
 10
1328.84
 20
42.48
 30
0
 11
1328.84
 21
51.99
 31
0
  0
LINE
  5
2A2
100
AcDbEntity
  8
200
100
AcDbLine
370
-1
  6
AUSGEZOGEN
 10
1336.26
 20
51.99
 30
0
 11
1336.26
 21
42.48
 31
0
  0
LINE
  5
2A3
100
AcDbEntity
  8
200
100
AcDbLine
370
-1
  6
AUSGEZOGEN
 10
1317.14
 20
42.48
 30
0
 11
1317.14
 21
51.99
 31
0
  0
LINE
  5
2A4
100
AcDbEntity
  8
200
100
AcDbLine
370
-1
  6
AUSGEZOGEN
 10
1324.56
 20
51.99
 30
0
 11
1324.56
 21
42.48
 31
0
  0
LINE
  5
2A5
100
AcDbEntity
  8
200
100
AcDbLine
370
-1
  6
AUSGEZOGEN
 10
1305.44
 20
42.48
 30
0
 11
1305.44
 21
51.99
 31
0
  0
LINE
  5
2A6
100
AcDbEntity
  8
200
100
AcDbLine
370
-1
  6
AUSGEZOGEN
 10
1312.86
 20
51.99
 30
0
 11
1312.86
 21
42.48
 31
0
  0
LINE
  5
2A7
100
AcDbEntity
  8
200
100
AcDbLine
370
-1
  6
AUSGEZOGEN
 10
1293.74
 20
42.48
 30
0
 11
1293.74
 21
51.99
 31
0
  0
LINE
  5
2A8
100
AcDbEntity
  8
200
100
AcDbLine
370
-1
  6
AUSGEZOGEN
 10
1301.16
 20
51.99
 30
0
 11
1301.16
 21
42.48
 31
0
  0
LINE
  5
2A9
100
AcDbEntity
  8
200
100
AcDbLine
370
-1
  6
AUSGEZOGEN
 10
1282.03
 20
42.48
 30
0
 11
1282.03
 21
51.99
 31
0
  0
LINE
  5
2AA
100
AcDbEntity
  8
200
100
AcDbLine
370
-1
  6
AUSGEZOGEN
 10
1289.46
 20
51.99
 30
0
 11
1289.46
 21
42.48
 31
0
  0
LINE
  5
2AB
100
AcDbEntity
  8
200
100
AcDbLine
370
-1
  6
AUSGEZOGEN
 10
1270.33
 20
42.48
 30
0
 11
1270.33
 21
51.99
 31
0
  0
LINE
  5
2AC
100
AcDbEntity
  8
200
100
AcDbLine
370
-1
  6
AUSGEZOGEN
 10
1277.75
 20
51.99
 30
0
 11
1277.75
 21
42.48
 31
0
  0
LINE
  5
2AD
100
AcDbEntity
  8
200
100
AcDbLine
370
-1
  6
AUSGEZOGEN
 10
1258.62
 20
42.48
 30
0
 11
1258.62
 21
51.99
 31
0
  0
LINE
  5
2AE
100
AcDbEntity
  8
200
100
AcDbLine
370
-1
  6
AUSGEZOGEN
 10
1266.05
 20
51.99
 30
0
 11
1266.05
 21
42.48
 31
0
  0
LINE
  5
2AF
100
AcDbEntity
  8
200
100
AcDbLine
370
-1
  6
AUSGEZOGEN
 10
1246.92
 20
42.48
 30
0
 11
1246.92
 21
51.99
 31
0
  0
LINE
  5
2B0
100
AcDbEntity
  8
200
100
AcDbLine
370
-1
  6
AUSGEZOGEN
 10
1254.34
 20
51.99
 30
0
 11
1254.34
 21
42.48
 31
0
  0
LINE
  5
2B1
100
AcDbEntity
  8
200
100
AcDbLine
370
-1
  6
AUSGEZOGEN
 10
1235.22
 20
42.48
 30
0
 11
1235.22
 21
51.99
 31
0
  0
LINE
  5
2B2
100
AcDbEntity
  8
200
100
AcDbLine
370
-1
  6
AUSGEZOGEN
 10
1242.64
 20
51.99
 30
0
 11
1242.64
 21
42.48
 31
0
  0
LINE
  5
2B3
100
AcDbEntity
  8
200
100
AcDbLine
370
-1
  6
AUSGEZOGEN
 10
1223.52
 20
42.48
 30
0
 11
1223.52
 21
51.99
 31
0
  0
LINE
  5
2B4
100
AcDbEntity
  8
200
100
AcDbLine
370
-1
  6
AUSGEZOGEN
 10
1230.93
 20
51.99
 30
0
 11
1230.93
 21
42.48
 31
0
  0
LINE
  5
2B5
100
AcDbEntity
  8
200
100
AcDbLine
370
-1
  6
AUSGEZOGEN
 10
1211.82
 20
42.48
 30
0
 11
1211.82
 21
51.99
 31
0
  0
LINE
  5
2B6
100
AcDbEntity
  8
200
100
AcDbLine
370
-1
  6
AUSGEZOGEN
 10
1219.23
 20
51.99
 30
0
 11
1219.23
 21
42.48
 31
0
  0
LINE
  5
2B7
100
AcDbEntity
  8
200
100
AcDbLine
370
-1
  6
AUSGEZOGEN
 10
1200.11
 20
42.48
 30
0
 11
1200.11
 21
51.99
 31
0
  0
LINE
  5
2B8
100
AcDbEntity
  8
200
100
AcDbLine
370
-1
  6
AUSGEZOGEN
 10
1207.53
 20
51.99
 30
0
 11
1207.53
 21
42.48
 31
0
  0
LINE
  5
2B9
100
AcDbEntity
  8
200
100
AcDbLine
370
-1
  6
AUSGEZOGEN
 10
1188.41
 20
42.48
 30
0
 11
1188.41
 21
51.99
 31
0
  0
LINE
  5
2BA
100
AcDbEntity
  8
200
100
AcDbLine
370
-1
  6
AUSGEZOGEN
 10
1195.82
 20
51.99
 30
0
 11
1195.82
 21
42.48
 31
0
  0
LINE
  5
2BB
100
AcDbEntity
  8
200
100
AcDbLine
370
-1
  6
AUSGEZOGEN
 10
1176.7
 20
42.48
 30
0
 11
1176.7
 21
51.99
 31
0
  0
LINE
  5
2BC
100
AcDbEntity
  8
200
100
AcDbLine
370
-1
  6
AUSGEZOGEN
 10
1184.12
 20
51.99
 30
0
 11
1184.12
 21
42.48
 31
0
  0
LINE
  5
2BD
100
AcDbEntity
  8
200
100
AcDbLine
370
-1
  6
AUSGEZOGEN
 10
1165
 20
42.48
 30
0
 11
1165
 21
51.99
 31
0
  0
LINE
  5
2BE
100
AcDbEntity
  8
200
100
AcDbLine
370
-1
  6
AUSGEZOGEN
 10
1172.42
 20
51.99
 30
0
 11
1172.42
 21
42.48
 31
0
  0
LINE
  5
2BF
100
AcDbEntity
  8
200
100
AcDbLine
370
-1
  6
AUSGEZOGEN
 10
1165
 20
51.99
 30
0
 11
1168.71
 21
53.58
 31
0
  0
LINE
  5
2C0
100
AcDbEntity
  8
200
100
AcDbLine
370
-1
  6
AUSGEZOGEN
 10
1172.42
 20
51.99
 30
0
 11
1168.71
 21
53.58
 31
0
  0
LINE
  5
2C1
100
AcDbEntity
  8
200
100
AcDbLine
370
-1
  6
AUSGEZOGEN
 10
1168.71
 20
40.9
 30
0
 11
1172.42
 21
42.48
 31
0
  0
LINE
  5
2C2
100
AcDbEntity
  8
200
100
AcDbLine
370
-1
  6
AUSGEZOGEN
 10
1165
 20
42.48
 30
0
 11
1168.71
 21
40.9
 31
0
  0
LINE
  5
2C3
100
AcDbEntity
  8
200
100
AcDbLine
370
-1
  6
AUSGEZOGEN
 10
1168.71
 20
37.73
 30
0
 11
1165
 21
36.14
 31
0
  0
LINE
  5
2C4
100
AcDbEntity
  8
200
100
AcDbLine
370
-1
  6
AUSGEZOGEN
 10
1172.42
 20
36.14
 30
0
 11
1168.71
 21
37.73
 31
0
  0
LINE
  5
2C5
100
AcDbEntity
  8
200
100
AcDbLine
370
-1
  6
AUSGEZOGEN
 10
1172.42
 20
26.64
 30
0
 11
1172.42
 21
36.14
 31
0
  0
LINE
  5
2C6
100
AcDbEntity
  8
200
100
AcDbLine
370
-1
  6
AUSGEZOGEN
 10
1168.71
 20
25.05
 30
0
 11
1172.42
 21
26.64
 31
0
  0
LINE
  5
2C7
100
AcDbEntity
  8
200
100
AcDbLine
370
-1
  6
AUSGEZOGEN
 10
1165
 20
26.64
 30
0
 11
1168.71
 21
25.05
 31
0
  0
LINE
  5
2C8
100
AcDbEntity
  8
200
100
AcDbLine
370
-1
  6
AUSGEZOGEN
 10
1165
 20
36.14
 30
0
 11
1165
 21
26.64
 31
0
  0
LINE
  5
2C9
100
AcDbEntity
  8
200
100
AcDbLine
370
-1
  6
AUSGEZOGEN
 10
1180.41
 20
53.58
 30
0
 11
1176.7
 21
51.99
 31
0
  0
LINE
  5
2CA
100
AcDbEntity
  8
200
100
AcDbLine
370
-1
  6
AUSGEZOGEN
 10
1184.12
 20
51.99
 30
0
 11
1180.41
 21
53.58
 31
0
  0
LINE
  5
2CB
100
AcDbEntity
  8
200
100
AcDbLine
370
-1
  6
AUSGEZOGEN
 10
1180.41
 20
40.9
 30
0
 11
1184.12
 21
42.48
 31
0
  0
LINE
  5
2CC
100
AcDbEntity
  8
200
100
AcDbLine
370
-1
  6
AUSGEZOGEN
 10
1176.7
 20
42.48
 30
0
 11
1180.41
 21
40.9
 31
0
  0
LINE
  5
2CD
100
AcDbEntity
  8
200
100
AcDbLine
370
-1
  6
AUSGEZOGEN
 10
1180.41
 20
37.73
 30
0
 11
1176.7
 21
36.14
 31
0
  0
LINE
  5
2CE
100
AcDbEntity
  8
200
100
AcDbLine
370
-1
  6
AUSGEZOGEN
 10
1184.12
 20
36.14
 30
0
 11
1180.41
 21
37.73
 31
0
  0
LINE
  5
2CF
100
AcDbEntity
  8
200
100
AcDbLine
370
-1
  6
AUSGEZOGEN
 10
1184.12
 20
26.64
 30
0
 11
1184.12
 21
36.14
 31
0
  0
LINE
  5
2D0
100
AcDbEntity
  8
200
100
AcDbLine
370
-1
  6
AUSGEZOGEN
 10
1180.41
 20
25.05
 30
0
 11
1184.12
 21
26.64
 31
0
  0
LINE
  5
2D1
100
AcDbEntity
  8
200
100
AcDbLine
370
-1
  6
AUSGEZOGEN
 10
1176.7
 20
26.64
 30
0
 11
1180.41
 21
25.05
 31
0
  0
LINE
  5
2D2
100
AcDbEntity
  8
200
100
AcDbLine
370
-1
  6
AUSGEZOGEN
 10
1176.7
 20
36.14
 30
0
 11
1176.7
 21
26.64
 31
0
  0
LINE
  5
2D3
100
AcDbEntity
  8
200
100
AcDbLine
370
-1
  6
AUSGEZOGEN
 10
1192.11
 20
53.58
 30
0
 11
1188.41
 21
51.99
 31
0
  0
LINE
  5
2D4
100
AcDbEntity
  8
200
100
AcDbLine
370
-1
  6
AUSGEZOGEN
 10
1195.82
 20
51.99
 30
0
 11
1192.11
 21
53.58
 31
0
  0
LINE
  5
2D5
100
AcDbEntity
  8
200
100
AcDbLine
370
-1
  6
AUSGEZOGEN
 10
1192.11
 20
40.9
 30
0
 11
1195.82
 21
42.48
 31
0
  0
LINE
  5
2D6
100
AcDbEntity
  8
200
100
AcDbLine
370
-1
  6
AUSGEZOGEN
 10
1188.41
 20
42.48
 30
0
 11
1192.11
 21
40.9
 31
0
  0
LINE
  5
2D7
100
AcDbEntity
  8
200
100
AcDbLine
370
-1
  6
AUSGEZOGEN
 10
1192.11
 20
37.73
 30
0
 11
1188.41
 21
36.14
 31
0
  0
LINE
  5
2D8
100
AcDbEntity
  8
200
100
AcDbLine
370
-1
  6
AUSGEZOGEN
 10
1195.82
 20
36.14
 30
0
 11
1192.11
 21
37.73
 31
0
  0
LINE
  5
2D9
100
AcDbEntity
  8
200
100
AcDbLine
370
-1
  6
AUSGEZOGEN
 10
1195.82
 20
26.64
 30
0
 11
1195.82
 21
36.14
 31
0
  0
LINE
  5
2DA
100
AcDbEntity
  8
200
100
AcDbLine
370
-1
  6
AUSGEZOGEN
 10
1192.11
 20
25.05
 30
0
 11
1195.82
 21
26.64
 31
0
  0
LINE
  5
2DB
100
AcDbEntity
  8
200
100
AcDbLine
370
-1
  6
AUSGEZOGEN
 10
1188.41
 20
26.64
 30
0
 11
1192.11
 21
25.05
 31
0
  0
LINE
  5
2DC
100
AcDbEntity
  8
200
100
AcDbLine
370
-1
  6
AUSGEZOGEN
 10
1188.41
 20
36.14
 30
0
 11
1188.41
 21
26.64
 31
0
  0
LINE
  5
2DD
100
AcDbEntity
  8
200
100
AcDbLine
370
-1
  6
AUSGEZOGEN
 10
1203.82
 20
53.58
 30
0
 11
1200.11
 21
51.99
 31
0
  0
LINE
  5
2DE
100
AcDbEntity
  8
200
100
AcDbLine
370
-1
  6
AUSGEZOGEN
 10
1207.53
 20
51.99
 30
0
 11
1203.82
 21
53.58
 31
0
  0
LINE
  5
2DF
100
AcDbEntity
  8
200
100
AcDbLine
370
-1
  6
AUSGEZOGEN
 10
1203.82
 20
40.9
 30
0
 11
1207.53
 21
42.48
 31
0
  0
LINE
  5
2E0
100
AcDbEntity
  8
200
100
AcDbLine
370
-1
  6
AUSGEZOGEN
 10
1200.11
 20
42.48
 30
0
 11
1203.82
 21
40.9
 31
0
  0
LINE
  5
2E1
100
AcDbEntity
  8
200
100
AcDbLine
370
-1
  6
AUSGEZOGEN
 10
1203.82
 20
37.73
 30
0
 11
1200.11
 21
36.14
 31
0
  0
LINE
  5
2E2
100
AcDbEntity
  8
200
100
AcDbLine
370
-1
  6
AUSGEZOGEN
 10
1207.53
 20
36.14
 30
0
 11
1203.82
 21
37.73
 31
0
  0
LINE
  5
2E3
100
AcDbEntity
  8
200
100
AcDbLine
370
-1
  6
AUSGEZOGEN
 10
1207.53
 20
26.64
 30
0
 11
1207.53
 21
36.14
 31
0
  0
LINE
  5
2E4
100
AcDbEntity
  8
200
100
AcDbLine
370
-1
  6
AUSGEZOGEN
 10
1203.82
 20
25.05
 30
0
 11
1207.53
 21
26.64
 31
0
  0
LINE
  5
2E5
100
AcDbEntity
  8
200
100
AcDbLine
370
-1
  6
AUSGEZOGEN
 10
1200.11
 20
26.64
 30
0
 11
1203.82
 21
25.05
 31
0
  0
LINE
  5
2E6
100
AcDbEntity
  8
200
100
AcDbLine
370
-1
  6
AUSGEZOGEN
 10
1200.11
 20
36.14
 30
0
 11
1200.11
 21
26.64
 31
0
  0
LINE
  5
2E7
100
AcDbEntity
  8
200
100
AcDbLine
370
-1
  6
AUSGEZOGEN
 10
1215.52
 20
53.58
 30
0
 11
1211.82
 21
51.99
 31
0
  0
LINE
  5
2E8
100
AcDbEntity
  8
200
100
AcDbLine
370
-1
  6
AUSGEZOGEN
 10
1219.23
 20
51.99
 30
0
 11
1215.52
 21
53.58
 31
0
  0
LINE
  5
2E9
100
AcDbEntity
  8
200
100
AcDbLine
370
-1
  6
AUSGEZOGEN
 10
1215.52
 20
40.9
 30
0
 11
1219.23
 21
42.48
 31
0
  0
LINE
  5
2EA
100
AcDbEntity
  8
200
100
AcDbLine
370
-1
  6
AUSGEZOGEN
 10
1211.82
 20
42.48
 30
0
 11
1215.52
 21
40.9
 31
0
  0
LINE
  5
2EB
100
AcDbEntity
  8
200
100
AcDbLine
370
-1
  6
AUSGEZOGEN
 10
1215.52
 20
37.73
 30
0
 11
1211.82
 21
36.14
 31
0
  0
LINE
  5
2EC
100
AcDbEntity
  8
200
100
AcDbLine
370
-1
  6
AUSGEZOGEN
 10
1219.23
 20
36.14
 30
0
 11
1215.52
 21
37.73
 31
0
  0
LINE
  5
2ED
100
AcDbEntity
  8
200
100
AcDbLine
370
-1
  6
AUSGEZOGEN
 10
1219.23
 20
26.64
 30
0
 11
1219.23
 21
36.14
 31
0
  0
LINE
  5
2EE
100
AcDbEntity
  8
200
100
AcDbLine
370
-1
  6
AUSGEZOGEN
 10
1215.52
 20
25.05
 30
0
 11
1219.23
 21
26.64
 31
0
  0
LINE
  5
2EF
100
AcDbEntity
  8
200
100
AcDbLine
370
-1
  6
AUSGEZOGEN
 10
1211.82
 20
26.64
 30
0
 11
1215.52
 21
25.05
 31
0
  0
LINE
  5
2F0
100
AcDbEntity
  8
200
100
AcDbLine
370
-1
  6
AUSGEZOGEN
 10
1211.82
 20
36.14
 30
0
 11
1211.82
 21
26.64
 31
0
  0
LINE
  5
2F1
100
AcDbEntity
  8
200
100
AcDbLine
370
-1
  6
AUSGEZOGEN
 10
1227.23
 20
53.58
 30
0
 11
1223.52
 21
51.99
 31
0
  0
LINE
  5
2F2
100
AcDbEntity
  8
200
100
AcDbLine
370
-1
  6
AUSGEZOGEN
 10
1230.93
 20
51.99
 30
0
 11
1227.23
 21
53.58
 31
0
  0
LINE
  5
2F3
100
AcDbEntity
  8
200
100
AcDbLine
370
-1
  6
AUSGEZOGEN
 10
1227.23
 20
40.9
 30
0
 11
1230.93
 21
42.48
 31
0
  0
LINE
  5
2F4
100
AcDbEntity
  8
200
100
AcDbLine
370
-1
  6
AUSGEZOGEN
 10
1223.52
 20
42.48
 30
0
 11
1227.23
 21
40.9
 31
0
  0
LINE
  5
2F5
100
AcDbEntity
  8
200
100
AcDbLine
370
-1
  6
AUSGEZOGEN
 10
1227.23
 20
37.73
 30
0
 11
1223.52
 21
36.14
 31
0
  0
LINE
  5
2F6
100
AcDbEntity
  8
200
100
AcDbLine
370
-1
  6
AUSGEZOGEN
 10
1230.93
 20
36.14
 30
0
 11
1227.23
 21
37.73
 31
0
  0
LINE
  5
2F7
100
AcDbEntity
  8
200
100
AcDbLine
370
-1
  6
AUSGEZOGEN
 10
1230.93
 20
26.64
 30
0
 11
1230.93
 21
36.14
 31
0
  0
LINE
  5
2F8
100
AcDbEntity
  8
200
100
AcDbLine
370
-1
  6
AUSGEZOGEN
 10
1227.23
 20
25.05
 30
0
 11
1230.93
 21
26.64
 31
0
  0
LINE
  5
2F9
100
AcDbEntity
  8
200
100
AcDbLine
370
-1
  6
AUSGEZOGEN
 10
1223.52
 20
26.64
 30
0
 11
1227.23
 21
25.05
 31
0
  0
LINE
  5
2FA
100
AcDbEntity
  8
200
100
AcDbLine
370
-1
  6
AUSGEZOGEN
 10
1223.52
 20
36.14
 30
0
 11
1223.52
 21
26.64
 31
0
  0
LINE
  5
2FB
100
AcDbEntity
  8
200
100
AcDbLine
370
-1
  6
AUSGEZOGEN
 10
1238.93
 20
53.58
 30
0
 11
1235.22
 21
51.99
 31
0
  0
LINE
  5
2FC
100
AcDbEntity
  8
200
100
AcDbLine
370
-1
  6
AUSGEZOGEN
 10
1242.64
 20
51.99
 30
0
 11
1238.93
 21
53.58
 31
0
  0
LINE
  5
2FD
100
AcDbEntity
  8
200
100
AcDbLine
370
-1
  6
AUSGEZOGEN
 10
1238.93
 20
40.9
 30
0
 11
1242.64
 21
42.48
 31
0
  0
LINE
  5
2FE
100
AcDbEntity
  8
200
100
AcDbLine
370
-1
  6
AUSGEZOGEN
 10
1235.22
 20
42.48
 30
0
 11
1238.93
 21
40.9
 31
0
  0
LINE
  5
2FF
100
AcDbEntity
  8
200
100
AcDbLine
370
-1
  6
AUSGEZOGEN
 10
1238.93
 20
37.73
 30
0
 11
1235.22
 21
36.14
 31
0
  0
LINE
  5
300
100
AcDbEntity
  8
200
100
AcDbLine
370
-1
  6
AUSGEZOGEN
 10
1242.64
 20
36.14
 30
0
 11
1238.93
 21
37.73
 31
0
  0
LINE
  5
301
100
AcDbEntity
  8
200
100
AcDbLine
370
-1
  6
AUSGEZOGEN
 10
1242.64
 20
26.64
 30
0
 11
1242.64
 21
36.14
 31
0
  0
LINE
  5
302
100
AcDbEntity
  8
200
100
AcDbLine
370
-1
  6
AUSGEZOGEN
 10
1238.93
 20
25.05
 30
0
 11
1242.64
 21
26.64
 31
0
  0
LINE
  5
303
100
AcDbEntity
  8
200
100
AcDbLine
370
-1
  6
AUSGEZOGEN
 10
1235.22
 20
26.64
 30
0
 11
1238.93
 21
25.05
 31
0
  0
LINE
  5
304
100
AcDbEntity
  8
200
100
AcDbLine
370
-1
  6
AUSGEZOGEN
 10
1235.22
 20
36.14
 30
0
 11
1235.22
 21
26.64
 31
0
  0
LINE
  5
305
100
AcDbEntity
  8
200
100
AcDbLine
370
-1
  6
AUSGEZOGEN
 10
1250.64
 20
53.58
 30
0
 11
1246.92
 21
51.99
 31
0
  0
LINE
  5
306
100
AcDbEntity
  8
200
100
AcDbLine
370
-1
  6
AUSGEZOGEN
 10
1254.34
 20
51.99
 30
0
 11
1250.64
 21
53.58
 31
0
  0
LINE
  5
307
100
AcDbEntity
  8
200
100
AcDbLine
370
-1
  6
AUSGEZOGEN
 10
1250.64
 20
40.9
 30
0
 11
1254.34
 21
42.48
 31
0
  0
LINE
  5
308
100
AcDbEntity
  8
200
100
AcDbLine
370
-1
  6
AUSGEZOGEN
 10
1246.92
 20
42.48
 30
0
 11
1250.64
 21
40.9
 31
0
  0
LINE
  5
309
100
AcDbEntity
  8
200
100
AcDbLine
370
-1
  6
AUSGEZOGEN
 10
1250.64
 20
37.73
 30
0
 11
1246.92
 21
36.14
 31
0
  0
LINE
  5
30A
100
AcDbEntity
  8
200
100
AcDbLine
370
-1
  6
AUSGEZOGEN
 10
1254.34
 20
36.14
 30
0
 11
1250.64
 21
37.73
 31
0
  0
LINE
  5
30B
100
AcDbEntity
  8
200
100
AcDbLine
370
-1
  6
AUSGEZOGEN
 10
1254.34
 20
26.64
 30
0
 11
1254.34
 21
36.14
 31
0
  0
LINE
  5
30C
100
AcDbEntity
  8
200
100
AcDbLine
370
-1
  6
AUSGEZOGEN
 10
1250.64
 20
25.05
 30
0
 11
1254.34
 21
26.64
 31
0
  0
LINE
  5
30D
100
AcDbEntity
  8
200
100
AcDbLine
370
-1
  6
AUSGEZOGEN
 10
1246.92
 20
26.64
 30
0
 11
1250.64
 21
25.05
 31
0
  0
LINE
  5
30E
100
AcDbEntity
  8
200
100
AcDbLine
370
-1
  6
AUSGEZOGEN
 10
1246.92
 20
36.14
 30
0
 11
1246.92
 21
26.64
 31
0
  0
LINE
  5
30F
100
AcDbEntity
  8
200
100
AcDbLine
370
-1
  6
AUSGEZOGEN
 10
1262.34
 20
53.58
 30
0
 11
1258.62
 21
51.99
 31
0
  0
LINE
  5
310
100
AcDbEntity
  8
200
100
AcDbLine
370
-1
  6
AUSGEZOGEN
 10
1266.05
 20
51.99
 30
0
 11
1262.34
 21
53.58
 31
0
  0
LINE
  5
311
100
AcDbEntity
  8
200
100
AcDbLine
370
-1
  6
AUSGEZOGEN
 10
1262.34
 20
40.9
 30
0
 11
1266.05
 21
42.48
 31
0
  0
LINE
  5
312
100
AcDbEntity
  8
200
100
AcDbLine
370
-1
  6
AUSGEZOGEN
 10
1258.62
 20
42.48
 30
0
 11
1262.34
 21
40.9
 31
0
  0
LINE
  5
313
100
AcDbEntity
  8
200
100
AcDbLine
370
-1
  6
AUSGEZOGEN
 10
1262.34
 20
37.73
 30
0
 11
1258.62
 21
36.14
 31
0
  0
LINE
  5
314
100
AcDbEntity
  8
200
100
AcDbLine
370
-1
  6
AUSGEZOGEN
 10
1266.05
 20
36.14
 30
0
 11
1262.34
 21
37.73
 31
0
  0
LINE
  5
315
100
AcDbEntity
  8
200
100
AcDbLine
370
-1
  6
AUSGEZOGEN
 10
1266.05
 20
26.64
 30
0
 11
1266.05
 21
36.14
 31
0
  0
LINE
  5
316
100
AcDbEntity
  8
200
100
AcDbLine
370
-1
  6
AUSGEZOGEN
 10
1262.34
 20
25.05
 30
0
 11
1266.05
 21
26.64
 31
0
  0
LINE
  5
317
100
AcDbEntity
  8
200
100
AcDbLine
370
-1
  6
AUSGEZOGEN
 10
1258.62
 20
26.64
 30
0
 11
1262.34
 21
25.05
 31
0
  0
LINE
  5
318
100
AcDbEntity
  8
200
100
AcDbLine
370
-1
  6
AUSGEZOGEN
 10
1258.62
 20
36.14
 30
0
 11
1258.62
 21
26.64
 31
0
  0
LINE
  5
319
100
AcDbEntity
  8
200
100
AcDbLine
370
-1
  6
AUSGEZOGEN
 10
1274.04
 20
53.58
 30
0
 11
1270.33
 21
51.99
 31
0
  0
LINE
  5
31A
100
AcDbEntity
  8
200
100
AcDbLine
370
-1
  6
AUSGEZOGEN
 10
1277.75
 20
51.99
 30
0
 11
1274.04
 21
53.58
 31
0
  0
LINE
  5
31B
100
AcDbEntity
  8
200
100
AcDbLine
370
-1
  6
AUSGEZOGEN
 10
1274.04
 20
40.9
 30
0
 11
1277.75
 21
42.48
 31
0
  0
LINE
  5
31C
100
AcDbEntity
  8
200
100
AcDbLine
370
-1
  6
AUSGEZOGEN
 10
1270.33
 20
42.48
 30
0
 11
1274.04
 21
40.9
 31
0
  0
LINE
  5
31D
100
AcDbEntity
  8
200
100
AcDbLine
370
-1
  6
AUSGEZOGEN
 10
1274.04
 20
37.73
 30
0
 11
1270.33
 21
36.14
 31
0
  0
LINE
  5
31E
100
AcDbEntity
  8
200
100
AcDbLine
370
-1
  6
AUSGEZOGEN
 10
1277.75
 20
36.14
 30
0
 11
1274.04
 21
37.73
 31
0
  0
LINE
  5
31F
100
AcDbEntity
  8
200
100
AcDbLine
370
-1
  6
AUSGEZOGEN
 10
1277.75
 20
26.64
 30
0
 11
1277.75
 21
36.14
 31
0
  0
LINE
  5
320
100
AcDbEntity
  8
200
100
AcDbLine
370
-1
  6
AUSGEZOGEN
 10
1274.04
 20
25.05
 30
0
 11
1277.75
 21
26.64
 31
0
  0
LINE
  5
321
100
AcDbEntity
  8
200
100
AcDbLine
370
-1
  6
AUSGEZOGEN
 10
1270.33
 20
26.64
 30
0
 11
1274.04
 21
25.05
 31
0
  0
LINE
  5
322
100
AcDbEntity
  8
200
100
AcDbLine
370
-1
  6
AUSGEZOGEN
 10
1270.33
 20
36.14
 30
0
 11
1270.33
 21
26.64
 31
0
  0
LINE
  5
323
100
AcDbEntity
  8
200
100
AcDbLine
370
-1
  6
AUSGEZOGEN
 10
1285.74
 20
53.58
 30
0
 11
1282.03
 21
51.99
 31
0
  0
LINE
  5
324
100
AcDbEntity
  8
200
100
AcDbLine
370
-1
  6
AUSGEZOGEN
 10
1289.46
 20
51.99
 30
0
 11
1285.74
 21
53.58
 31
0
  0
LINE
  5
325
100
AcDbEntity
  8
200
100
AcDbLine
370
-1
  6
AUSGEZOGEN
 10
1285.74
 20
40.9
 30
0
 11
1289.46
 21
42.48
 31
0
  0
LINE
  5
326
100
AcDbEntity
  8
200
100
AcDbLine
370
-1
  6
AUSGEZOGEN
 10
1282.03
 20
42.48
 30
0
 11
1285.74
 21
40.9
 31
0
  0
LINE
  5
327
100
AcDbEntity
  8
200
100
AcDbLine
370
-1
  6
AUSGEZOGEN
 10
1285.74
 20
37.73
 30
0
 11
1282.03
 21
36.14
 31
0
  0
LINE
  5
328
100
AcDbEntity
  8
200
100
AcDbLine
370
-1
  6
AUSGEZOGEN
 10
1289.46
 20
36.14
 30
0
 11
1285.74
 21
37.73
 31
0
  0
LINE
  5
329
100
AcDbEntity
  8
200
100
AcDbLine
370
-1
  6
AUSGEZOGEN
 10
1289.46
 20
26.64
 30
0
 11
1289.46
 21
36.14
 31
0
  0
LINE
  5
32A
100
AcDbEntity
  8
200
100
AcDbLine
370
-1
  6
AUSGEZOGEN
 10
1285.74
 20
25.05
 30
0
 11
1289.46
 21
26.64
 31
0
  0
LINE
  5
32B
100
AcDbEntity
  8
200
100
AcDbLine
370
-1
  6
AUSGEZOGEN
 10
1282.03
 20
26.64
 30
0
 11
1285.74
 21
25.05
 31
0
  0
LINE
  5
32C
100
AcDbEntity
  8
200
100
AcDbLine
370
-1
  6
AUSGEZOGEN
 10
1282.03
 20
36.14
 30
0
 11
1282.03
 21
26.64
 31
0
  0
LINE
  5
32D
100
AcDbEntity
  8
200
100
AcDbLine
370
-1
  6
AUSGEZOGEN
 10
1297.44
 20
53.58
 30
0
 11
1293.74
 21
51.99
 31
0
  0
LINE
  5
32E
100
AcDbEntity
  8
200
100
AcDbLine
370
-1
  6
AUSGEZOGEN
 10
1301.16
 20
51.99
 30
0
 11
1297.44
 21
53.58
 31
0
  0
LINE
  5
32F
100
AcDbEntity
  8
200
100
AcDbLine
370
-1
  6
AUSGEZOGEN
 10
1297.44
 20
40.9
 30
0
 11
1301.16
 21
42.48
 31
0
  0
LINE
  5
330
100
AcDbEntity
  8
200
100
AcDbLine
370
-1
  6
AUSGEZOGEN
 10
1293.74
 20
42.48
 30
0
 11
1297.44
 21
40.9
 31
0
  0
LINE
  5
331
100
AcDbEntity
  8
200
100
AcDbLine
370
-1
  6
AUSGEZOGEN
 10
1297.44
 20
37.73
 30
0
 11
1293.74
 21
36.14
 31
0
  0
LINE
  5
332
100
AcDbEntity
  8
200
100
AcDbLine
370
-1
  6
AUSGEZOGEN
 10
1301.16
 20
36.14
 30
0
 11
1297.44
 21
37.73
 31
0
  0
LINE
  5
333
100
AcDbEntity
  8
200
100
AcDbLine
370
-1
  6
AUSGEZOGEN
 10
1301.16
 20
26.64
 30
0
 11
1301.16
 21
36.14
 31
0
  0
LINE
  5
334
100
AcDbEntity
  8
200
100
AcDbLine
370
-1
  6
AUSGEZOGEN
 10
1297.44
 20
25.05
 30
0
 11
1301.16
 21
26.64
 31
0
  0
LINE
  5
335
100
AcDbEntity
  8
200
100
AcDbLine
370
-1
  6
AUSGEZOGEN
 10
1293.74
 20
26.64
 30
0
 11
1297.44
 21
25.05
 31
0
  0
LINE
  5
336
100
AcDbEntity
  8
200
100
AcDbLine
370
-1
  6
AUSGEZOGEN
 10
1293.74
 20
36.14
 30
0
 11
1293.74
 21
26.64
 31
0
  0
LINE
  5
337
100
AcDbEntity
  8
200
100
AcDbLine
370
-1
  6
AUSGEZOGEN
 10
1309.15
 20
53.58
 30
0
 11
1305.44
 21
51.99
 31
0
  0
LINE
  5
338
100
AcDbEntity
  8
200
100
AcDbLine
370
-1
  6
AUSGEZOGEN
 10
1312.86
 20
51.99
 30
0
 11
1309.15
 21
53.58
 31
0
  0
LINE
  5
339
100
AcDbEntity
  8
200
100
AcDbLine
370
-1
  6
AUSGEZOGEN
 10
1309.15
 20
40.9
 30
0
 11
1312.86
 21
42.48
 31
0
  0
LINE
  5
33A
100
AcDbEntity
  8
200
100
AcDbLine
370
-1
  6
AUSGEZOGEN
 10
1305.44
 20
42.48
 30
0
 11
1309.15
 21
40.9
 31
0
  0
LINE
  5
33B
100
AcDbEntity
  8
200
100
AcDbLine
370
-1
  6
AUSGEZOGEN
 10
1309.15
 20
37.73
 30
0
 11
1305.44
 21
36.14
 31
0
  0
LINE
  5
33C
100
AcDbEntity
  8
200
100
AcDbLine
370
-1
  6
AUSGEZOGEN
 10
1312.86
 20
36.14
 30
0
 11
1309.15
 21
37.73
 31
0
  0
LINE
  5
33D
100
AcDbEntity
  8
200
100
AcDbLine
370
-1
  6
AUSGEZOGEN
 10
1312.86
 20
26.64
 30
0
 11
1312.86
 21
36.14
 31
0
  0
LINE
  5
33E
100
AcDbEntity
  8
200
100
AcDbLine
370
-1
  6
AUSGEZOGEN
 10
1309.15
 20
25.05
 30
0
 11
1312.86
 21
26.64
 31
0
  0
LINE
  5
33F
100
AcDbEntity
  8
200
100
AcDbLine
370
-1
  6
AUSGEZOGEN
 10
1305.44
 20
26.64
 30
0
 11
1309.15
 21
25.05
 31
0
  0
LINE
  5
340
100
AcDbEntity
  8
200
100
AcDbLine
370
-1
  6
AUSGEZOGEN
 10
1305.44
 20
36.14
 30
0
 11
1305.44
 21
26.64
 31
0
  0
LINE
  5
341
100
AcDbEntity
  8
200
100
AcDbLine
370
-1
  6
AUSGEZOGEN
 10
1320.85
 20
53.58
 30
0
 11
1317.14
 21
51.99
 31
0
  0
LINE
  5
342
100
AcDbEntity
  8
200
100
AcDbLine
370
-1
  6
AUSGEZOGEN
 10
1324.56
 20
51.99
 30
0
 11
1320.85
 21
53.58
 31
0
  0
LINE
  5
343
100
AcDbEntity
  8
200
100
AcDbLine
370
-1
  6
AUSGEZOGEN
 10
1320.85
 20
40.9
 30
0
 11
1324.56
 21
42.48
 31
0
  0
LINE
  5
344
100
AcDbEntity
  8
200
100
AcDbLine
370
-1
  6
AUSGEZOGEN
 10
1317.14
 20
42.48
 30
0
 11
1320.85
 21
40.9
 31
0
  0
LINE
  5
345
100
AcDbEntity
  8
200
100
AcDbLine
370
-1
  6
AUSGEZOGEN
 10
1320.85
 20
37.73
 30
0
 11
1317.14
 21
36.14
 31
0
  0
LINE
  5
346
100
AcDbEntity
  8
200
100
AcDbLine
370
-1
  6
AUSGEZOGEN
 10
1324.56
 20
36.14
 30
0
 11
1320.85
 21
37.73
 31
0
  0
LINE
  5
347
100
AcDbEntity
  8
200
100
AcDbLine
370
-1
  6
AUSGEZOGEN
 10
1324.56
 20
26.64
 30
0
 11
1324.56
 21
36.14
 31
0
  0
LINE
  5
348
100
AcDbEntity
  8
200
100
AcDbLine
370
-1
  6
AUSGEZOGEN
 10
1320.85
 20
25.05
 30
0
 11
1324.56
 21
26.64
 31
0
  0
LINE
  5
349
100
AcDbEntity
  8
200
100
AcDbLine
370
-1
  6
AUSGEZOGEN
 10
1317.14
 20
26.64
 30
0
 11
1320.85
 21
25.05
 31
0
  0
LINE
  5
34A
100
AcDbEntity
  8
200
100
AcDbLine
370
-1
  6
AUSGEZOGEN
 10
1317.14
 20
36.14
 30
0
 11
1317.14
 21
26.64
 31
0
  0
LINE
  5
34B
100
AcDbEntity
  8
200
100
AcDbLine
370
-1
  6
AUSGEZOGEN
 10
1332.56
 20
53.58
 30
0
 11
1328.84
 21
51.99
 31
0
  0
LINE
  5
34C
100
AcDbEntity
  8
200
100
AcDbLine
370
-1
  6
AUSGEZOGEN
 10
1336.26
 20
51.99
 30
0
 11
1332.56
 21
53.58
 31
0
  0
LINE
  5
34D
100
AcDbEntity
  8
200
100
AcDbLine
370
-1
  6
AUSGEZOGEN
 10
1332.56
 20
40.9
 30
0
 11
1336.26
 21
42.48
 31
0
  0
LINE
  5
34E
100
AcDbEntity
  8
200
100
AcDbLine
370
-1
  6
AUSGEZOGEN
 10
1328.84
 20
42.48
 30
0
 11
1332.56
 21
40.9
 31
0
  0
LINE
  5
34F
100
AcDbEntity
  8
200
100
AcDbLine
370
-1
  6
AUSGEZOGEN
 10
1332.56
 20
37.73
 30
0
 11
1328.84
 21
36.14
 31
0
  0
LINE
  5
350
100
AcDbEntity
  8
200
100
AcDbLine
370
-1
  6
AUSGEZOGEN
 10
1336.26
 20
36.14
 30
0
 11
1332.56
 21
37.73
 31
0
  0
LINE
  5
351
100
AcDbEntity
  8
200
100
AcDbLine
370
-1
  6
AUSGEZOGEN
 10
1336.26
 20
26.64
 30
0
 11
1336.26
 21
36.14
 31
0
  0
LINE
  5
352
100
AcDbEntity
  8
200
100
AcDbLine
370
-1
  6
AUSGEZOGEN
 10
1332.56
 20
25.05
 30
0
 11
1336.26
 21
26.64
 31
0
  0
LINE
  5
353
100
AcDbEntity
  8
200
100
AcDbLine
370
-1
  6
AUSGEZOGEN
 10
1328.84
 20
26.64
 30
0
 11
1332.56
 21
25.05
 31
0
  0
LINE
  5
354
100
AcDbEntity
  8
200
100
AcDbLine
370
-1
  6
AUSGEZOGEN
 10
1328.84
 20
36.14
 30
0
 11
1328.84
 21
26.64
 31
0
  0
LINE
  5
355
100
AcDbEntity
  8
200
100
AcDbLine
370
-1
  6
AUSGEZOGEN
 10
1344.26
 20
53.58
 30
0
 11
1340.54
 21
51.99
 31
0
  0
LINE
  5
356
100
AcDbEntity
  8
200
100
AcDbLine
370
-1
  6
AUSGEZOGEN
 10
1347.97
 20
51.99
 30
0
 11
1344.26
 21
53.58
 31
0
  0
LINE
  5
357
100
AcDbEntity
  8
200
100
AcDbLine
370
-1
  6
AUSGEZOGEN
 10
1344.26
 20
40.9
 30
0
 11
1347.97
 21
42.48
 31
0
  0
LINE
  5
358
100
AcDbEntity
  8
200
100
AcDbLine
370
-1
  6
AUSGEZOGEN
 10
1340.54
 20
42.48
 30
0
 11
1344.26
 21
40.9
 31
0
  0
LINE
  5
359
100
AcDbEntity
  8
200
100
AcDbLine
370
-1
  6
AUSGEZOGEN
 10
1344.26
 20
37.73
 30
0
 11
1340.54
 21
36.14
 31
0
  0
LINE
  5
35A
100
AcDbEntity
  8
200
100
AcDbLine
370
-1
  6
AUSGEZOGEN
 10
1347.97
 20
36.14
 30
0
 11
1344.26
 21
37.73
 31
0
  0
LINE
  5
35B
100
AcDbEntity
  8
200
100
AcDbLine
370
-1
  6
AUSGEZOGEN
 10
1347.97
 20
26.64
 30
0
 11
1347.97
 21
36.14
 31
0
  0
LINE
  5
35C
100
AcDbEntity
  8
200
100
AcDbLine
370
-1
  6
AUSGEZOGEN
 10
1344.26
 20
25.05
 30
0
 11
1347.97
 21
26.64
 31
0
  0
LINE
  5
35D
100
AcDbEntity
  8
200
100
AcDbLine
370
-1
  6
AUSGEZOGEN
 10
1340.54
 20
26.64
 30
0
 11
1344.26
 21
25.05
 31
0
  0
LINE
  5
35E
100
AcDbEntity
  8
200
100
AcDbLine
370
-1
  6
AUSGEZOGEN
 10
1340.54
 20
36.14
 30
0
 11
1340.54
 21
26.64
 31
0
  0
LINE
  5
35F
100
AcDbEntity
  8
200
100
AcDbLine
370
-1
  6
AUSGEZOGEN
 10
1355.96
 20
53.58
 30
0
 11
1352.25
 21
51.99
 31
0
  0
LINE
  5
360
100
AcDbEntity
  8
200
100
AcDbLine
370
-1
  6
AUSGEZOGEN
 10
1359.67
 20
51.99
 30
0
 11
1355.96
 21
53.58
 31
0
  0
LINE
  5
361
100
AcDbEntity
  8
200
100
AcDbLine
370
-1
  6
AUSGEZOGEN
 10
1355.96
 20
40.9
 30
0
 11
1359.67
 21
42.48
 31
0
  0
LINE
  5
362
100
AcDbEntity
  8
200
100
AcDbLine
370
-1
  6
AUSGEZOGEN
 10
1352.25
 20
42.48
 30
0
 11
1355.96
 21
40.9
 31
0
  0
LINE
  5
363
100
AcDbEntity
  8
200
100
AcDbLine
370
-1
  6
AUSGEZOGEN
 10
1355.96
 20
37.73
 30
0
 11
1352.25
 21
36.14
 31
0
  0
LINE
  5
364
100
AcDbEntity
  8
200
100
AcDbLine
370
-1
  6
AUSGEZOGEN
 10
1359.67
 20
36.14
 30
0
 11
1355.96
 21
37.73
 31
0
  0
LINE
  5
365
100
AcDbEntity
  8
200
100
AcDbLine
370
-1
  6
AUSGEZOGEN
 10
1359.67
 20
26.64
 30
0
 11
1359.67
 21
36.14
 31
0
  0
LINE
  5
366
100
AcDbEntity
  8
200
100
AcDbLine
370
-1
  6
AUSGEZOGEN
 10
1355.96
 20
25.05
 30
0
 11
1359.67
 21
26.64
 31
0
  0
LINE
  5
367
100
AcDbEntity
  8
200
100
AcDbLine
370
-1
  6
AUSGEZOGEN
 10
1352.25
 20
26.64
 30
0
 11
1355.96
 21
25.05
 31
0
  0
LINE
  5
368
100
AcDbEntity
  8
200
100
AcDbLine
370
-1
  6
AUSGEZOGEN
 10
1352.25
 20
36.14
 30
0
 11
1352.25
 21
26.64
 31
0
  0
LINE
  5
369
100
AcDbEntity
  8
200
100
AcDbLine
370
-1
  6
AUSGEZOGEN
 10
1367.66
 20
53.58
 30
0
 11
1363.95
 21
51.99
 31
0
  0
LINE
  5
36A
100
AcDbEntity
  8
200
100
AcDbLine
370
-1
  6
AUSGEZOGEN
 10
1371.38
 20
51.99
 30
0
 11
1367.66
 21
53.58
 31
0
  0
LINE
  5
36B
100
AcDbEntity
  8
200
100
AcDbLine
370
-1
  6
AUSGEZOGEN
 10
1367.66
 20
40.9
 30
0
 11
1371.38
 21
42.48
 31
0
  0
LINE
  5
36C
100
AcDbEntity
  8
200
100
AcDbLine
370
-1
  6
AUSGEZOGEN
 10
1363.95
 20
42.48
 30
0
 11
1367.66
 21
40.9
 31
0
  0
LINE
  5
36D
100
AcDbEntity
  8
200
100
AcDbLine
370
-1
  6
AUSGEZOGEN
 10
1367.66
 20
37.73
 30
0
 11
1363.95
 21
36.14
 31
0
  0
LINE
  5
36E
100
AcDbEntity
  8
200
100
AcDbLine
370
-1
  6
AUSGEZOGEN
 10
1371.38
 20
36.14
 30
0
 11
1367.66
 21
37.73
 31
0
  0
LINE
  5
36F
100
AcDbEntity
  8
200
100
AcDbLine
370
-1
  6
AUSGEZOGEN
 10
1371.38
 20
26.64
 30
0
 11
1371.38
 21
36.14
 31
0
  0
LINE
  5
370
100
AcDbEntity
  8
200
100
AcDbLine
370
-1
  6
AUSGEZOGEN
 10
1367.66
 20
25.05
 30
0
 11
1371.38
 21
26.64
 31
0
  0
LINE
  5
371
100
AcDbEntity
  8
200
100
AcDbLine
370
-1
  6
AUSGEZOGEN
 10
1363.95
 20
26.64
 30
0
 11
1367.66
 21
25.05
 31
0
  0
LINE
  5
372
100
AcDbEntity
  8
200
100
AcDbLine
370
-1
  6
AUSGEZOGEN
 10
1363.95
 20
36.14
 30
0
 11
1363.95
 21
26.64
 31
0
  0
LINE
  5
373
100
AcDbEntity
  8
200
100
AcDbLine
370
-1
  6
AUSGEZOGEN
 10
1379.36
 20
53.58
 30
0
 11
1375.66
 21
51.99
 31
0
  0
LINE
  5
374
100
AcDbEntity
  8
200
100
AcDbLine
370
-1
  6
AUSGEZOGEN
 10
1383.08
 20
51.99
 30
0
 11
1379.36
 21
53.58
 31
0
  0
LINE
  5
375
100
AcDbEntity
  8
200
100
AcDbLine
370
-1
  6
AUSGEZOGEN
 10
1379.36
 20
40.9
 30
0
 11
1383.08
 21
42.48
 31
0
  0
LINE
  5
376
100
AcDbEntity
  8
200
100
AcDbLine
370
-1
  6
AUSGEZOGEN
 10
1375.66
 20
42.48
 30
0
 11
1379.36
 21
40.9
 31
0
  0
LINE
  5
377
100
AcDbEntity
  8
200
100
AcDbLine
370
-1
  6
AUSGEZOGEN
 10
1379.36
 20
37.73
 30
0
 11
1375.66
 21
36.14
 31
0
  0
LINE
  5
378
100
AcDbEntity
  8
200
100
AcDbLine
370
-1
  6
AUSGEZOGEN
 10
1383.08
 20
36.14
 30
0
 11
1379.36
 21
37.73
 31
0
  0
LINE
  5
379
100
AcDbEntity
  8
200
100
AcDbLine
370
-1
  6
AUSGEZOGEN
 10
1383.08
 20
26.64
 30
0
 11
1383.08
 21
36.14
 31
0
  0
LINE
  5
37A
100
AcDbEntity
  8
200
100
AcDbLine
370
-1
  6
AUSGEZOGEN
 10
1379.36
 20
25.05
 30
0
 11
1383.08
 21
26.64
 31
0
  0
LINE
  5
37B
100
AcDbEntity
  8
200
100
AcDbLine
370
-1
  6
AUSGEZOGEN
 10
1375.66
 20
26.64
 30
0
 11
1379.36
 21
25.05
 31
0
  0
LINE
  5
37C
100
AcDbEntity
  8
200
100
AcDbLine
370
-1
  6
AUSGEZOGEN
 10
1375.66
 20
36.14
 30
0
 11
1375.66
 21
26.64
 31
0
  0
LINE
  5
37D
100
AcDbEntity
  8
200
100
AcDbLine
370
-1
  6
AUSGEZOGEN
 10
1391.07
 20
53.58
 30
0
 11
1387.36
 21
51.99
 31
0
  0
LINE
  5
37E
100
AcDbEntity
  8
200
100
AcDbLine
370
-1
  6
AUSGEZOGEN
 10
1394.78
 20
51.99
 30
0
 11
1391.07
 21
53.58
 31
0
  0
LINE
  5
37F
100
AcDbEntity
  8
200
100
AcDbLine
370
-1
  6
AUSGEZOGEN
 10
1391.07
 20
40.9
 30
0
 11
1394.78
 21
42.48
 31
0
  0
LINE
  5
380
100
AcDbEntity
  8
200
100
AcDbLine
370
-1
  6
AUSGEZOGEN
 10
1387.36
 20
42.48
 30
0
 11
1391.07
 21
40.9
 31
0
  0
LINE
  5
381
100
AcDbEntity
  8
200
100
AcDbLine
370
-1
  6
AUSGEZOGEN
 10
1391.07
 20
37.73
 30
0
 11
1387.36
 21
36.14
 31
0
  0
LINE
  5
382
100
AcDbEntity
  8
200
100
AcDbLine
370
-1
  6
AUSGEZOGEN
 10
1394.78
 20
36.14
 30
0
 11
1391.07
 21
37.73
 31
0
  0
LINE
  5
383
100
AcDbEntity
  8
200
100
AcDbLine
370
-1
  6
AUSGEZOGEN
 10
1394.78
 20
26.64
 30
0
 11
1394.78
 21
36.14
 31
0
  0
LINE
  5
384
100
AcDbEntity
  8
200
100
AcDbLine
370
-1
  6
AUSGEZOGEN
 10
1391.07
 20
25.05
 30
0
 11
1394.78
 21
26.64
 31
0
  0
LINE
  5
385
100
AcDbEntity
  8
200
100
AcDbLine
370
-1
  6
AUSGEZOGEN
 10
1387.36
 20
26.64
 30
0
 11
1391.07
 21
25.05
 31
0
  0
LINE
  5
386
100
AcDbEntity
  8
200
100
AcDbLine
370
-1
  6
AUSGEZOGEN
 10
1387.36
 20
36.14
 30
0
 11
1387.36
 21
26.64
 31
0
  0
LINE
  5
387
100
AcDbEntity
  8
200
100
AcDbLine
370
-1
  6
AUSGEZOGEN
 10
1402.77
 20
53.58
 30
0
 11
1399.07
 21
51.99
 31
0
  0
LINE
  5
388
100
AcDbEntity
  8
200
100
AcDbLine
370
-1
  6
AUSGEZOGEN
 10
1406.48
 20
51.99
 30
0
 11
1402.77
 21
53.58
 31
0
  0
LINE
  5
389
100
AcDbEntity
  8
200
100
AcDbLine
370
-1
  6
AUSGEZOGEN
 10
1402.77
 20
40.9
 30
0
 11
1406.48
 21
42.48
 31
0
  0
LINE
  5
38A
100
AcDbEntity
  8
200
100
AcDbLine
370
-1
  6
AUSGEZOGEN
 10
1399.07
 20
42.48
 30
0
 11
1402.77
 21
40.9
 31
0
  0
LINE
  5
38B
100
AcDbEntity
  8
200
100
AcDbLine
370
-1
  6
AUSGEZOGEN
 10
1402.77
 20
37.73
 30
0
 11
1399.07
 21
36.14
 31
0
  0
LINE
  5
38C
100
AcDbEntity
  8
200
100
AcDbLine
370
-1
  6
AUSGEZOGEN
 10
1406.48
 20
36.14
 30
0
 11
1402.77
 21
37.73
 31
0
  0
LINE
  5
38D
100
AcDbEntity
  8
200
100
AcDbLine
370
-1
  6
AUSGEZOGEN
 10
1406.48
 20
26.64
 30
0
 11
1406.48
 21
36.14
 31
0
  0
LINE
  5
38E
100
AcDbEntity
  8
200
100
AcDbLine
370
-1
  6
AUSGEZOGEN
 10
1402.77
 20
25.05
 30
0
 11
1406.48
 21
26.64
 31
0
  0
LINE
  5
38F
100
AcDbEntity
  8
200
100
AcDbLine
370
-1
  6
AUSGEZOGEN
 10
1399.07
 20
26.64
 30
0
 11
1402.77
 21
25.05
 31
0
  0
LINE
  5
390
100
AcDbEntity
  8
200
100
AcDbLine
370
-1
  6
AUSGEZOGEN
 10
1399.07
 20
36.14
 30
0
 11
1399.07
 21
26.64
 31
0
  0
LINE
  5
391
100
AcDbEntity
  8
200
100
AcDbLine
370
-1
  6
AUSGEZOGEN
 10
1414.48
 20
53.58
 30
0
 11
1410.77
 21
51.99
 31
0
  0
LINE
  5
392
100
AcDbEntity
  8
200
100
AcDbLine
370
-1
  6
AUSGEZOGEN
 10
1418.18
 20
51.99
 30
0
 11
1414.48
 21
53.58
 31
0
  0
LINE
  5
393
100
AcDbEntity
  8
200
100
AcDbLine
370
-1
  6
AUSGEZOGEN
 10
1414.48
 20
40.9
 30
0
 11
1418.18
 21
42.48
 31
0
  0
LINE
  5
394
100
AcDbEntity
  8
200
100
AcDbLine
370
-1
  6
AUSGEZOGEN
 10
1410.77
 20
42.48
 30
0
 11
1414.48
 21
40.9
 31
0
  0
LINE
  5
395
100
AcDbEntity
  8
200
100
AcDbLine
370
-1
  6
AUSGEZOGEN
 10
1414.48
 20
37.73
 30
0
 11
1410.77
 21
36.14
 31
0
  0
LINE
  5
396
100
AcDbEntity
  8
200
100
AcDbLine
370
-1
  6
AUSGEZOGEN
 10
1418.18
 20
36.14
 30
0
 11
1414.48
 21
37.73
 31
0
  0
LINE
  5
397
100
AcDbEntity
  8
200
100
AcDbLine
370
-1
  6
AUSGEZOGEN
 10
1418.18
 20
26.64
 30
0
 11
1418.18
 21
36.14
 31
0
  0
LINE
  5
398
100
AcDbEntity
  8
200
100
AcDbLine
370
-1
  6
AUSGEZOGEN
 10
1414.48
 20
25.05
 30
0
 11
1418.18
 21
26.64
 31
0
  0
LINE
  5
399
100
AcDbEntity
  8
200
100
AcDbLine
370
-1
  6
AUSGEZOGEN
 10
1410.77
 20
26.64
 30
0
 11
1414.48
 21
25.05
 31
0
  0
LINE
  5
39A
100
AcDbEntity
  8
200
100
AcDbLine
370
-1
  6
AUSGEZOGEN
 10
1410.77
 20
36.14
 30
0
 11
1410.77
 21
26.64
 31
0
  0
LINE
  5
39B
100
AcDbEntity
  8
200
100
AcDbLine
370
-1
  6
AUSGEZOGEN
 10
1426.18
 20
53.58
 30
0
 11
1422.47
 21
51.99
 31
0
  0
LINE
  5
39C
100
AcDbEntity
  8
200
100
AcDbLine
370
-1
  6
AUSGEZOGEN
 10
1429.89
 20
51.99
 30
0
 11
1426.18
 21
53.58
 31
0
  0
LINE
  5
39D
100
AcDbEntity
  8
200
100
AcDbLine
370
-1
  6
AUSGEZOGEN
 10
1426.18
 20
40.9
 30
0
 11
1429.89
 21
42.48
 31
0
  0
LINE
  5
39E
100
AcDbEntity
  8
200
100
AcDbLine
370
-1
  6
AUSGEZOGEN
 10
1422.47
 20
42.48
 30
0
 11
1426.18
 21
40.9
 31
0
  0
LINE
  5
39F
100
AcDbEntity
  8
200
100
AcDbLine
370
-1
  6
AUSGEZOGEN
 10
1426.18
 20
37.73
 30
0
 11
1422.47
 21
36.14
 31
0
  0
LINE
  5
3A0
100
AcDbEntity
  8
200
100
AcDbLine
370
-1
  6
AUSGEZOGEN
 10
1429.89
 20
36.14
 30
0
 11
1426.18
 21
37.73
 31
0
  0
LINE
  5
3A1
100
AcDbEntity
  8
200
100
AcDbLine
370
-1
  6
AUSGEZOGEN
 10
1429.89
 20
26.64
 30
0
 11
1429.89
 21
36.14
 31
0
  0
LINE
  5
3A2
100
AcDbEntity
  8
200
100
AcDbLine
370
-1
  6
AUSGEZOGEN
 10
1426.18
 20
25.05
 30
0
 11
1429.89
 21
26.64
 31
0
  0
LINE
  5
3A3
100
AcDbEntity
  8
200
100
AcDbLine
370
-1
  6
AUSGEZOGEN
 10
1422.47
 20
26.64
 30
0
 11
1426.18
 21
25.05
 31
0
  0
LINE
  5
3A4
100
AcDbEntity
  8
200
100
AcDbLine
370
-1
  6
AUSGEZOGEN
 10
1422.47
 20
36.14
 30
0
 11
1422.47
 21
26.64
 31
0
  0
LINE
  5
3A5
100
AcDbEntity
  8
200
100
AcDbLine
370
-1
  6
AUSGEZOGEN
 10
1437.89
 20
53.58
 30
0
 11
1434.18
 21
51.99
 31
0
  0
LINE
  5
3A6
100
AcDbEntity
  8
200
100
AcDbLine
370
-1
  6
AUSGEZOGEN
 10
1441.59
 20
51.99
 30
0
 11
1437.89
 21
53.58
 31
0
  0
LINE
  5
3A7
100
AcDbEntity
  8
200
100
AcDbLine
370
-1
  6
AUSGEZOGEN
 10
1437.89
 20
40.9
 30
0
 11
1441.59
 21
42.48
 31
0
  0
LINE
  5
3A8
100
AcDbEntity
  8
200
100
AcDbLine
370
-1
  6
AUSGEZOGEN
 10
1434.18
 20
42.48
 30
0
 11
1437.89
 21
40.9
 31
0
  0
LINE
  5
3A9
100
AcDbEntity
  8
200
100
AcDbLine
370
-1
  6
AUSGEZOGEN
 10
1437.89
 20
37.73
 30
0
 11
1434.18
 21
36.14
 31
0
  0
LINE
  5
3AA
100
AcDbEntity
  8
200
100
AcDbLine
370
-1
  6
AUSGEZOGEN
 10
1441.59
 20
36.14
 30
0
 11
1437.89
 21
37.73
 31
0
  0
LINE
  5
3AB
100
AcDbEntity
  8
200
100
AcDbLine
370
-1
  6
AUSGEZOGEN
 10
1441.59
 20
26.64
 30
0
 11
1441.59
 21
36.14
 31
0
  0
LINE
  5
3AC
100
AcDbEntity
  8
200
100
AcDbLine
370
-1
  6
AUSGEZOGEN
 10
1437.89
 20
25.05
 30
0
 11
1441.59
 21
26.64
 31
0
  0
LINE
  5
3AD
100
AcDbEntity
  8
200
100
AcDbLine
370
-1
  6
AUSGEZOGEN
 10
1434.18
 20
26.64
 30
0
 11
1437.89
 21
25.05
 31
0
  0
LINE
  5
3AE
100
AcDbEntity
  8
200
100
AcDbLine
370
-1
  6
AUSGEZOGEN
 10
1434.18
 20
36.14
 30
0
 11
1434.18
 21
26.64
 31
0
  0
LINE
  5
3AF
100
AcDbEntity
  8
200
100
AcDbLine
370
-1
  6
AUSGEZOGEN
 10
1449.59
 20
53.58
 30
0
 11
1445.88
 21
51.99
 31
0
  0
LINE
  5
3B0
100
AcDbEntity
  8
200
100
AcDbLine
370
-1
  6
AUSGEZOGEN
 10
1453.3
 20
51.99
 30
0
 11
1449.59
 21
53.58
 31
0
  0
LINE
  5
3B1
100
AcDbEntity
  8
200
100
AcDbLine
370
-1
  6
AUSGEZOGEN
 10
1449.59
 20
40.9
 30
0
 11
1453.3
 21
42.48
 31
0
  0
LINE
  5
3B2
100
AcDbEntity
  8
200
100
AcDbLine
370
-1
  6
AUSGEZOGEN
 10
1445.88
 20
42.48
 30
0
 11
1449.59
 21
40.9
 31
0
  0
LINE
  5
3B3
100
AcDbEntity
  8
200
100
AcDbLine
370
-1
  6
AUSGEZOGEN
 10
1449.59
 20
37.73
 30
0
 11
1445.88
 21
36.14
 31
0
  0
LINE
  5
3B4
100
AcDbEntity
  8
200
100
AcDbLine
370
-1
  6
AUSGEZOGEN
 10
1453.3
 20
36.14
 30
0
 11
1449.59
 21
37.73
 31
0
  0
LINE
  5
3B5
100
AcDbEntity
  8
200
100
AcDbLine
370
-1
  6
AUSGEZOGEN
 10
1453.3
 20
26.64
 30
0
 11
1453.3
 21
36.14
 31
0
  0
LINE
  5
3B6
100
AcDbEntity
  8
200
100
AcDbLine
370
-1
  6
AUSGEZOGEN
 10
1449.59
 20
25.05
 30
0
 11
1453.3
 21
26.64
 31
0
  0
LINE
  5
3B7
100
AcDbEntity
  8
200
100
AcDbLine
370
-1
  6
AUSGEZOGEN
 10
1445.88
 20
26.64
 30
0
 11
1449.59
 21
25.05
 31
0
  0
LINE
  5
3B8
100
AcDbEntity
  8
200
100
AcDbLine
370
-1
  6
AUSGEZOGEN
 10
1445.88
 20
36.14
 30
0
 11
1445.88
 21
26.64
 31
0
  0
LINE
  5
3B9
100
AcDbEntity
  8
200
100
AcDbLine
370
-1
  6
AUSGEZOGEN
 10
1461.29
 20
53.58
 30
0
 11
1457.58
 21
51.99
 31
0
  0
LINE
  5
3BA
100
AcDbEntity
  8
200
100
AcDbLine
370
-1
  6
AUSGEZOGEN
 10
1465
 20
51.99
 30
0
 11
1461.29
 21
53.58
 31
0
  0
LINE
  5
3BB
100
AcDbEntity
  8
200
100
AcDbLine
370
-1
  6
AUSGEZOGEN
 10
1461.29
 20
40.9
 30
0
 11
1465
 21
42.48
 31
0
  0
LINE
  5
3BC
100
AcDbEntity
  8
200
100
AcDbLine
370
-1
  6
AUSGEZOGEN
 10
1457.58
 20
42.48
 30
0
 11
1461.29
 21
40.9
 31
0
  0
LINE
  5
3BD
100
AcDbEntity
  8
200
100
AcDbLine
370
-1
  6
AUSGEZOGEN
 10
1461.29
 20
37.73
 30
0
 11
1457.58
 21
36.14
 31
0
  0
LINE
  5
3BE
100
AcDbEntity
  8
200
100
AcDbLine
370
-1
  6
AUSGEZOGEN
 10
1465
 20
36.14
 30
0
 11
1461.29
 21
37.73
 31
0
  0
LINE
  5
3BF
100
AcDbEntity
  8
200
100
AcDbLine
370
-1
  6
AUSGEZOGEN
 10
1465
 20
26.64
 30
0
 11
1465
 21
36.14
 31
0
  0
LINE
  5
3C0
100
AcDbEntity
  8
200
100
AcDbLine
370
-1
  6
AUSGEZOGEN
 10
1461.29
 20
25.05
 30
0
 11
1465
 21
26.64
 31
0
  0
LINE
  5
3C1
100
AcDbEntity
  8
200
100
AcDbLine
370
-1
  6
AUSGEZOGEN
 10
1457.58
 20
26.64
 30
0
 11
1461.29
 21
25.05
 31
0
  0
LINE
  5
3C2
100
AcDbEntity
  8
200
100
AcDbLine
370
-1
  6
AUSGEZOGEN
 10
1457.58
 20
36.14
 30
0
 11
1457.58
 21
26.64
 31
0
  0
LINE
  5
3C3
100
AcDbEntity
  8
200
100
AcDbLine
370
-1
  6
AUSGEZOGEN
 10
1455
 20
0
 30
0
 11
1455
 21
15
 31
0
  0
LINE
  5
3C4
100
AcDbEntity
  8
200
100
AcDbLine
370
-1
  6
AUSGEZOGEN
 10
1485
 20
15
 30
0
 11
1485
 21
0
 31
0
  0
LINE
  5
3C5
100
AcDbEntity
  8
200
100
AcDbLine
370
-1
  6
AUSGEZOGEN
 10
1455
 20
0
 30
0
 11
1485
 21
0
 31
0
  0
LINE
  5
3C6
100
AcDbEntity
  8
200
100
AcDbLine
370
-1
  6
AUSGEZOGEN
 10
15
 20
15
 30
0
 11
15
 21
0
 31
0
  0
LINE
  5
3C7
100
AcDbEntity
  8
200
100
AcDbLine
370
-1
  6
AUSGEZOGEN
 10
1500
 20
15
 30
0
 11
0
 21
15
 31
0
  0
LINE
  5
3C8
100
AcDbEntity
  8
200
100
AcDbLine
370
-1
  6
AUSGEZOGEN
 10
45
 20
0
 30
0
 11
45
 21
15
 31
0
  0
LINE
  5
3C9
100
AcDbEntity
  8
200
100
AcDbLine
370
-1
  6
AUSGEZOGEN
 10
15
 20
0
 30
0
 11
45
 21
0
 31
0
  0
LINE
  5
3CA
100
AcDbEntity
  8
200
100
AcDbLine
370
-1
  6
AUSGEZOGEN
 10
1150
 20
199.77
 30
0
 11
15
 21
199.77
 31
0
  0
LINE
  5
3CB
100
AcDbEntity
  8
200
100
AcDbLine
370
-1
  6
AUSGEZOGEN
 10
15
 20
249.41
 30
0
 11
1150
 21
249.41
 31
0
  0
LINE
  5
3CC
100
AcDbEntity
  8
200
100
AcDbLine
370
-1
  6
AUSGEZOGEN
 10
1150
 20
199.77
 30
0
 11
1150
 21
249.41
 31
0
  0
LINE
  5
3CD
100
AcDbEntity
  8
200
100
AcDbLine
370
-1
  6
AUSGEZOGEN
 10
15
 20
249.41
 30
0
 11
15
 21
199.77
 31
0
  0
LINE
  5
3CE
100
AcDbEntity
  8
200
100
AcDbLine
370
-1
  6
AUSGEZOGEN
 10
11
 20
280
 30
0
 11
14
 21
280
 31
0
  0
LINE
  5
3CF
100
AcDbEntity
  8
200
100
AcDbLine
370
-1
  6
AUSGEZOGEN
 10
14
 20
217.54
 30
0
 11
14
 21
280
 31
0
  0
LINE
  5
3D0
100
AcDbEntity
  8
200
100
AcDbLine
370
-1
  6
AUSGEZOGEN
 10
11
 20
217.54
 30
0
 11
14
 21
217.54
 31
0
  0
LINE
  5
3D1
100
AcDbEntity
  8
200
100
AcDbLine
370
-1
  6
AUSGEZOGEN
 10
11
 20
280
 30
0
 11
11
 21
217.54
 31
0
  0
LINE
  5
3D2
100
AcDbEntity
  8
200
100
AcDbLine
370
-1
  6
AUSGEZOGEN
 10
1154
 20
280
 30
0
 11
1151
 21
280
 31
0
  0
LINE
  5
3D3
100
AcDbEntity
  8
200
100
AcDbLine
370
-1
  6
AUSGEZOGEN
 10
1154
 20
217.54
 30
0
 11
1154
 21
280
 31
0
  0
LINE
  5
3D4
100
AcDbEntity
  8
200
100
AcDbLine
370
-1
  6
AUSGEZOGEN
 10
1151
 20
217.54
 30
0
 11
1154
 21
217.54
 31
0
  0
LINE
  5
3D5
100
AcDbEntity
  8
200
100
AcDbLine
370
-1
  6
AUSGEZOGEN
 10
1151
 20
280
 30
0
 11
1151
 21
217.54
 31
0
  0
ATTDEF
  5
3D7
100
AcDbEntity
  8
0
100
AcDbText
370
-1
 10
0
 20
0
 30
0
 40
1
  1

 50
0
 41
1
 51
0
  7
STANDARD
 71
0
 72
0
 11
0
 21
0
 31
0
100
AcDbAttributeDefinition
  3

  2

 70
0
 74
0
1001
AcDbAttr
1070
0
1070
0
  0
ENDBLK
  5
3F4
100
AcDbEntity
  8
0
100
AcDbBlockEnd
  0
BLOCK
  5
3DD
100
AcDbEntity
  8
400
100
AcDbBlockBegin
  2
INST_BLOCK_00001
 70
2
 10
0
 20
0
 30
0
  3
INST_BLOCK_00001
  1

  0
CIRCLE
  5
20
100
AcDbEntity
  8
400
100
AcDbCircle
370
-1
  6
AUSGEZOGEN
 10
1400
 20
1100
 30
0
 40
50
  0
LINE
  5
21
100
AcDbEntity
  8
400
100
AcDbLine
370
-1
  6
AUSGEZOGEN
 10
1325
 20
1100
 30
0
 11
1400
 21
1100
 31
0
  0
LINE
  5
22
100
AcDbEntity
  8
400
100
AcDbLine
370
-1
  6
AUSGEZOGEN
 10
1475
 20
1100
 30
0
 11
1400
 21
1100
 31
0
  0
LINE
  5
23
100
AcDbEntity
  8
400
100
AcDbLine
370
-1
  6
AUSGEZOGEN
 10
1400
 20
1025
 30
0
 11
1400
 21
1100
 31
0
  0
LINE
  5
24
100
AcDbEntity
  8
400
100
AcDbLine
370
-1
  6
AUSGEZOGEN
 10
1400
 20
1175
 30
0
 11
1400
 21
1100
 31
0
  0
ATTDEF
  5
3DC
100
AcDbEntity
  8
0
100
AcDbText
370
-1
 10
0
 20
0
 30
0
 40
1
  1

 50
0
 41
1
 51
0
  7
STANDARD
 71
0
 72
0
 11
0
 21
0
 31
0
100
AcDbAttributeDefinition
  3

  2

 70
0
 74
0
1001
AcDbAttr
1070
0
1070
0
  0
ENDBLK
  5
3F5
100
AcDbEntity
  8
0
100
AcDbBlockEnd
  0
ENDSEC
  0
SECTION
  2
ENTITIES
  0
LINE
  5
1C
100
AcDbEntity
  8
400
100
AcDbLine
370
-1
  6
AUSGEZOGEN
 10
1400
 20
1100
 30
0
 11
1861.5
 21
146.5
 31
0
  0
LINE
  5
1F
100
AcDbEntity
  8
400
100
AcDbLine
370
-1
  6
AUSGEZOGEN
 10
2374.88
 20
146.5
 30
0
 11
1861.5
 21
146.5
 31
0
  0
TEXT
  5
3D6
100
AcDbEntity
  8
400
100
AcDbText
370
-1
 10
1875
 20
160
 30
0
 40
45
  1
EZ: 230V 50Hz 0,11kW
 50
0
 41
0.600000023841858
 51
0
  7
STANDARD
 71
0
 72
0
 11
0
 21
0
 31
0
100
AcDbText
 73
0
  0
INSERT
  5
3DB
100
AcDbEntity
  8
200
100
AcDbBlockReference
370
-1
  6
BYLAYER
 66
1
  2
GER_BLOCK_00001
 10
0
 20
0
 30
0
 41
1
 42
1
 43
1
  0
ATTRIB
  5
3DA
100
AcDbEntity
  8
0
100
AcDbText
370
-1
 10
0
 20
0
 30
0
 40
20
  1

 50
0
 41
1
 51
0
  7
STANDARD
 71
0
 72
0
 11
0
 21
0
 31
0
100
AcDbAttribute
  2

 70
0
 74
0
1001
AcDbAttr
1070
0
1070
0
  0
SEQEND
  5
3F6
100
AcDbEntity
  8
0
  0
INSERT
  5
3E0
100
AcDbEntity
  8
400
100
AcDbBlockReference
370
-1
  6
BYLAYER
 66
1
  2
INST_BLOCK_00001
 10
0
 20
0
 30
0
 41
1
 42
1
 43
1
  0
ATTRIB
  5
3DF
100
AcDbEntity
  8
0
100
AcDbText
370
-1
 10
0
 20
0
 30
0
 40
20
  1

 50
0
 41
1
 51
0
  7
STANDARD
 71
0
 72
0
 11
0
 21
0
 31
0
100
AcDbAttribute
  2

 70
0
 74
0
1001
AcDbAttr
1070
0
1070
0
  0
SEQEND
  5
3F7
100
AcDbEntity
  8
0
  0
ATTDEF
  5
3E1
100
AcDbEntity
  8
550
100
AcDbText
370
-1
 10
10
 20
100
 30
0
 40
30
  1

 50
0
 41
1
 51
0
  7
STANDARD
 71
0
 72
0
 11
0
 21
0
 31
0
100
AcDbAttributeDefinition
  3
KBS-341150
  2
KBS-341150
 70
1
 74
0
1001
AcDbAttr
1070
0
1070
0
  0
TEXT
  5
3E2
100
AcDbEntity
  8
510
100
AcDbText
370
-1
 10
10
 20
-45
 30
0
 40
30
  1

 50
0
 41
1
 51
0
  7
STANDARD
 71
0
 72
0
 11
0
 21
0
 31
0
100
AcDbText
 73
0
  0
ENDSEC
  0
SECTION
  2
OBJECTS
  0
DICTIONARY
  5
3F8
100
AcDbDictionary
  3
ACAD_GROUP
350
3F9
  3
ACAD_MATERIAL
350
3FA
  3
ACAD_WIPEOUT_VARS
350
3FB
  3
ACAD_MLINESTYLE
350
3FC
  3
ACAD_LAYOUT
350
3FD
  0
DICTIONARY
  5
3F9
330
3F8
100
AcDbDictionary
  0
DICTIONARY
  5
3FA
330
3F8
100
AcDbDictionary
  0
WIPEOUTVARIABLES
  5
3FB
330
3F8
100
AcDbWipeoutVariables
 70
1
  0
DICTIONARY
  5
3FC
330
3F8
100
AcDbDictionary
  3
STANDARD
350
3FE
  0
MLINESTYLE
  5
3FE
100
AcDbMlineStyle
  2
STANDARD
 70
0
  3

 62
256
 51
90
 52
90
 71
2
 49
0.5
 62
256
  6
ByLayer
 49
-0.5
 62
256
  6
ByLayer
  0
DICTIONARY
  5
3FD
100
AcDbDictionary
281
1
  3
Model
350
3E3
  0
LAYOUT
  5
3E3
102
{ACAD_REACTORS
330
3FD
102
}
330
3FD
100
AcDbPlotSettings
  1

  2
none_device
  4

  6

 40
0
 41
0
 42
0
 43
0
 44
0
 45
0
 46
0
 47
0
 48
0
 49
0
 70
1712
 72
1
 73
0
 74
5
 75
16
 76
0
 77
0
 78
100
140
0
141
0
142
1
143
1
147
1
148
0
149
0
100
AcDbLayout
  1
Model
 70
1
 71
1
 10
0
 20
0
 11
2374.88
 21
1175
 12
0
 22
0
 32
0
 14
0
 24
0
 34
0
 15
2374.88
 25
1175
 35
0
146
0
 13
0
 23
0
 33
0
 16
1
 26
0
 36
0
 17
0
 27
1
 37
0
 76
0
330
1E
  0
DICTIONARY
  5
3FF
100
AcDbDictionary
280
1
  3
XINFO
360
400
  0
XRECORD
  5
400
102
{ACAD_REACTORS
330
3FF
102
}
330
3FF
100
AcDbXrecord
280
0
310
8F24010003000900
311
831E6ACA25095128
  0
ENDSEC
  0
EOF
