999
     Created by SWS GmbH, Paderborn, Germany, www.sws-online.de
999
     and  Soft Gold Ltd. www.cadsofttools.com
999

999
SWS-intern Ausgabemassstab:
999
   0.0500
999

999
SWS-intern Koordinatenwerte 1:1:
999
1
999

  0
SECTION
  2
HEADER
  9
$ACADVER
  1
AC1018
  9
$DWGCODEPAGE
  3
ANSI_1252
  9
$CLAYER
  8
0
  9
$CELTYPE
  6
BYLAYER
  9
$CELTSCALE
 40
1
  9
$CELWEIGHT
370
-1
  9
$DIMALT
 70
0
  9
$DIMALTF
 40
1
  9
$DIMPOST
  1

  9
$DIMAPOST
  1

  9
$DIMSCALE
 40
1
  9
$DIMASZ
 40
0.18
  9
$DIMCLRD
 70
0
  9
$DIMCLRE
 70
0
  9
$DIMCLRT
 70
0
  9
$DIMEXE
 40
0.18
  9
$DIMEXO
 40
0.0625
  9
$DIMGAP
 40
0.0625
  9
$DIMLFAC
 40
1
  9
$DIMDEC
 70
4
  9
$DIMTAD
 70
0
  9
$DIMCEN
 40
0.09
  9
$DIMTIH
 70
1
  9
$DIMTIX
 70
0
  9
$DIMTOH
 70
1
  9
$DIMSE1
 70
0
  9
$DIMSE2
 70
0
  9
$DIMSD1
 70
0
  9
$DIMSD2
 70
0
  9
$DIMLWD
 70
-1
  9
$DIMLWE
 70
-1
  9
$DIMSAH
 70
0
  9
$DIMBLK
  1

  9
$DIMBLK1
  1

  9
$DIMBLK2
  1

  9
$DIMLDRBLK
  1

  9
$DIMSTYLE
  2
STANDARD
  9
$DIMTP
 40
0
  9
$DIMTM
 40
0
  9
$DIMTXT
 40
0.18
  9
$DIMLUNIT
 70
2
  9
$DIMDSEP
 70
46
  9
$DIMTXSTY
  7
STANDARD
  9
$TEXTSIZE
 40
0.18
  9
$TEXTSTYLE
  7
STANDARD
  9
$HANDSEED
  5
0000000000000188
  9
$FILLETRAD
 40
0.5
  9
$INSUNITS
 70
4
  9
$LIMMIN
 10
-230.25125
 20
-109.375
  9
$LIMMAX
 10
2072.26125
 20
984.375
  9
$FILLMODE
 70
1
  9
$LTSCALE
 40
1
  9
$PSLTSCALE
 70
0
  9
$MEASUREMENT
 70
0
  9
$ATTMODE
 70
1
  9
$PDMODE
 70
0
  9
$PDSIZE
 40
0
  9
$TILEMODE
 70
1
  9
$UCSORG
 10
0
 20
0
 30
0
  9
$UCSXDIR
 10
1
 20
0
 30
0
  9
$UCSYDIR
 10
0
 20
1
 30
0
  9
$INSBASE
 10
0
 20
0
 30
0
  9
$XCLIPFRAME
290
1
  9
$DIMASSOC
280
2
  9
$TDCREATE
 40
2459104.65310647
  9
$TDINDWG
 40
1.38888888888889E-7
  9
$TDUPDATE
 40
2459104.65310661
  0
ENDSEC
  0
SECTION
  2
CLASSES
  0
CLASS
  1
IMAGE
  2
AcDbRasterImage
  3
ISM
 90
2175
 91
1
280
0
281
1
  0
CLASS
  1
IMAGEDEF
  2
AcDbRasterImageDef
  3
ISM
 90
0
 91
1
280
0
281
0
  0
CLASS
  1
WIPEOUT
  2
AcDbWipeout
  3
"WipeOut"
 90
2175
 91
1
280
0
281
1
  0
CLASS
  1
WIPEOUTVARIABLES
  2
AcDbWipeoutVariables
  3
"WipeOut"
 90
0
 91
1
280
0
281
0
  0
CLASS
  1
MPOLYGON
  2
AcDbMPolygon
  3
"AcMPolygonObj15"
 90
3071
 91
1
280
0
281
1
  0
ENDSEC
  0
SECTION
  2
TABLES
  0
TABLE
  2
APPID
  5
16B
100
AcDbSymbolTable
  0
APPID
  5
16C
100
AcDbSymbolTableRecord
100
AcDbRegAppTableRecord
  2
ACAD
 70
0
  0
APPID
  5
12
100
AcDbSymbolTableRecord
100
AcDbRegAppTableRecord
  2
CSTINVENTORY
 70
0
  0
APPID
  5
16D
100
AcDbSymbolTableRecord
100
AcDbRegAppTableRecord
  2
AcDbAttr
 70
0
  0
APPID
  5
16E
100
AcDbSymbolTableRecord
100
AcDbRegAppTableRecord
  2
PE_URL
 70
0
  0
ENDTAB
  0
TABLE
  2
BLOCK_RECORD
  5
16F
100
AcDbSymbolTable
  0
BLOCK_RECORD
  5
1E
100
AcDbSymbolTableRecord
100
AcDbBlockTableRecord
  2
*MODEL_SPACE
  0
BLOCK_RECORD
  5
170
100
AcDbSymbolTableRecord
100
AcDbBlockTableRecord
  2
*PAPER_SPACE
  0
BLOCK_RECORD
  5
10
100
AcDbSymbolTableRecord
100
AcDbBlockTableRecord
  2
_CLOSEDFILLED
  0
BLOCK_RECORD
  5
160
100
AcDbSymbolTableRecord
100
AcDbBlockTableRecord
  2
GER_BLOCK_00001
  0
BLOCK_RECORD
  5
165
100
AcDbSymbolTableRecord
100
AcDbBlockTableRecord
  2
INST_BLOCK_00001
  0
ENDTAB
  0
TABLE
  2
STYLE
  5
3
100
AcDbSymbolTable
  0
STYLE
  5
A
100
AcDbSymbolTableRecord
100
AcDbTextStyleTableRecord
  2
STANDARD
 70
0
 40
0
 41
1
 50
0
 71
0
 42
30
  3
TXT.SHX
  4

1001
ACAD
1000
txt
1071
0
  0
ENDTAB
  0
TABLE
  2
LTYPE
  5
1
100
AcDbSymbolTable
  0
LTYPE
  5
9
100
AcDbSymbolTableRecord
100
AcDbLinetypeTableRecord
  2
CONTINUOUS
 70
0
  3

 72
65
 73
0
 40
0
  0
LTYPE
  5
7
100
AcDbSymbolTableRecord
100
AcDbLinetypeTableRecord
  2
BYLAYER
 70
0
  3

 72
65
 73
0
 40
0
  0
LTYPE
  5
8
100
AcDbSymbolTableRecord
100
AcDbLinetypeTableRecord
  2
BYBLOCK
 70
0
  3

 72
65
 73
0
 40
0
  0
LTYPE
  5
13
100
AcDbSymbolTableRecord
100
AcDbLinetypeTableRecord
  2
AUSGEZOGEN
 70
0
  3
.
 72
65
 73
1
 40
0
 49
0
 74
0
  0
LTYPE
  5
14
100
AcDbSymbolTableRecord
100
AcDbLinetypeTableRecord
  2
PUNKTIERT
 70
0
  3
. 
 72
65
 73
2
 40
30
 49
0
 74
0
 49
-30
 74
0
  0
LTYPE
  5
15
100
AcDbSymbolTableRecord
100
AcDbLinetypeTableRecord
  2
GESTRICHELT
 70
0
  3
_ 
 72
65
 73
2
 40
80
 49
50
 74
0
 49
-30
 74
0
  0
LTYPE
  5
16
100
AcDbSymbolTableRecord
100
AcDbLinetypeTableRecord
  2
STRICHPUNKT
 70
0
  3
_ . 
 72
65
 73
4
 40
160
 49
100
 74
0
 49
-30
 74
0
 49
0
 74
0
 49
-30
 74
0
  0
LTYPE
  5
17
100
AcDbSymbolTableRecord
100
AcDbLinetypeTableRecord
  2
GETRENNT
 70
0
  3
_ . . 
 72
65
 73
6
 40
190
 49
100
 74
0
 49
-30
 74
0
 49
0
 74
0
 49
-30
 74
0
 49
0
 74
0
 49
-30
 74
0
  0
ENDTAB
  0
TABLE
  2
LAYER
  5
2
100
AcDbSymbolTable
  0
LAYER
  5
E
100
AcDbSymbolTableRecord
100
AcDbLayerTableRecord
  2
0
 70
0
 62
1
420
16711680
  6
AUSGEZOGEN
290
1
370
-3
390
0
  0
LAYER
  5
18
100
AcDbSymbolTableRecord
100
AcDbLayerTableRecord
  2
550
 70
0
 62
2
420
16776960
  6
AUSGEZOGEN
290
1
370
-3
390
0
  0
LAYER
  5
19
100
AcDbSymbolTableRecord
100
AcDbLayerTableRecord
  2
510
 70
0
 62
2
420
16776960
  6
AUSGEZOGEN
290
1
370
-3
390
0
  0
LAYER
  5
1A
100
AcDbSymbolTableRecord
100
AcDbLayerTableRecord
  2
200
 70
0
 62
7
  6
AUSGEZOGEN
290
1
370
-3
390
0
  0
LAYER
  5
1B
100
AcDbSymbolTableRecord
100
AcDbLayerTableRecord
  2
400
 70
0
 62
4
420
65535
  6
AUSGEZOGEN
290
1
370
-3
390
0
  0
ENDTAB
  0
TABLE
  2
VPORT
  5
171
100
AcDbSymbolTable
  0
VPORT
  5
173
100
AcDbSymbolTableRecord
100
AcDbViewportTableRecord
  2
*ACTIVE
 70
0
 10
0
 20
0
 11
1
 21
1
 12
921.005
 22
437.5
 32
0
 13
0
 23
0
 14
1
 24
1
 15
1
 25
1
 16
0
 26
0
 36
1
 17
0
 27
0
 37
0
 40
875
 41
2.10515428571429
 42
50
 43
0
 44
0
 50
0
 51
0
 71
0
 72
100
 73
1
 74
1
 75
0
 76
0
 77
0
 78
0
  0
ENDTAB
  0
TABLE
  2
VIEW
  5
174
100
AcDbSymbolTable
  0
ENDTAB
  0
TABLE
  2
UCS
  5
175
100
AcDbSymbolTable
  0
ENDTAB
  0
TABLE
  2
DIMSTYLE
  5
4
100
AcDbSymbolTable
 70
1
100
AcDbDimStyleTable
 71
0
  0
DIMSTYLE
105
B
100
AcDbSymbolTableRecord
100
AcDbDimStyleTableRecord
  2
STANDARD
 70
0
  3

 40
1
 41
0.18
 42
0.0625
 44
0.18
 47
0
 48
0
 73
1
 74
1
 75
0
 76
0
 77
0
140
0.18
141
0.09
144
1
147
0.0625
173
0
174
0
176
0
177
0
178
0
277
2
278
46
281
0
282
0
271
4
340
A
371
-1
372
-1
  0
ENDTAB
  0
ENDSEC
  0
SECTION
  2
BLOCKS
  0
BLOCK
  5
176
100
AcDbEntity
  8
0
100
AcDbBlockBegin
  2
*MODEL_SPACE
 70
0
 10
0
 20
0
  0
ENDBLK
  5
177
100
AcDbEntity
  8
0
100
AcDbBlockEnd
  0
BLOCK
  5
178
100
AcDbEntity
  8
0
100
AcDbBlockBegin
  2
*PAPER_SPACE
 70
0
 10
0
 20
0
  0
ENDBLK
  5
179
100
AcDbEntity
  8
0
100
AcDbBlockEnd
  0
BLOCK
  5
F
100
AcDbEntity
  8
0
100
AcDbBlockBegin
  2
_CLOSEDFILLED
 70
0
 10
0
 20
0
 30
0
  3
_CLOSEDFILLED
  1

  0
SOLID
  5
C
100
AcDbEntity
  8
0
100
AcDbTrace
370
-2
 62
0
 10
-1
 20
0.166666666666667
 30
0
 11
0
 21
0
 31
0
 12
-1
 22
0.166666666666667
 32
0
 13
-1
 23
-0.166666666666667
 33
0
  0
LINE
  5
D
100
AcDbEntity
  8
0
100
AcDbLine
370
-2
 62
0
 10
-1
 20
0
 30
0
 11
-2
 21
0
 31
0
  0
ENDBLK
  5
17A
100
AcDbEntity
  8
0
100
AcDbBlockEnd
  0
BLOCK
  5
15F
100
AcDbEntity
  8
200
100
AcDbBlockBegin
  2
GER_BLOCK_00001
 70
2
 10
0
 20
0
 30
0
  3
GER_BLOCK_00001
  1

  0
LINE
  5
25
100
AcDbEntity
  8
200
100
AcDbLine
370
-1
  6
AUSGEZOGEN
 10
72
 20
0
 30
0
 11
72
 21
20
 31
0
  0
LINE
  5
26
100
AcDbEntity
  8
200
100
AcDbLine
370
-1
  6
AUSGEZOGEN
 10
28
 20
0
 30
0
 11
72
 21
0
 31
0
  0
LINE
  5
27
100
AcDbEntity
  8
200
100
AcDbLine
370
-1
  6
AUSGEZOGEN
 10
28
 20
20
 30
0
 11
28
 21
0
 31
0
  0
LINE
  5
28
100
AcDbEntity
  8
200
100
AcDbLine
370
-1
  6
AUSGEZOGEN
 10
1017
 20
0
 30
0
 11
1017
 21
20
 31
0
  0
LINE
  5
29
100
AcDbEntity
  8
200
100
AcDbLine
370
-1
  6
AUSGEZOGEN
 10
973
 20
0
 30
0
 11
1017
 21
0
 31
0
  0
LINE
  5
2A
100
AcDbEntity
  8
200
100
AcDbLine
370
-1
  6
AUSGEZOGEN
 10
973
 20
20
 30
0
 11
973
 21
0
 31
0
  0
LINE
  5
2B
100
AcDbEntity
  8
200
100
AcDbLine
370
-1
  6
AUSGEZOGEN
 10
0
 20
20
 30
0
 11
1045
 21
20
 31
0
  0
LINE
  5
2C
100
AcDbEntity
  8
200
100
AcDbLine
370
-1
  6
AUSGEZOGEN
 10
1045
 20
865
 30
0
 11
0
 21
865
 31
0
  0
LINE
  5
2D
100
AcDbEntity
  8
200
100
AcDbLine
370
-1
  6
AUSGEZOGEN
 10
3
 20
769
 30
0
 11
431
 21
769
 31
0
  0
LINE
  5
2E
100
AcDbEntity
  8
200
100
AcDbLine
370
-1
  6
AUSGEZOGEN
 10
431
 20
288
 30
0
 11
3
 21
288
 31
0
  0
LINE
  5
2F
100
AcDbEntity
  8
200
100
AcDbLine
370
-1
  6
AUSGEZOGEN
 10
3
 20
799
 30
0
 11
3
 21
288
 31
0
  0
LINE
  5
30
100
AcDbEntity
  8
200
100
AcDbLine
370
-1
  6
AUSGEZOGEN
 10
431
 20
809
 30
0
 11
3
 21
809
 31
0
  0
LINE
  5
31
100
AcDbEntity
  8
200
100
AcDbLine
370
-1
  6
AUSGEZOGEN
 10
3
 20
829
 30
0
 11
431
 21
829
 31
0
  0
LINE
  5
32
100
AcDbEntity
  8
200
100
AcDbLine
370
-1
  6
AUSGEZOGEN
 10
431
 20
799
 30
0
 11
3
 21
799
 31
0
  0
LINE
  5
33
100
AcDbEntity
  8
200
100
AcDbLine
370
-1
  6
AUSGEZOGEN
 10
3
 20
829
 30
0
 11
3
 21
809
 31
0
  0
LINE
  5
34
100
AcDbEntity
  8
200
100
AcDbLine
370
-1
  6
AUSGEZOGEN
 10
431
 20
288
 30
0
 11
431
 21
829
 31
0
  0
LINE
  5
35
100
AcDbEntity
  8
200
100
AcDbLine
370
-1
  6
AUSGEZOGEN
 10
1042
 20
769
 30
0
 11
614
 21
769
 31
0
  0
LINE
  5
36
100
AcDbEntity
  8
200
100
AcDbLine
370
-1
  6
AUSGEZOGEN
 10
614
 20
288
 30
0
 11
1042
 21
288
 31
0
  0
LINE
  5
37
100
AcDbEntity
  8
200
100
AcDbLine
370
-1
  6
AUSGEZOGEN
 10
614
 20
799
 30
0
 11
614
 21
288
 31
0
  0
LINE
  5
38
100
AcDbEntity
  8
200
100
AcDbLine
370
-1
  6
AUSGEZOGEN
 10
1042
 20
809
 30
0
 11
614
 21
809
 31
0
  0
LINE
  5
39
100
AcDbEntity
  8
200
100
AcDbLine
370
-1
  6
AUSGEZOGEN
 10
614
 20
829
 30
0
 11
1042
 21
829
 31
0
  0
LINE
  5
3A
100
AcDbEntity
  8
200
100
AcDbLine
370
-1
  6
AUSGEZOGEN
 10
1042
 20
799
 30
0
 11
614
 21
799
 31
0
  0
LINE
  5
3B
100
AcDbEntity
  8
200
100
AcDbLine
370
-1
  6
AUSGEZOGEN
 10
614
 20
829
 30
0
 11
614
 21
809
 31
0
  0
LINE
  5
3C
100
AcDbEntity
  8
200
100
AcDbLine
370
-1
  6
AUSGEZOGEN
 10
1042
 20
288
 30
0
 11
1042
 21
829
 31
0
  0
LINE
  5
3D
100
AcDbEntity
  8
200
100
AcDbLine
370
-1
  6
AUSGEZOGEN
 10
0
 20
875
 30
0
 11
0
 21
20
 31
0
  0
LINE
  5
3E
100
AcDbEntity
  8
200
100
AcDbLine
370
-1
  6
AUSGEZOGEN
 10
1045
 20
875
 30
0
 11
0
 21
875
 31
0
  0
LINE
  5
3F
100
AcDbEntity
  8
200
100
AcDbLine
370
-1
  6
AUSGEZOGEN
 10
1045
 20
20
 30
0
 11
1045
 21
875
 31
0
  0
LINE
  5
40
100
AcDbEntity
  8
200
100
AcDbLine
370
-1
  6
AUSGEZOGEN
 10
0
 20
845
 30
0
 11
1045
 21
845
 31
0
  0
LINE
  5
41
100
AcDbEntity
  8
200
100
AcDbLine
370
-1
  6
AUSGEZOGEN
 10
535
 20
125
 30
0
 11
511
 21
125
 31
0
  0
LINE
  5
42
100
AcDbEntity
  8
200
100
AcDbLine
370
-1
  6
AUSGEZOGEN
 10
511
 20
160
 30
0
 11
511
 21
125
 31
0
  0
LINE
  5
43
100
AcDbEntity
  8
200
100
AcDbLine
370
-1
  6
AUSGEZOGEN
 10
535
 20
125
 30
0
 11
535
 21
160
 31
0
  0
LINE
  5
44
100
AcDbEntity
  8
200
100
AcDbLine
370
-1
  6
AUSGEZOGEN
 10
511
 20
160
 30
0
 11
535
 21
160
 31
0
  0
LINE
  5
45
100
AcDbEntity
  8
200
100
AcDbLine
370
-1
  6
AUSGEZOGEN
 10
531
 20
129.9
 30
0
 11
531
 21
154.8
 31
0
  0
LINE
  5
46
100
AcDbEntity
  8
200
100
AcDbLine
370
-1
  6
AUSGEZOGEN
 10
515
 20
129.9
 30
0
 11
531
 21
129.9
 31
0
  0
LINE
  5
47
100
AcDbEntity
  8
200
100
AcDbLine
370
-1
  6
AUSGEZOGEN
 10
515
 20
154.8
 30
0
 11
515
 21
129.9
 31
0
  0
LINE
  5
48
100
AcDbEntity
  8
200
100
AcDbLine
370
-1
  6
AUSGEZOGEN
 10
531
 20
154.8
 30
0
 11
515
 21
154.8
 31
0
  0
LINE
  5
49
100
AcDbEntity
  8
200
100
AcDbLine
370
-1
  6
AUSGEZOGEN
 10
635
 20
125
 30
0
 11
555
 21
125
 31
0
  0
LINE
  5
4A
100
AcDbEntity
  8
200
100
AcDbLine
370
-1
  6
AUSGEZOGEN
 10
555
 20
160
 30
0
 11
555
 21
125
 31
0
  0
LINE
  5
4B
100
AcDbEntity
  8
200
100
AcDbLine
370
-1
  6
AUSGEZOGEN
 10
635
 20
125
 30
0
 11
635
 21
160
 31
0
  0
LINE
  5
4C
100
AcDbEntity
  8
200
100
AcDbLine
370
-1
  6
AUSGEZOGEN
 10
555
 20
160
 30
0
 11
635
 21
160
 31
0
  0
LINE
  5
4D
100
AcDbEntity
  8
200
100
AcDbLine
370
-1
  6
AUSGEZOGEN
 10
565
 20
129.9
 30
0
 11
565
 21
154.8
 31
0
  0
LINE
  5
4E
100
AcDbEntity
  8
200
100
AcDbLine
370
-1
  6
AUSGEZOGEN
 10
625
 20
154.8
 30
0
 11
565
 21
154.8
 31
0
  0
LINE
  5
4F
100
AcDbEntity
  8
200
100
AcDbLine
370
-1
  6
AUSGEZOGEN
 10
625
 20
129.9
 30
0
 11
625
 21
154.8
 31
0
  0
LINE
  5
50
100
AcDbEntity
  8
200
100
AcDbLine
370
-1
  6
AUSGEZOGEN
 10
565
 20
129.9
 30
0
 11
625
 21
129.9
 31
0
  0
LINE
  5
51
100
AcDbEntity
  8
200
100
AcDbLine
370
-1
  6
AUSGEZOGEN
 10
422
 20
172.3
 30
0
 11
422
 21
167.6
 31
0
  0
LINE
  5
52
100
AcDbEntity
  8
200
100
AcDbLine
370
-1
  6
AUSGEZOGEN
 10
433.3
 20
179
 30
0
 11
428.7
 21
179
 31
0
  0
LINE
  5
53
100
AcDbEntity
  8
200
100
AcDbLine
370
-1
  6
AUSGEZOGEN
 10
437.7
 20
176.7
 30
0
 11
433.3
 21
179
 31
0
  0
LINE
  5
54
100
AcDbEntity
  8
200
100
AcDbLine
370
-1
  6
AUSGEZOGEN
 10
440
 20
172.3
 30
0
 11
437.7
 21
176.7
 31
0
  0
LINE
  5
55
100
AcDbEntity
  8
200
100
AcDbLine
370
-1
  6
AUSGEZOGEN
 10
440
 20
167.6
 30
0
 11
440
 21
172.3
 31
0
  0
LINE
  5
56
100
AcDbEntity
  8
200
100
AcDbLine
370
-1
  6
AUSGEZOGEN
 10
437.7
 20
163.4
 30
0
 11
440
 21
167.6
 31
0
  0
LINE
  5
57
100
AcDbEntity
  8
200
100
AcDbLine
370
-1
  6
AUSGEZOGEN
 10
433.3
 20
161
 30
0
 11
437.7
 21
163.4
 31
0
  0
LINE
  5
58
100
AcDbEntity
  8
200
100
AcDbLine
370
-1
  6
AUSGEZOGEN
 10
428.7
 20
161
 30
0
 11
433.3
 21
161
 31
0
  0
LINE
  5
59
100
AcDbEntity
  8
200
100
AcDbLine
370
-1
  6
AUSGEZOGEN
 10
424.4
 20
163.4
 30
0
 11
428.7
 21
161
 31
0
  0
LINE
  5
5A
100
AcDbEntity
  8
200
100
AcDbLine
370
-1
  6
AUSGEZOGEN
 10
422
 20
167.6
 30
0
 11
424.4
 21
163.4
 31
0
  0
LINE
  5
5B
100
AcDbEntity
  8
200
100
AcDbLine
370
-1
  6
AUSGEZOGEN
 10
424.4
 20
176.7
 30
0
 11
422
 21
172.3
 31
0
  0
LINE
  5
5C
100
AcDbEntity
  8
200
100
AcDbLine
370
-1
  6
AUSGEZOGEN
 10
428.7
 20
179
 30
0
 11
424.4
 21
176.7
 31
0
  0
LINE
  5
5D
100
AcDbEntity
  8
200
100
AcDbLine
370
-1
  6
AUSGEZOGEN
 10
428.8
 20
164.4
 30
0
 11
428.8
 21
175.6
 31
0
  0
LINE
  5
5E
100
AcDbEntity
  8
200
100
AcDbLine
370
-1
  6
AUSGEZOGEN
 10
429.9
 20
176.8
 30
0
 11
428.8
 21
175.6
 31
0
  0
LINE
  5
5F
100
AcDbEntity
  8
200
100
AcDbLine
370
-1
  6
AUSGEZOGEN
 10
432.1
 20
176.8
 30
0
 11
429.9
 21
176.8
 31
0
  0
LINE
  5
60
100
AcDbEntity
  8
200
100
AcDbLine
370
-1
  6
AUSGEZOGEN
 10
433.2
 20
175.6
 30
0
 11
432.1
 21
176.8
 31
0
  0
LINE
  5
61
100
AcDbEntity
  8
200
100
AcDbLine
370
-1
  6
AUSGEZOGEN
 10
433.2
 20
164.4
 30
0
 11
433.2
 21
175.6
 31
0
  0
LINE
  5
62
100
AcDbEntity
  8
200
100
AcDbLine
370
-1
  6
AUSGEZOGEN
 10
432.1
 20
163.2
 30
0
 11
433.2
 21
164.4
 31
0
  0
LINE
  5
63
100
AcDbEntity
  8
200
100
AcDbLine
370
-1
  6
AUSGEZOGEN
 10
429.9
 20
163.2
 30
0
 11
432.1
 21
163.2
 31
0
  0
LINE
  5
64
100
AcDbEntity
  8
200
100
AcDbLine
370
-1
  6
AUSGEZOGEN
 10
428.8
 20
164.4
 30
0
 11
429.9
 21
163.2
 31
0
  0
LINE
  5
65
100
AcDbEntity
  8
200
100
AcDbLine
370
-1
  6
AUSGEZOGEN
 10
441
 20
129.9
 30
0
 11
441
 21
154.9
 31
0
  0
LINE
  5
66
100
AcDbEntity
  8
200
100
AcDbLine
370
-1
  6
AUSGEZOGEN
 10
491
 20
154.9
 30
0
 11
441
 21
154.9
 31
0
  0
LINE
  5
67
100
AcDbEntity
  8
200
100
AcDbLine
370
-1
  6
AUSGEZOGEN
 10
491
 20
129.9
 30
0
 11
491
 21
154.9
 31
0
  0
LINE
  5
68
100
AcDbEntity
  8
200
100
AcDbLine
370
-1
  6
AUSGEZOGEN
 10
441
 20
129.9
 30
0
 11
491
 21
129.9
 31
0
  0
LINE
  5
69
100
AcDbEntity
  8
200
100
AcDbLine
370
-1
  6
AUSGEZOGEN
 10
1010
 20
25
 30
0
 11
35
 21
25
 31
0
  0
LINE
  5
6A
100
AcDbEntity
  8
200
100
AcDbLine
370
-1
  6
AUSGEZOGEN
 10
35
 20
275
 30
0
 11
35
 21
25
 31
0
  0
LINE
  5
6B
100
AcDbEntity
  8
200
100
AcDbLine
370
-1
  6
AUSGEZOGEN
 10
1010
 20
25
 30
0
 11
1010
 21
275
 31
0
  0
CIRCLE
  5
6C
100
AcDbEntity
  8
200
100
AcDbCircle
370
-1
  6
AUSGEZOGEN
 10
76
 20
85
 30
0
 40
5
  0
CIRCLE
  5
6D
100
AcDbEntity
  8
200
100
AcDbCircle
370
-1
  6
AUSGEZOGEN
 10
91
 20
85
 30
0
 40
5
  0
CIRCLE
  5
6E
100
AcDbEntity
  8
200
100
AcDbCircle
370
-1
  6
AUSGEZOGEN
 10
106
 20
85
 30
0
 40
5
  0
CIRCLE
  5
6F
100
AcDbEntity
  8
200
100
AcDbCircle
370
-1
  6
AUSGEZOGEN
 10
121
 20
85
 30
0
 40
5
  0
CIRCLE
  5
70
100
AcDbEntity
  8
200
100
AcDbCircle
370
-1
  6
AUSGEZOGEN
 10
136
 20
85
 30
0
 40
5
  0
CIRCLE
  5
71
100
AcDbEntity
  8
200
100
AcDbCircle
370
-1
  6
AUSGEZOGEN
 10
151
 20
85
 30
0
 40
5
  0
CIRCLE
  5
72
100
AcDbEntity
  8
200
100
AcDbCircle
370
-1
  6
AUSGEZOGEN
 10
166
 20
85
 30
0
 40
5
  0
CIRCLE
  5
73
100
AcDbEntity
  8
200
100
AcDbCircle
370
-1
  6
AUSGEZOGEN
 10
181
 20
85
 30
0
 40
5
  0
CIRCLE
  5
74
100
AcDbEntity
  8
200
100
AcDbCircle
370
-1
  6
AUSGEZOGEN
 10
76
 20
99
 30
0
 40
5
  0
CIRCLE
  5
75
100
AcDbEntity
  8
200
100
AcDbCircle
370
-1
  6
AUSGEZOGEN
 10
91
 20
99
 30
0
 40
5
  0
CIRCLE
  5
76
100
AcDbEntity
  8
200
100
AcDbCircle
370
-1
  6
AUSGEZOGEN
 10
106
 20
99
 30
0
 40
5
  0
CIRCLE
  5
77
100
AcDbEntity
  8
200
100
AcDbCircle
370
-1
  6
AUSGEZOGEN
 10
121
 20
99
 30
0
 40
5
  0
CIRCLE
  5
78
100
AcDbEntity
  8
200
100
AcDbCircle
370
-1
  6
AUSGEZOGEN
 10
136
 20
99
 30
0
 40
5
  0
CIRCLE
  5
79
100
AcDbEntity
  8
200
100
AcDbCircle
370
-1
  6
AUSGEZOGEN
 10
151
 20
99
 30
0
 40
5
  0
CIRCLE
  5
7A
100
AcDbEntity
  8
200
100
AcDbCircle
370
-1
  6
AUSGEZOGEN
 10
166
 20
99
 30
0
 40
5
  0
CIRCLE
  5
7B
100
AcDbEntity
  8
200
100
AcDbCircle
370
-1
  6
AUSGEZOGEN
 10
181
 20
99
 30
0
 40
5
  0
CIRCLE
  5
7C
100
AcDbEntity
  8
200
100
AcDbCircle
370
-1
  6
AUSGEZOGEN
 10
76
 20
113
 30
0
 40
5
  0
CIRCLE
  5
7D
100
AcDbEntity
  8
200
100
AcDbCircle
370
-1
  6
AUSGEZOGEN
 10
91
 20
113
 30
0
 40
5
  0
CIRCLE
  5
7E
100
AcDbEntity
  8
200
100
AcDbCircle
370
-1
  6
AUSGEZOGEN
 10
106
 20
113
 30
0
 40
5
  0
CIRCLE
  5
7F
100
AcDbEntity
  8
200
100
AcDbCircle
370
-1
  6
AUSGEZOGEN
 10
121
 20
113
 30
0
 40
5
  0
CIRCLE
  5
80
100
AcDbEntity
  8
200
100
AcDbCircle
370
-1
  6
AUSGEZOGEN
 10
136
 20
113
 30
0
 40
5
  0
CIRCLE
  5
81
100
AcDbEntity
  8
200
100
AcDbCircle
370
-1
  6
AUSGEZOGEN
 10
151
 20
113
 30
0
 40
5
  0
CIRCLE
  5
82
100
AcDbEntity
  8
200
100
AcDbCircle
370
-1
  6
AUSGEZOGEN
 10
166
 20
113
 30
0
 40
5
  0
CIRCLE
  5
83
100
AcDbEntity
  8
200
100
AcDbCircle
370
-1
  6
AUSGEZOGEN
 10
181
 20
113
 30
0
 40
5
  0
CIRCLE
  5
84
100
AcDbEntity
  8
200
100
AcDbCircle
370
-1
  6
AUSGEZOGEN
 10
76
 20
127
 30
0
 40
5
  0
CIRCLE
  5
85
100
AcDbEntity
  8
200
100
AcDbCircle
370
-1
  6
AUSGEZOGEN
 10
91
 20
127
 30
0
 40
5
  0
CIRCLE
  5
86
100
AcDbEntity
  8
200
100
AcDbCircle
370
-1
  6
AUSGEZOGEN
 10
106
 20
127
 30
0
 40
5
  0
CIRCLE
  5
87
100
AcDbEntity
  8
200
100
AcDbCircle
370
-1
  6
AUSGEZOGEN
 10
121
 20
127
 30
0
 40
5
  0
CIRCLE
  5
88
100
AcDbEntity
  8
200
100
AcDbCircle
370
-1
  6
AUSGEZOGEN
 10
136
 20
127
 30
0
 40
5
  0
CIRCLE
  5
89
100
AcDbEntity
  8
200
100
AcDbCircle
370
-1
  6
AUSGEZOGEN
 10
151
 20
127
 30
0
 40
5
  0
CIRCLE
  5
8A
100
AcDbEntity
  8
200
100
AcDbCircle
370
-1
  6
AUSGEZOGEN
 10
166
 20
127
 30
0
 40
5
  0
CIRCLE
  5
8B
100
AcDbEntity
  8
200
100
AcDbCircle
370
-1
  6
AUSGEZOGEN
 10
181
 20
127
 30
0
 40
5
  0
CIRCLE
  5
8C
100
AcDbEntity
  8
200
100
AcDbCircle
370
-1
  6
AUSGEZOGEN
 10
76
 20
140
 30
0
 40
5
  0
CIRCLE
  5
8D
100
AcDbEntity
  8
200
100
AcDbCircle
370
-1
  6
AUSGEZOGEN
 10
91
 20
140
 30
0
 40
5
  0
CIRCLE
  5
8E
100
AcDbEntity
  8
200
100
AcDbCircle
370
-1
  6
AUSGEZOGEN
 10
106
 20
140
 30
0
 40
5
  0
CIRCLE
  5
8F
100
AcDbEntity
  8
200
100
AcDbCircle
370
-1
  6
AUSGEZOGEN
 10
121
 20
140
 30
0
 40
5
  0
CIRCLE
  5
90
100
AcDbEntity
  8
200
100
AcDbCircle
370
-1
  6
AUSGEZOGEN
 10
136
 20
140
 30
0
 40
5
  0
CIRCLE
  5
91
100
AcDbEntity
  8
200
100
AcDbCircle
370
-1
  6
AUSGEZOGEN
 10
151
 20
140
 30
0
 40
5
  0
CIRCLE
  5
92
100
AcDbEntity
  8
200
100
AcDbCircle
370
-1
  6
AUSGEZOGEN
 10
166
 20
140
 30
0
 40
5
  0
CIRCLE
  5
93
100
AcDbEntity
  8
200
100
AcDbCircle
370
-1
  6
AUSGEZOGEN
 10
181
 20
140
 30
0
 40
5
  0
CIRCLE
  5
94
100
AcDbEntity
  8
200
100
AcDbCircle
370
-1
  6
AUSGEZOGEN
 10
76
 20
160
 30
0
 40
5
  0
CIRCLE
  5
95
100
AcDbEntity
  8
200
100
AcDbCircle
370
-1
  6
AUSGEZOGEN
 10
91
 20
160
 30
0
 40
5
  0
CIRCLE
  5
96
100
AcDbEntity
  8
200
100
AcDbCircle
370
-1
  6
AUSGEZOGEN
 10
106
 20
160
 30
0
 40
5
  0
CIRCLE
  5
97
100
AcDbEntity
  8
200
100
AcDbCircle
370
-1
  6
AUSGEZOGEN
 10
121
 20
160
 30
0
 40
5
  0
CIRCLE
  5
98
100
AcDbEntity
  8
200
100
AcDbCircle
370
-1
  6
AUSGEZOGEN
 10
136
 20
160
 30
0
 40
5
  0
CIRCLE
  5
99
100
AcDbEntity
  8
200
100
AcDbCircle
370
-1
  6
AUSGEZOGEN
 10
151
 20
160
 30
0
 40
5
  0
CIRCLE
  5
9A
100
AcDbEntity
  8
200
100
AcDbCircle
370
-1
  6
AUSGEZOGEN
 10
166
 20
160
 30
0
 40
5
  0
CIRCLE
  5
9B
100
AcDbEntity
  8
200
100
AcDbCircle
370
-1
  6
AUSGEZOGEN
 10
181
 20
160
 30
0
 40
5
  0
CIRCLE
  5
9C
100
AcDbEntity
  8
200
100
AcDbCircle
370
-1
  6
AUSGEZOGEN
 10
76
 20
174
 30
0
 40
5
  0
CIRCLE
  5
9D
100
AcDbEntity
  8
200
100
AcDbCircle
370
-1
  6
AUSGEZOGEN
 10
91
 20
174
 30
0
 40
5
  0
CIRCLE
  5
9E
100
AcDbEntity
  8
200
100
AcDbCircle
370
-1
  6
AUSGEZOGEN
 10
106
 20
174
 30
0
 40
5
  0
CIRCLE
  5
9F
100
AcDbEntity
  8
200
100
AcDbCircle
370
-1
  6
AUSGEZOGEN
 10
121
 20
174
 30
0
 40
5
  0
CIRCLE
  5
A0
100
AcDbEntity
  8
200
100
AcDbCircle
370
-1
  6
AUSGEZOGEN
 10
136
 20
174
 30
0
 40
5
  0
CIRCLE
  5
A1
100
AcDbEntity
  8
200
100
AcDbCircle
370
-1
  6
AUSGEZOGEN
 10
151
 20
174
 30
0
 40
5
  0
CIRCLE
  5
A2
100
AcDbEntity
  8
200
100
AcDbCircle
370
-1
  6
AUSGEZOGEN
 10
166
 20
174
 30
0
 40
5
  0
CIRCLE
  5
A3
100
AcDbEntity
  8
200
100
AcDbCircle
370
-1
  6
AUSGEZOGEN
 10
181
 20
174
 30
0
 40
5
  0
CIRCLE
  5
A4
100
AcDbEntity
  8
200
100
AcDbCircle
370
-1
  6
AUSGEZOGEN
 10
76
 20
188
 30
0
 40
5
  0
CIRCLE
  5
A5
100
AcDbEntity
  8
200
100
AcDbCircle
370
-1
  6
AUSGEZOGEN
 10
91
 20
188
 30
0
 40
5
  0
CIRCLE
  5
A6
100
AcDbEntity
  8
200
100
AcDbCircle
370
-1
  6
AUSGEZOGEN
 10
106
 20
188
 30
0
 40
5
  0
CIRCLE
  5
A7
100
AcDbEntity
  8
200
100
AcDbCircle
370
-1
  6
AUSGEZOGEN
 10
121
 20
188
 30
0
 40
5
  0
CIRCLE
  5
A8
100
AcDbEntity
  8
200
100
AcDbCircle
370
-1
  6
AUSGEZOGEN
 10
136
 20
188
 30
0
 40
5
  0
CIRCLE
  5
A9
100
AcDbEntity
  8
200
100
AcDbCircle
370
-1
  6
AUSGEZOGEN
 10
151
 20
188
 30
0
 40
5
  0
CIRCLE
  5
AA
100
AcDbEntity
  8
200
100
AcDbCircle
370
-1
  6
AUSGEZOGEN
 10
166
 20
188
 30
0
 40
5
  0
CIRCLE
  5
AB
100
AcDbEntity
  8
200
100
AcDbCircle
370
-1
  6
AUSGEZOGEN
 10
181
 20
188
 30
0
 40
5
  0
CIRCLE
  5
AC
100
AcDbEntity
  8
200
100
AcDbCircle
370
-1
  6
AUSGEZOGEN
 10
76
 20
202
 30
0
 40
5
  0
CIRCLE
  5
AD
100
AcDbEntity
  8
200
100
AcDbCircle
370
-1
  6
AUSGEZOGEN
 10
91
 20
202
 30
0
 40
5
  0
CIRCLE
  5
AE
100
AcDbEntity
  8
200
100
AcDbCircle
370
-1
  6
AUSGEZOGEN
 10
106
 20
202
 30
0
 40
5
  0
CIRCLE
  5
AF
100
AcDbEntity
  8
200
100
AcDbCircle
370
-1
  6
AUSGEZOGEN
 10
121
 20
202
 30
0
 40
5
  0
CIRCLE
  5
B0
100
AcDbEntity
  8
200
100
AcDbCircle
370
-1
  6
AUSGEZOGEN
 10
136
 20
202
 30
0
 40
5
  0
CIRCLE
  5
B1
100
AcDbEntity
  8
200
100
AcDbCircle
370
-1
  6
AUSGEZOGEN
 10
151
 20
202
 30
0
 40
5
  0
CIRCLE
  5
B2
100
AcDbEntity
  8
200
100
AcDbCircle
370
-1
  6
AUSGEZOGEN
 10
166
 20
202
 30
0
 40
5
  0
CIRCLE
  5
B3
100
AcDbEntity
  8
200
100
AcDbCircle
370
-1
  6
AUSGEZOGEN
 10
181
 20
202
 30
0
 40
5
  0
CIRCLE
  5
B4
100
AcDbEntity
  8
200
100
AcDbCircle
370
-1
  6
AUSGEZOGEN
 10
76
 20
215
 30
0
 40
5
  0
CIRCLE
  5
B5
100
AcDbEntity
  8
200
100
AcDbCircle
370
-1
  6
AUSGEZOGEN
 10
91
 20
215
 30
0
 40
5
  0
CIRCLE
  5
B6
100
AcDbEntity
  8
200
100
AcDbCircle
370
-1
  6
AUSGEZOGEN
 10
106
 20
215
 30
0
 40
5
  0
CIRCLE
  5
B7
100
AcDbEntity
  8
200
100
AcDbCircle
370
-1
  6
AUSGEZOGEN
 10
121
 20
215
 30
0
 40
5
  0
CIRCLE
  5
B8
100
AcDbEntity
  8
200
100
AcDbCircle
370
-1
  6
AUSGEZOGEN
 10
136
 20
215
 30
0
 40
5
  0
CIRCLE
  5
B9
100
AcDbEntity
  8
200
100
AcDbCircle
370
-1
  6
AUSGEZOGEN
 10
151
 20
215
 30
0
 40
5
  0
CIRCLE
  5
BA
100
AcDbEntity
  8
200
100
AcDbCircle
370
-1
  6
AUSGEZOGEN
 10
166
 20
215
 30
0
 40
5
  0
CIRCLE
  5
BB
100
AcDbEntity
  8
200
100
AcDbCircle
370
-1
  6
AUSGEZOGEN
 10
181
 20
215
 30
0
 40
5
  0
CIRCLE
  5
BC
100
AcDbEntity
  8
200
100
AcDbCircle
370
-1
  6
AUSGEZOGEN
 10
201
 20
160
 30
0
 40
5
  0
CIRCLE
  5
BD
100
AcDbEntity
  8
200
100
AcDbCircle
370
-1
  6
AUSGEZOGEN
 10
216
 20
160
 30
0
 40
5
  0
CIRCLE
  5
BE
100
AcDbEntity
  8
200
100
AcDbCircle
370
-1
  6
AUSGEZOGEN
 10
231
 20
160
 30
0
 40
5
  0
CIRCLE
  5
BF
100
AcDbEntity
  8
200
100
AcDbCircle
370
-1
  6
AUSGEZOGEN
 10
246
 20
160
 30
0
 40
5
  0
CIRCLE
  5
C0
100
AcDbEntity
  8
200
100
AcDbCircle
370
-1
  6
AUSGEZOGEN
 10
261
 20
160
 30
0
 40
5
  0
CIRCLE
  5
C1
100
AcDbEntity
  8
200
100
AcDbCircle
370
-1
  6
AUSGEZOGEN
 10
276
 20
160
 30
0
 40
5
  0
CIRCLE
  5
C2
100
AcDbEntity
  8
200
100
AcDbCircle
370
-1
  6
AUSGEZOGEN
 10
291
 20
160
 30
0
 40
5
  0
CIRCLE
  5
C3
100
AcDbEntity
  8
200
100
AcDbCircle
370
-1
  6
AUSGEZOGEN
 10
306
 20
160
 30
0
 40
5
  0
CIRCLE
  5
C4
100
AcDbEntity
  8
200
100
AcDbCircle
370
-1
  6
AUSGEZOGEN
 10
201
 20
174
 30
0
 40
5
  0
CIRCLE
  5
C5
100
AcDbEntity
  8
200
100
AcDbCircle
370
-1
  6
AUSGEZOGEN
 10
216
 20
174
 30
0
 40
5
  0
CIRCLE
  5
C6
100
AcDbEntity
  8
200
100
AcDbCircle
370
-1
  6
AUSGEZOGEN
 10
231
 20
174
 30
0
 40
5
  0
CIRCLE
  5
C7
100
AcDbEntity
  8
200
100
AcDbCircle
370
-1
  6
AUSGEZOGEN
 10
246
 20
174
 30
0
 40
5
  0
CIRCLE
  5
C8
100
AcDbEntity
  8
200
100
AcDbCircle
370
-1
  6
AUSGEZOGEN
 10
261
 20
174
 30
0
 40
5
  0
CIRCLE
  5
C9
100
AcDbEntity
  8
200
100
AcDbCircle
370
-1
  6
AUSGEZOGEN
 10
276
 20
174
 30
0
 40
5
  0
CIRCLE
  5
CA
100
AcDbEntity
  8
200
100
AcDbCircle
370
-1
  6
AUSGEZOGEN
 10
291
 20
174
 30
0
 40
5
  0
CIRCLE
  5
CB
100
AcDbEntity
  8
200
100
AcDbCircle
370
-1
  6
AUSGEZOGEN
 10
306
 20
174
 30
0
 40
5
  0
CIRCLE
  5
CC
100
AcDbEntity
  8
200
100
AcDbCircle
370
-1
  6
AUSGEZOGEN
 10
201
 20
188
 30
0
 40
5
  0
CIRCLE
  5
CD
100
AcDbEntity
  8
200
100
AcDbCircle
370
-1
  6
AUSGEZOGEN
 10
216
 20
188
 30
0
 40
5
  0
CIRCLE
  5
CE
100
AcDbEntity
  8
200
100
AcDbCircle
370
-1
  6
AUSGEZOGEN
 10
231
 20
188
 30
0
 40
5
  0
CIRCLE
  5
CF
100
AcDbEntity
  8
200
100
AcDbCircle
370
-1
  6
AUSGEZOGEN
 10
246
 20
188
 30
0
 40
5
  0
CIRCLE
  5
D0
100
AcDbEntity
  8
200
100
AcDbCircle
370
-1
  6
AUSGEZOGEN
 10
261
 20
188
 30
0
 40
5
  0
CIRCLE
  5
D1
100
AcDbEntity
  8
200
100
AcDbCircle
370
-1
  6
AUSGEZOGEN
 10
276
 20
188
 30
0
 40
5
  0
CIRCLE
  5
D2
100
AcDbEntity
  8
200
100
AcDbCircle
370
-1
  6
AUSGEZOGEN
 10
291
 20
188
 30
0
 40
5
  0
CIRCLE
  5
D3
100
AcDbEntity
  8
200
100
AcDbCircle
370
-1
  6
AUSGEZOGEN
 10
306
 20
188
 30
0
 40
5
  0
CIRCLE
  5
D4
100
AcDbEntity
  8
200
100
AcDbCircle
370
-1
  6
AUSGEZOGEN
 10
201
 20
202
 30
0
 40
5
  0
CIRCLE
  5
D5
100
AcDbEntity
  8
200
100
AcDbCircle
370
-1
  6
AUSGEZOGEN
 10
216
 20
202
 30
0
 40
5
  0
CIRCLE
  5
D6
100
AcDbEntity
  8
200
100
AcDbCircle
370
-1
  6
AUSGEZOGEN
 10
231
 20
202
 30
0
 40
5
  0
CIRCLE
  5
D7
100
AcDbEntity
  8
200
100
AcDbCircle
370
-1
  6
AUSGEZOGEN
 10
246
 20
202
 30
0
 40
5
  0
CIRCLE
  5
D8
100
AcDbEntity
  8
200
100
AcDbCircle
370
-1
  6
AUSGEZOGEN
 10
261
 20
202
 30
0
 40
5
  0
CIRCLE
  5
D9
100
AcDbEntity
  8
200
100
AcDbCircle
370
-1
  6
AUSGEZOGEN
 10
276
 20
202
 30
0
 40
5
  0
CIRCLE
  5
DA
100
AcDbEntity
  8
200
100
AcDbCircle
370
-1
  6
AUSGEZOGEN
 10
291
 20
202
 30
0
 40
5
  0
CIRCLE
  5
DB
100
AcDbEntity
  8
200
100
AcDbCircle
370
-1
  6
AUSGEZOGEN
 10
306
 20
202
 30
0
 40
5
  0
CIRCLE
  5
DC
100
AcDbEntity
  8
200
100
AcDbCircle
370
-1
  6
AUSGEZOGEN
 10
201
 20
215
 30
0
 40
5
  0
CIRCLE
  5
DD
100
AcDbEntity
  8
200
100
AcDbCircle
370
-1
  6
AUSGEZOGEN
 10
216
 20
215
 30
0
 40
5
  0
CIRCLE
  5
DE
100
AcDbEntity
  8
200
100
AcDbCircle
370
-1
  6
AUSGEZOGEN
 10
231
 20
215
 30
0
 40
5
  0
CIRCLE
  5
DF
100
AcDbEntity
  8
200
100
AcDbCircle
370
-1
  6
AUSGEZOGEN
 10
246
 20
215
 30
0
 40
5
  0
CIRCLE
  5
E0
100
AcDbEntity
  8
200
100
AcDbCircle
370
-1
  6
AUSGEZOGEN
 10
261
 20
215
 30
0
 40
5
  0
CIRCLE
  5
E1
100
AcDbEntity
  8
200
100
AcDbCircle
370
-1
  6
AUSGEZOGEN
 10
276
 20
215
 30
0
 40
5
  0
CIRCLE
  5
E2
100
AcDbEntity
  8
200
100
AcDbCircle
370
-1
  6
AUSGEZOGEN
 10
291
 20
215
 30
0
 40
5
  0
CIRCLE
  5
E3
100
AcDbEntity
  8
200
100
AcDbCircle
370
-1
  6
AUSGEZOGEN
 10
306
 20
215
 30
0
 40
5
  0
CIRCLE
  5
E4
100
AcDbEntity
  8
200
100
AcDbCircle
370
-1
  6
AUSGEZOGEN
 10
201
 20
85
 30
0
 40
5
  0
CIRCLE
  5
E5
100
AcDbEntity
  8
200
100
AcDbCircle
370
-1
  6
AUSGEZOGEN
 10
216
 20
85
 30
0
 40
5
  0
CIRCLE
  5
E6
100
AcDbEntity
  8
200
100
AcDbCircle
370
-1
  6
AUSGEZOGEN
 10
231
 20
85
 30
0
 40
5
  0
CIRCLE
  5
E7
100
AcDbEntity
  8
200
100
AcDbCircle
370
-1
  6
AUSGEZOGEN
 10
246
 20
85
 30
0
 40
5
  0
CIRCLE
  5
E8
100
AcDbEntity
  8
200
100
AcDbCircle
370
-1
  6
AUSGEZOGEN
 10
261
 20
85
 30
0
 40
5
  0
CIRCLE
  5
E9
100
AcDbEntity
  8
200
100
AcDbCircle
370
-1
  6
AUSGEZOGEN
 10
276
 20
85
 30
0
 40
5
  0
CIRCLE
  5
EA
100
AcDbEntity
  8
200
100
AcDbCircle
370
-1
  6
AUSGEZOGEN
 10
291
 20
85
 30
0
 40
5
  0
CIRCLE
  5
EB
100
AcDbEntity
  8
200
100
AcDbCircle
370
-1
  6
AUSGEZOGEN
 10
306
 20
85
 30
0
 40
5
  0
CIRCLE
  5
EC
100
AcDbEntity
  8
200
100
AcDbCircle
370
-1
  6
AUSGEZOGEN
 10
201
 20
99
 30
0
 40
5
  0
CIRCLE
  5
ED
100
AcDbEntity
  8
200
100
AcDbCircle
370
-1
  6
AUSGEZOGEN
 10
216
 20
99
 30
0
 40
5
  0
CIRCLE
  5
EE
100
AcDbEntity
  8
200
100
AcDbCircle
370
-1
  6
AUSGEZOGEN
 10
231
 20
99
 30
0
 40
5
  0
CIRCLE
  5
EF
100
AcDbEntity
  8
200
100
AcDbCircle
370
-1
  6
AUSGEZOGEN
 10
246
 20
99
 30
0
 40
5
  0
CIRCLE
  5
F0
100
AcDbEntity
  8
200
100
AcDbCircle
370
-1
  6
AUSGEZOGEN
 10
261
 20
99
 30
0
 40
5
  0
CIRCLE
  5
F1
100
AcDbEntity
  8
200
100
AcDbCircle
370
-1
  6
AUSGEZOGEN
 10
276
 20
99
 30
0
 40
5
  0
CIRCLE
  5
F2
100
AcDbEntity
  8
200
100
AcDbCircle
370
-1
  6
AUSGEZOGEN
 10
291
 20
99
 30
0
 40
5
  0
CIRCLE
  5
F3
100
AcDbEntity
  8
200
100
AcDbCircle
370
-1
  6
AUSGEZOGEN
 10
306
 20
99
 30
0
 40
5
  0
CIRCLE
  5
F4
100
AcDbEntity
  8
200
100
AcDbCircle
370
-1
  6
AUSGEZOGEN
 10
201
 20
113
 30
0
 40
5
  0
CIRCLE
  5
F5
100
AcDbEntity
  8
200
100
AcDbCircle
370
-1
  6
AUSGEZOGEN
 10
216
 20
113
 30
0
 40
5
  0
CIRCLE
  5
F6
100
AcDbEntity
  8
200
100
AcDbCircle
370
-1
  6
AUSGEZOGEN
 10
231
 20
113
 30
0
 40
5
  0
CIRCLE
  5
F7
100
AcDbEntity
  8
200
100
AcDbCircle
370
-1
  6
AUSGEZOGEN
 10
246
 20
113
 30
0
 40
5
  0
CIRCLE
  5
F8
100
AcDbEntity
  8
200
100
AcDbCircle
370
-1
  6
AUSGEZOGEN
 10
261
 20
113
 30
0
 40
5
  0
CIRCLE
  5
F9
100
AcDbEntity
  8
200
100
AcDbCircle
370
-1
  6
AUSGEZOGEN
 10
276
 20
113
 30
0
 40
5
  0
CIRCLE
  5
FA
100
AcDbEntity
  8
200
100
AcDbCircle
370
-1
  6
AUSGEZOGEN
 10
291
 20
113
 30
0
 40
5
  0
CIRCLE
  5
FB
100
AcDbEntity
  8
200
100
AcDbCircle
370
-1
  6
AUSGEZOGEN
 10
306
 20
113
 30
0
 40
5
  0
CIRCLE
  5
FC
100
AcDbEntity
  8
200
100
AcDbCircle
370
-1
  6
AUSGEZOGEN
 10
201
 20
127
 30
0
 40
5
  0
CIRCLE
  5
FD
100
AcDbEntity
  8
200
100
AcDbCircle
370
-1
  6
AUSGEZOGEN
 10
216
 20
127
 30
0
 40
5
  0
CIRCLE
  5
FE
100
AcDbEntity
  8
200
100
AcDbCircle
370
-1
  6
AUSGEZOGEN
 10
231
 20
127
 30
0
 40
5
  0
CIRCLE
  5
FF
100
AcDbEntity
  8
200
100
AcDbCircle
370
-1
  6
AUSGEZOGEN
 10
246
 20
127
 30
0
 40
5
  0
CIRCLE
  5
100
100
AcDbEntity
  8
200
100
AcDbCircle
370
-1
  6
AUSGEZOGEN
 10
261
 20
127
 30
0
 40
5
  0
CIRCLE
  5
101
100
AcDbEntity
  8
200
100
AcDbCircle
370
-1
  6
AUSGEZOGEN
 10
276
 20
127
 30
0
 40
5
  0
CIRCLE
  5
102
100
AcDbEntity
  8
200
100
AcDbCircle
370
-1
  6
AUSGEZOGEN
 10
291
 20
127
 30
0
 40
5
  0
CIRCLE
  5
103
100
AcDbEntity
  8
200
100
AcDbCircle
370
-1
  6
AUSGEZOGEN
 10
306
 20
127
 30
0
 40
5
  0
CIRCLE
  5
104
100
AcDbEntity
  8
200
100
AcDbCircle
370
-1
  6
AUSGEZOGEN
 10
201
 20
140
 30
0
 40
5
  0
CIRCLE
  5
105
100
AcDbEntity
  8
200
100
AcDbCircle
370
-1
  6
AUSGEZOGEN
 10
216
 20
140
 30
0
 40
5
  0
CIRCLE
  5
106
100
AcDbEntity
  8
200
100
AcDbCircle
370
-1
  6
AUSGEZOGEN
 10
231
 20
140
 30
0
 40
5
  0
CIRCLE
  5
107
100
AcDbEntity
  8
200
100
AcDbCircle
370
-1
  6
AUSGEZOGEN
 10
246
 20
140
 30
0
 40
5
  0
CIRCLE
  5
108
100
AcDbEntity
  8
200
100
AcDbCircle
370
-1
  6
AUSGEZOGEN
 10
261
 20
140
 30
0
 40
5
  0
CIRCLE
  5
109
100
AcDbEntity
  8
200
100
AcDbCircle
370
-1
  6
AUSGEZOGEN
 10
276
 20
140
 30
0
 40
5
  0
CIRCLE
  5
10A
100
AcDbEntity
  8
200
100
AcDbCircle
370
-1
  6
AUSGEZOGEN
 10
291
 20
140
 30
0
 40
5
  0
CIRCLE
  5
10B
100
AcDbEntity
  8
200
100
AcDbCircle
370
-1
  6
AUSGEZOGEN
 10
306
 20
140
 30
0
 40
5
  0
CIRCLE
  5
10C
100
AcDbEntity
  8
200
100
AcDbCircle
370
-1
  6
AUSGEZOGEN
 10
865
 20
161
 30
0
 40
5
  0
CIRCLE
  5
10D
100
AcDbEntity
  8
200
100
AcDbCircle
370
-1
  6
AUSGEZOGEN
 10
880
 20
161
 30
0
 40
5
  0
CIRCLE
  5
10E
100
AcDbEntity
  8
200
100
AcDbCircle
370
-1
  6
AUSGEZOGEN
 10
895
 20
161
 30
0
 40
5
  0
CIRCLE
  5
10F
100
AcDbEntity
  8
200
100
AcDbCircle
370
-1
  6
AUSGEZOGEN
 10
910
 20
161
 30
0
 40
5
  0
CIRCLE
  5
110
100
AcDbEntity
  8
200
100
AcDbCircle
370
-1
  6
AUSGEZOGEN
 10
925
 20
161
 30
0
 40
5
  0
CIRCLE
  5
111
100
AcDbEntity
  8
200
100
AcDbCircle
370
-1
  6
AUSGEZOGEN
 10
940
 20
161
 30
0
 40
5
  0
CIRCLE
  5
112
100
AcDbEntity
  8
200
100
AcDbCircle
370
-1
  6
AUSGEZOGEN
 10
955
 20
161
 30
0
 40
5
  0
CIRCLE
  5
113
100
AcDbEntity
  8
200
100
AcDbCircle
370
-1
  6
AUSGEZOGEN
 10
970
 20
161
 30
0
 40
5
  0
CIRCLE
  5
114
100
AcDbEntity
  8
200
100
AcDbCircle
370
-1
  6
AUSGEZOGEN
 10
865
 20
175
 30
0
 40
5
  0
CIRCLE
  5
115
100
AcDbEntity
  8
200
100
AcDbCircle
370
-1
  6
AUSGEZOGEN
 10
880
 20
175
 30
0
 40
5
  0
CIRCLE
  5
116
100
AcDbEntity
  8
200
100
AcDbCircle
370
-1
  6
AUSGEZOGEN
 10
895
 20
175
 30
0
 40
5
  0
CIRCLE
  5
117
100
AcDbEntity
  8
200
100
AcDbCircle
370
-1
  6
AUSGEZOGEN
 10
910
 20
175
 30
0
 40
5
  0
CIRCLE
  5
118
100
AcDbEntity
  8
200
100
AcDbCircle
370
-1
  6
AUSGEZOGEN
 10
925
 20
175
 30
0
 40
5
  0
CIRCLE
  5
119
100
AcDbEntity
  8
200
100
AcDbCircle
370
-1
  6
AUSGEZOGEN
 10
940
 20
175
 30
0
 40
5
  0
CIRCLE
  5
11A
100
AcDbEntity
  8
200
100
AcDbCircle
370
-1
  6
AUSGEZOGEN
 10
955
 20
175
 30
0
 40
5
  0
CIRCLE
  5
11B
100
AcDbEntity
  8
200
100
AcDbCircle
370
-1
  6
AUSGEZOGEN
 10
970
 20
175
 30
0
 40
5
  0
CIRCLE
  5
11C
100
AcDbEntity
  8
200
100
AcDbCircle
370
-1
  6
AUSGEZOGEN
 10
865
 20
189
 30
0
 40
5
  0
CIRCLE
  5
11D
100
AcDbEntity
  8
200
100
AcDbCircle
370
-1
  6
AUSGEZOGEN
 10
880
 20
189
 30
0
 40
5
  0
CIRCLE
  5
11E
100
AcDbEntity
  8
200
100
AcDbCircle
370
-1
  6
AUSGEZOGEN
 10
895
 20
189
 30
0
 40
5
  0
CIRCLE
  5
11F
100
AcDbEntity
  8
200
100
AcDbCircle
370
-1
  6
AUSGEZOGEN
 10
910
 20
189
 30
0
 40
5
  0
CIRCLE
  5
120
100
AcDbEntity
  8
200
100
AcDbCircle
370
-1
  6
AUSGEZOGEN
 10
925
 20
189
 30
0
 40
5
  0
CIRCLE
  5
121
100
AcDbEntity
  8
200
100
AcDbCircle
370
-1
  6
AUSGEZOGEN
 10
940
 20
189
 30
0
 40
5
  0
CIRCLE
  5
122
100
AcDbEntity
  8
200
100
AcDbCircle
370
-1
  6
AUSGEZOGEN
 10
955
 20
189
 30
0
 40
5
  0
CIRCLE
  5
123
100
AcDbEntity
  8
200
100
AcDbCircle
370
-1
  6
AUSGEZOGEN
 10
970
 20
189
 30
0
 40
5
  0
CIRCLE
  5
124
100
AcDbEntity
  8
200
100
AcDbCircle
370
-1
  6
AUSGEZOGEN
 10
865
 20
203
 30
0
 40
5
  0
CIRCLE
  5
125
100
AcDbEntity
  8
200
100
AcDbCircle
370
-1
  6
AUSGEZOGEN
 10
880
 20
203
 30
0
 40
5
  0
CIRCLE
  5
126
100
AcDbEntity
  8
200
100
AcDbCircle
370
-1
  6
AUSGEZOGEN
 10
895
 20
203
 30
0
 40
5
  0
CIRCLE
  5
127
100
AcDbEntity
  8
200
100
AcDbCircle
370
-1
  6
AUSGEZOGEN
 10
910
 20
203
 30
0
 40
5
  0
CIRCLE
  5
128
100
AcDbEntity
  8
200
100
AcDbCircle
370
-1
  6
AUSGEZOGEN
 10
925
 20
203
 30
0
 40
5
  0
CIRCLE
  5
129
100
AcDbEntity
  8
200
100
AcDbCircle
370
-1
  6
AUSGEZOGEN
 10
940
 20
203
 30
0
 40
5
  0
CIRCLE
  5
12A
100
AcDbEntity
  8
200
100
AcDbCircle
370
-1
  6
AUSGEZOGEN
 10
955
 20
203
 30
0
 40
5
  0
CIRCLE
  5
12B
100
AcDbEntity
  8
200
100
AcDbCircle
370
-1
  6
AUSGEZOGEN
 10
970
 20
203
 30
0
 40
5
  0
CIRCLE
  5
12C
100
AcDbEntity
  8
200
100
AcDbCircle
370
-1
  6
AUSGEZOGEN
 10
865
 20
216
 30
0
 40
5
  0
CIRCLE
  5
12D
100
AcDbEntity
  8
200
100
AcDbCircle
370
-1
  6
AUSGEZOGEN
 10
880
 20
216
 30
0
 40
5
  0
CIRCLE
  5
12E
100
AcDbEntity
  8
200
100
AcDbCircle
370
-1
  6
AUSGEZOGEN
 10
895
 20
216
 30
0
 40
5
  0
CIRCLE
  5
12F
100
AcDbEntity
  8
200
100
AcDbCircle
370
-1
  6
AUSGEZOGEN
 10
910
 20
216
 30
0
 40
5
  0
CIRCLE
  5
130
100
AcDbEntity
  8
200
100
AcDbCircle
370
-1
  6
AUSGEZOGEN
 10
925
 20
216
 30
0
 40
5
  0
CIRCLE
  5
131
100
AcDbEntity
  8
200
100
AcDbCircle
370
-1
  6
AUSGEZOGEN
 10
940
 20
216
 30
0
 40
5
  0
CIRCLE
  5
132
100
AcDbEntity
  8
200
100
AcDbCircle
370
-1
  6
AUSGEZOGEN
 10
955
 20
216
 30
0
 40
5
  0
CIRCLE
  5
133
100
AcDbEntity
  8
200
100
AcDbCircle
370
-1
  6
AUSGEZOGEN
 10
970
 20
216
 30
0
 40
5
  0
CIRCLE
  5
134
100
AcDbEntity
  8
200
100
AcDbCircle
370
-1
  6
AUSGEZOGEN
 10
865
 20
86
 30
0
 40
5
  0
CIRCLE
  5
135
100
AcDbEntity
  8
200
100
AcDbCircle
370
-1
  6
AUSGEZOGEN
 10
880
 20
86
 30
0
 40
5
  0
CIRCLE
  5
136
100
AcDbEntity
  8
200
100
AcDbCircle
370
-1
  6
AUSGEZOGEN
 10
895
 20
86
 30
0
 40
5
  0
CIRCLE
  5
137
100
AcDbEntity
  8
200
100
AcDbCircle
370
-1
  6
AUSGEZOGEN
 10
910
 20
86
 30
0
 40
5
  0
CIRCLE
  5
138
100
AcDbEntity
  8
200
100
AcDbCircle
370
-1
  6
AUSGEZOGEN
 10
925
 20
86
 30
0
 40
5
  0
CIRCLE
  5
139
100
AcDbEntity
  8
200
100
AcDbCircle
370
-1
  6
AUSGEZOGEN
 10
940
 20
86
 30
0
 40
5
  0
CIRCLE
  5
13A
100
AcDbEntity
  8
200
100
AcDbCircle
370
-1
  6
AUSGEZOGEN
 10
955
 20
86
 30
0
 40
5
  0
CIRCLE
  5
13B
100
AcDbEntity
  8
200
100
AcDbCircle
370
-1
  6
AUSGEZOGEN
 10
970
 20
86
 30
0
 40
5
  0
CIRCLE
  5
13C
100
AcDbEntity
  8
200
100
AcDbCircle
370
-1
  6
AUSGEZOGEN
 10
865
 20
100
 30
0
 40
5
  0
CIRCLE
  5
13D
100
AcDbEntity
  8
200
100
AcDbCircle
370
-1
  6
AUSGEZOGEN
 10
880
 20
100
 30
0
 40
5
  0
CIRCLE
  5
13E
100
AcDbEntity
  8
200
100
AcDbCircle
370
-1
  6
AUSGEZOGEN
 10
895
 20
100
 30
0
 40
5
  0
CIRCLE
  5
13F
100
AcDbEntity
  8
200
100
AcDbCircle
370
-1
  6
AUSGEZOGEN
 10
910
 20
100
 30
0
 40
5
  0
CIRCLE
  5
140
100
AcDbEntity
  8
200
100
AcDbCircle
370
-1
  6
AUSGEZOGEN
 10
925
 20
100
 30
0
 40
5
  0
CIRCLE
  5
141
100
AcDbEntity
  8
200
100
AcDbCircle
370
-1
  6
AUSGEZOGEN
 10
940
 20
100
 30
0
 40
5
  0
CIRCLE
  5
142
100
AcDbEntity
  8
200
100
AcDbCircle
370
-1
  6
AUSGEZOGEN
 10
955
 20
100
 30
0
 40
5
  0
CIRCLE
  5
143
100
AcDbEntity
  8
200
100
AcDbCircle
370
-1
  6
AUSGEZOGEN
 10
970
 20
100
 30
0
 40
5
  0
CIRCLE
  5
144
100
AcDbEntity
  8
200
100
AcDbCircle
370
-1
  6
AUSGEZOGEN
 10
865
 20
114
 30
0
 40
5
  0
CIRCLE
  5
145
100
AcDbEntity
  8
200
100
AcDbCircle
370
-1
  6
AUSGEZOGEN
 10
880
 20
114
 30
0
 40
5
  0
CIRCLE
  5
146
100
AcDbEntity
  8
200
100
AcDbCircle
370
-1
  6
AUSGEZOGEN
 10
895
 20
114
 30
0
 40
5
  0
CIRCLE
  5
147
100
AcDbEntity
  8
200
100
AcDbCircle
370
-1
  6
AUSGEZOGEN
 10
910
 20
114
 30
0
 40
5
  0
CIRCLE
  5
148
100
AcDbEntity
  8
200
100
AcDbCircle
370
-1
  6
AUSGEZOGEN
 10
925
 20
114
 30
0
 40
5
  0
CIRCLE
  5
149
100
AcDbEntity
  8
200
100
AcDbCircle
370
-1
  6
AUSGEZOGEN
 10
940
 20
114
 30
0
 40
5
  0
CIRCLE
  5
14A
100
AcDbEntity
  8
200
100
AcDbCircle
370
-1
  6
AUSGEZOGEN
 10
955
 20
114
 30
0
 40
5
  0
CIRCLE
  5
14B
100
AcDbEntity
  8
200
100
AcDbCircle
370
-1
  6
AUSGEZOGEN
 10
970
 20
114
 30
0
 40
5
  0
CIRCLE
  5
14C
100
AcDbEntity
  8
200
100
AcDbCircle
370
-1
  6
AUSGEZOGEN
 10
865
 20
128
 30
0
 40
5
  0
CIRCLE
  5
14D
100
AcDbEntity
  8
200
100
AcDbCircle
370
-1
  6
AUSGEZOGEN
 10
880
 20
128
 30
0
 40
5
  0
CIRCLE
  5
14E
100
AcDbEntity
  8
200
100
AcDbCircle
370
-1
  6
AUSGEZOGEN
 10
895
 20
128
 30
0
 40
5
  0
CIRCLE
  5
14F
100
AcDbEntity
  8
200
100
AcDbCircle
370
-1
  6
AUSGEZOGEN
 10
910
 20
128
 30
0
 40
5
  0
CIRCLE
  5
150
100
AcDbEntity
  8
200
100
AcDbCircle
370
-1
  6
AUSGEZOGEN
 10
925
 20
128
 30
0
 40
5
  0
CIRCLE
  5
151
100
AcDbEntity
  8
200
100
AcDbCircle
370
-1
  6
AUSGEZOGEN
 10
940
 20
128
 30
0
 40
5
  0
CIRCLE
  5
152
100
AcDbEntity
  8
200
100
AcDbCircle
370
-1
  6
AUSGEZOGEN
 10
955
 20
128
 30
0
 40
5
  0
CIRCLE
  5
153
100
AcDbEntity
  8
200
100
AcDbCircle
370
-1
  6
AUSGEZOGEN
 10
970
 20
128
 30
0
 40
5
  0
CIRCLE
  5
154
100
AcDbEntity
  8
200
100
AcDbCircle
370
-1
  6
AUSGEZOGEN
 10
865
 20
141
 30
0
 40
5
  0
CIRCLE
  5
155
100
AcDbEntity
  8
200
100
AcDbCircle
370
-1
  6
AUSGEZOGEN
 10
880
 20
141
 30
0
 40
5
  0
CIRCLE
  5
156
100
AcDbEntity
  8
200
100
AcDbCircle
370
-1
  6
AUSGEZOGEN
 10
895
 20
141
 30
0
 40
5
  0
CIRCLE
  5
157
100
AcDbEntity
  8
200
100
AcDbCircle
370
-1
  6
AUSGEZOGEN
 10
910
 20
141
 30
0
 40
5
  0
CIRCLE
  5
158
100
AcDbEntity
  8
200
100
AcDbCircle
370
-1
  6
AUSGEZOGEN
 10
925
 20
141
 30
0
 40
5
  0
CIRCLE
  5
159
100
AcDbEntity
  8
200
100
AcDbCircle
370
-1
  6
AUSGEZOGEN
 10
940
 20
141
 30
0
 40
5
  0
CIRCLE
  5
15A
100
AcDbEntity
  8
200
100
AcDbCircle
370
-1
  6
AUSGEZOGEN
 10
955
 20
141
 30
0
 40
5
  0
CIRCLE
  5
15B
100
AcDbEntity
  8
200
100
AcDbCircle
370
-1
  6
AUSGEZOGEN
 10
970
 20
141
 30
0
 40
5
  0
LINE
  5
15C
100
AcDbEntity
  8
200
100
AcDbLine
370
-1
  6
AUSGEZOGEN
 10
35
 20
275
 30
0
 11
1010
 21
275
 31
0
  0
ATTDEF
  5
15E
100
AcDbEntity
  8
0
100
AcDbText
370
-1
 10
0
 20
0
 30
0
 40
1
  1

 50
0
 41
1
 51
0
  7
STANDARD
 71
0
 72
0
 11
0
 21
0
 31
0
100
AcDbAttributeDefinition
  3

  2

 70
0
 74
0
1001
AcDbAttr
1070
0
1070
0
  0
ENDBLK
  5
17B
100
AcDbEntity
  8
0
100
AcDbBlockEnd
  0
BLOCK
  5
164
100
AcDbEntity
  8
400
100
AcDbBlockBegin
  2
INST_BLOCK_00001
 70
2
 10
0
 20
0
 30
0
  3
INST_BLOCK_00001
  1

  0
CIRCLE
  5
20
100
AcDbEntity
  8
400
100
AcDbCircle
370
-1
  6
AUSGEZOGEN
 10
525
 20
300
 30
0
 40
50
  0
LINE
  5
21
100
AcDbEntity
  8
400
100
AcDbLine
370
-1
  6
AUSGEZOGEN
 10
450
 20
300
 30
0
 11
525
 21
300
 31
0
  0
LINE
  5
22
100
AcDbEntity
  8
400
100
AcDbLine
370
-1
  6
AUSGEZOGEN
 10
600
 20
300
 30
0
 11
525
 21
300
 31
0
  0
LINE
  5
23
100
AcDbEntity
  8
400
100
AcDbLine
370
-1
  6
AUSGEZOGEN
 10
525
 20
225
 30
0
 11
525
 21
300
 31
0
  0
LINE
  5
24
100
AcDbEntity
  8
400
100
AcDbLine
370
-1
  6
AUSGEZOGEN
 10
525
 20
375
 30
0
 11
525
 21
300
 31
0
  0
ATTDEF
  5
163
100
AcDbEntity
  8
0
100
AcDbText
370
-1
 10
0
 20
0
 30
0
 40
1
  1

 50
0
 41
1
 51
0
  7
STANDARD
 71
0
 72
0
 11
0
 21
0
 31
0
100
AcDbAttributeDefinition
  3

  2

 70
0
 74
0
1001
AcDbAttr
1070
0
1070
0
  0
ENDBLK
  5
17C
100
AcDbEntity
  8
0
100
AcDbBlockEnd
  0
ENDSEC
  0
SECTION
  2
ENTITIES
  0
LINE
  5
1C
100
AcDbEntity
  8
400
100
AcDbLine
370
-1
  6
AUSGEZOGEN
 10
525
 20
300
 30
0
 11
1292.75
 21
741.5
 31
0
  0
LINE
  5
1F
100
AcDbEntity
  8
400
100
AcDbLine
370
-1
  6
AUSGEZOGEN
 10
1842.01
 20
741.5
 30
0
 11
1292.75
 21
741.5
 31
0
  0
TEXT
  5
15D
100
AcDbEntity
  8
400
100
AcDbText
370
-1
 10
1306.25
 20
755
 30
0
 40
45
  1
EZ: 230V 50Hz 0,175kW
 50
0
 41
0.600000023841858
 51
0
  7
STANDARD
 71
0
 72
0
 11
0
 21
0
 31
0
100
AcDbText
 73
0
  0
INSERT
  5
162
100
AcDbEntity
  8
200
100
AcDbBlockReference
370
-1
  6
BYLAYER
 66
1
  2
GER_BLOCK_00001
 10
0
 20
0
 30
0
 41
1
 42
1
 43
1
  0
ATTRIB
  5
161
100
AcDbEntity
  8
0
100
AcDbText
370
-1
 10
0
 20
0
 30
0
 40
20
  1

 50
0
 41
1
 51
0
  7
STANDARD
 71
0
 72
0
 11
0
 21
0
 31
0
100
AcDbAttribute
  2

 70
0
 74
0
1001
AcDbAttr
1070
0
1070
0
  0
SEQEND
  5
17D
100
AcDbEntity
  8
0
  0
INSERT
  5
167
100
AcDbEntity
  8
400
100
AcDbBlockReference
370
-1
  6
BYLAYER
 66
1
  2
INST_BLOCK_00001
 10
0
 20
0
 30
0
 41
1
 42
1
 43
1
  0
ATTRIB
  5
166
100
AcDbEntity
  8
0
100
AcDbText
370
-1
 10
0
 20
0
 30
0
 40
20
  1

 50
0
 41
1
 51
0
  7
STANDARD
 71
0
 72
0
 11
0
 21
0
 31
0
100
AcDbAttribute
  2

 70
0
 74
0
1001
AcDbAttr
1070
0
1070
0
  0
SEQEND
  5
17E
100
AcDbEntity
  8
0
  0
ATTDEF
  5
168
100
AcDbEntity
  8
550
100
AcDbText
370
-1
 10
10
 20
100
 30
0
 40
30
  1

 50
0
 41
1
 51
0
  7
STANDARD
 71
0
 72
0
 11
0
 21
0
 31
0
100
AcDbAttributeDefinition
  3
KBS-340112
  2
KBS-340112
 70
1
 74
0
1001
AcDbAttr
1070
0
1070
0
  0
TEXT
  5
169
100
AcDbEntity
  8
510
100
AcDbText
370
-1
 10
10
 20
-45
 30
0
 40
30
  1

 50
0
 41
1
 51
0
  7
STANDARD
 71
0
 72
0
 11
0
 21
0
 31
0
100
AcDbText
 73
0
  0
ENDSEC
  0
SECTION
  2
OBJECTS
  0
DICTIONARY
  5
17F
100
AcDbDictionary
  3
ACAD_GROUP
350
180
  3
ACAD_MATERIAL
350
181
  3
ACAD_WIPEOUT_VARS
350
182
  3
ACAD_MLINESTYLE
350
183
  3
ACAD_LAYOUT
350
184
  0
DICTIONARY
  5
180
330
17F
100
AcDbDictionary
  0
DICTIONARY
  5
181
330
17F
100
AcDbDictionary
  0
WIPEOUTVARIABLES
  5
182
330
17F
100
AcDbWipeoutVariables
 70
1
  0
DICTIONARY
  5
183
330
17F
100
AcDbDictionary
  3
STANDARD
350
185
  0
MLINESTYLE
  5
185
100
AcDbMlineStyle
  2
STANDARD
 70
0
  3

 62
256
 51
90
 52
90
 71
2
 49
0.5
 62
256
  6
ByLayer
 49
-0.5
 62
256
  6
ByLayer
  0
DICTIONARY
  5
184
100
AcDbDictionary
281
1
  3
Model
350
16A
  0
LAYOUT
  5
16A
102
{ACAD_REACTORS
330
184
102
}
330
184
100
AcDbPlotSettings
  1

  2
none_device
  4

  6

 40
0
 41
0
 42
0
 43
0
 44
0
 45
0
 46
0
 47
0
 48
0
 49
0
 70
1712
 72
1
 73
0
 74
5
 75
16
 76
0
 77
0
 78
100
140
0
141
0
142
1
143
1
147
1
148
0
149
0
100
AcDbLayout
  1
Model
 70
1
 71
1
 10
0
 20
0
 11
1842.01
 21
875
 12
0
 22
0
 32
0
 14
0
 24
0
 34
0
 15
1842.01
 25
875
 35
0
146
0
 13
0
 23
0
 33
0
 16
1
 26
0
 36
0
 17
0
 27
1
 37
0
 76
0
330
1E
  0
DICTIONARY
  5
186
100
AcDbDictionary
280
1
  3
XINFO
360
187
  0
XRECORD
  5
187
102
{ACAD_REACTORS
330
186
102
}
330
186
100
AcDbXrecord
280
0
310
8F24010003000900
311
04BC7F95AE71CF53
  0
ENDSEC
  0
EOF
