999
     Created by SWS GmbH, Paderborn, Germany, www.sws-online.de
999
     and  Soft Gold Ltd. www.cadsofttools.com
999

999
SWS-intern Ausgabemassstab:
999
   0.0500
999

999
SWS-intern Koordinatenwerte 1:1:
999
1
999

  0
SECTION
  2
HEADER
  9
$ACADVER
  1
AC1018
  9
$DWGCODEPAGE
  3
ANSI_1252
  9
$CLAYER
  8
0
  9
$CELTYPE
  6
BYLAYER
  9
$CELTSCALE
 40
1
  9
$CELWEIGHT
370
-1
  9
$DIMALT
 70
0
  9
$DIMALTF
 40
1
  9
$DIMPOST
  1

  9
$DIMAPOST
  1

  9
$DIMSCALE
 40
1
  9
$DIMASZ
 40
0.18
  9
$DIMCLRD
 70
0
  9
$DIMCLRE
 70
0
  9
$DIMCLRT
 70
0
  9
$DIMEXE
 40
0.18
  9
$DIMEXO
 40
0.0625
  9
$DIMGAP
 40
0.0625
  9
$DIMLFAC
 40
1
  9
$DIMDEC
 70
4
  9
$DIMTAD
 70
0
  9
$DIMCEN
 40
0.09
  9
$DIMTIH
 70
1
  9
$DIMTIX
 70
0
  9
$DIMTOH
 70
1
  9
$DIMSE1
 70
0
  9
$DIMSE2
 70
0
  9
$DIMSD1
 70
0
  9
$DIMSD2
 70
0
  9
$DIMLWD
 70
-1
  9
$DIMLWE
 70
-1
  9
$DIMSAH
 70
0
  9
$DIMBLK
  1

  9
$DIMBLK1
  1

  9
$DIMBLK2
  1

  9
$DIMLDRBLK
  1

  9
$DIMSTYLE
  2
STANDARD
  9
$DIMTP
 40
0
  9
$DIMTM
 40
0
  9
$DIMTXT
 40
0.18
  9
$DIMLUNIT
 70
2
  9
$DIMDSEP
 70
46
  9
$DIMTXSTY
  7
STANDARD
  9
$TEXTSIZE
 40
0.18
  9
$TEXTSTYLE
  7
STANDARD
  9
$HANDSEED
  5
0000000000000515
  9
$FILLETRAD
 40
0.5
  9
$INSUNITS
 70
4
  9
$LIMMIN
 10
-505.745
 20
-93.75
  9
$LIMMAX
 10
4551.705
 20
843.75
  9
$FILLMODE
 70
1
  9
$LTSCALE
 40
1
  9
$PSLTSCALE
 70
0
  9
$MEASUREMENT
 70
0
  9
$ATTMODE
 70
1
  9
$PDMODE
 70
0
  9
$PDSIZE
 40
0
  9
$TILEMODE
 70
1
  9
$UCSORG
 10
0
 20
0
 30
0
  9
$UCSXDIR
 10
1
 20
0
 30
0
  9
$UCSYDIR
 10
0
 20
1
 30
0
  9
$INSBASE
 10
0
 20
0
 30
0
  9
$XCLIPFRAME
290
1
  9
$DIMASSOC
280
2
  9
$TDCREATE
 40
2459104.65242256
  9
$TDINDWG
 40
1.85185185185185E-7
  9
$TDUPDATE
 40
2459104.65242274
  0
ENDSEC
  0
SECTION
  2
CLASSES
  0
CLASS
  1
IMAGE
  2
AcDbRasterImage
  3
ISM
 90
2175
 91
1
280
0
281
1
  0
CLASS
  1
IMAGEDEF
  2
AcDbRasterImageDef
  3
ISM
 90
0
 91
1
280
0
281
0
  0
CLASS
  1
WIPEOUT
  2
AcDbWipeout
  3
"WipeOut"
 90
2175
 91
1
280
0
281
1
  0
CLASS
  1
WIPEOUTVARIABLES
  2
AcDbWipeoutVariables
  3
"WipeOut"
 90
0
 91
1
280
0
281
0
  0
CLASS
  1
MPOLYGON
  2
AcDbMPolygon
  3
"AcMPolygonObj15"
 90
3071
 91
1
280
0
281
1
  0
ENDSEC
  0
SECTION
  2
TABLES
  0
TABLE
  2
APPID
  5
4F8
100
AcDbSymbolTable
  0
APPID
  5
4F9
100
AcDbSymbolTableRecord
100
AcDbRegAppTableRecord
  2
ACAD
 70
0
  0
APPID
  5
12
100
AcDbSymbolTableRecord
100
AcDbRegAppTableRecord
  2
CSTINVENTORY
 70
0
  0
APPID
  5
4FA
100
AcDbSymbolTableRecord
100
AcDbRegAppTableRecord
  2
AcDbAttr
 70
0
  0
APPID
  5
4FB
100
AcDbSymbolTableRecord
100
AcDbRegAppTableRecord
  2
PE_URL
 70
0
  0
ENDTAB
  0
TABLE
  2
BLOCK_RECORD
  5
4FC
100
AcDbSymbolTable
  0
BLOCK_RECORD
  5
1E
100
AcDbSymbolTableRecord
100
AcDbBlockTableRecord
  2
*MODEL_SPACE
  0
BLOCK_RECORD
  5
4FD
100
AcDbSymbolTableRecord
100
AcDbBlockTableRecord
  2
*PAPER_SPACE
  0
BLOCK_RECORD
  5
10
100
AcDbSymbolTableRecord
100
AcDbBlockTableRecord
  2
_CLOSEDFILLED
  0
BLOCK_RECORD
  5
4ED
100
AcDbSymbolTableRecord
100
AcDbBlockTableRecord
  2
GER_BLOCK_00001
  0
BLOCK_RECORD
  5
4F2
100
AcDbSymbolTableRecord
100
AcDbBlockTableRecord
  2
INST_BLOCK_00001
  0
ENDTAB
  0
TABLE
  2
STYLE
  5
3
100
AcDbSymbolTable
  0
STYLE
  5
A
100
AcDbSymbolTableRecord
100
AcDbTextStyleTableRecord
  2
STANDARD
 70
0
 40
0
 41
1
 50
0
 71
0
 42
30
  3
TXT.SHX
  4

1001
ACAD
1000
txt
1071
0
  0
ENDTAB
  0
TABLE
  2
LTYPE
  5
1
100
AcDbSymbolTable
  0
LTYPE
  5
9
100
AcDbSymbolTableRecord
100
AcDbLinetypeTableRecord
  2
CONTINUOUS
 70
0
  3

 72
65
 73
0
 40
0
  0
LTYPE
  5
7
100
AcDbSymbolTableRecord
100
AcDbLinetypeTableRecord
  2
BYLAYER
 70
0
  3

 72
65
 73
0
 40
0
  0
LTYPE
  5
8
100
AcDbSymbolTableRecord
100
AcDbLinetypeTableRecord
  2
BYBLOCK
 70
0
  3

 72
65
 73
0
 40
0
  0
LTYPE
  5
13
100
AcDbSymbolTableRecord
100
AcDbLinetypeTableRecord
  2
AUSGEZOGEN
 70
0
  3
.
 72
65
 73
1
 40
0
 49
0
 74
0
  0
LTYPE
  5
14
100
AcDbSymbolTableRecord
100
AcDbLinetypeTableRecord
  2
PUNKTIERT
 70
0
  3
. 
 72
65
 73
2
 40
30
 49
0
 74
0
 49
-30
 74
0
  0
LTYPE
  5
15
100
AcDbSymbolTableRecord
100
AcDbLinetypeTableRecord
  2
GESTRICHELT
 70
0
  3
_ 
 72
65
 73
2
 40
80
 49
50
 74
0
 49
-30
 74
0
  0
LTYPE
  5
16
100
AcDbSymbolTableRecord
100
AcDbLinetypeTableRecord
  2
STRICHPUNKT
 70
0
  3
_ . 
 72
65
 73
4
 40
160
 49
100
 74
0
 49
-30
 74
0
 49
0
 74
0
 49
-30
 74
0
  0
LTYPE
  5
17
100
AcDbSymbolTableRecord
100
AcDbLinetypeTableRecord
  2
GETRENNT
 70
0
  3
_ . . 
 72
65
 73
6
 40
190
 49
100
 74
0
 49
-30
 74
0
 49
0
 74
0
 49
-30
 74
0
 49
0
 74
0
 49
-30
 74
0
  0
ENDTAB
  0
TABLE
  2
LAYER
  5
2
100
AcDbSymbolTable
  0
LAYER
  5
E
100
AcDbSymbolTableRecord
100
AcDbLayerTableRecord
  2
0
 70
0
 62
1
420
16711680
  6
AUSGEZOGEN
290
1
370
-3
390
0
  0
LAYER
  5
18
100
AcDbSymbolTableRecord
100
AcDbLayerTableRecord
  2
550
 70
0
 62
2
420
16776960
  6
AUSGEZOGEN
290
1
370
-3
390
0
  0
LAYER
  5
19
100
AcDbSymbolTableRecord
100
AcDbLayerTableRecord
  2
510
 70
0
 62
2
420
16776960
  6
AUSGEZOGEN
290
1
370
-3
390
0
  0
LAYER
  5
1A
100
AcDbSymbolTableRecord
100
AcDbLayerTableRecord
  2
200
 70
0
 62
7
  6
AUSGEZOGEN
290
1
370
-3
390
0
  0
LAYER
  5
1B
100
AcDbSymbolTableRecord
100
AcDbLayerTableRecord
  2
420
 70
0
 62
2
420
16776960
  6
AUSGEZOGEN
290
1
370
-3
390
0
  0
ENDTAB
  0
TABLE
  2
VPORT
  5
4FE
100
AcDbSymbolTable
  0
VPORT
  5
500
100
AcDbSymbolTableRecord
100
AcDbViewportTableRecord
  2
*ACTIVE
 70
0
 10
0
 20
0
 11
1
 21
1
 12
2022.98
 22
375
 32
0
 13
0
 23
0
 14
1
 24
1
 15
1
 25
1
 16
0
 26
0
 36
1
 17
0
 27
0
 37
0
 40
750
 41
5.39461333333333
 42
50
 43
0
 44
0
 50
0
 51
0
 71
0
 72
100
 73
1
 74
1
 75
0
 76
0
 77
0
 78
0
  0
ENDTAB
  0
TABLE
  2
VIEW
  5
501
100
AcDbSymbolTable
  0
ENDTAB
  0
TABLE
  2
UCS
  5
502
100
AcDbSymbolTable
  0
ENDTAB
  0
TABLE
  2
DIMSTYLE
  5
4
100
AcDbSymbolTable
 70
1
100
AcDbDimStyleTable
 71
0
  0
DIMSTYLE
105
B
100
AcDbSymbolTableRecord
100
AcDbDimStyleTableRecord
  2
STANDARD
 70
0
  3

 40
1
 41
0.18
 42
0.0625
 44
0.18
 47
0
 48
0
 73
1
 74
1
 75
0
 76
0
 77
0
140
0.18
141
0.09
144
1
147
0.0625
173
0
174
0
176
0
177
0
178
0
277
2
278
46
281
0
282
0
271
4
340
A
371
-1
372
-1
  0
ENDTAB
  0
ENDSEC
  0
SECTION
  2
BLOCKS
  0
BLOCK
  5
503
100
AcDbEntity
  8
0
100
AcDbBlockBegin
  2
*MODEL_SPACE
 70
0
 10
0
 20
0
  0
ENDBLK
  5
504
100
AcDbEntity
  8
0
100
AcDbBlockEnd
  0
BLOCK
  5
505
100
AcDbEntity
  8
0
100
AcDbBlockBegin
  2
*PAPER_SPACE
 70
0
 10
0
 20
0
  0
ENDBLK
  5
506
100
AcDbEntity
  8
0
100
AcDbBlockEnd
  0
BLOCK
  5
F
100
AcDbEntity
  8
0
100
AcDbBlockBegin
  2
_CLOSEDFILLED
 70
0
 10
0
 20
0
 30
0
  3
_CLOSEDFILLED
  1

  0
SOLID
  5
C
100
AcDbEntity
  8
0
100
AcDbTrace
370
-2
 62
0
 10
-1
 20
0.166666666666667
 30
0
 11
0
 21
0
 31
0
 12
-1
 22
0.166666666666667
 32
0
 13
-1
 23
-0.166666666666667
 33
0
  0
LINE
  5
D
100
AcDbEntity
  8
0
100
AcDbLine
370
-2
 62
0
 10
-1
 20
0
 30
0
 11
-2
 21
0
 31
0
  0
ENDBLK
  5
507
100
AcDbEntity
  8
0
100
AcDbBlockEnd
  0
BLOCK
  5
4EC
100
AcDbEntity
  8
200
100
AcDbBlockBegin
  2
GER_BLOCK_00001
 70
2
 10
0
 20
0
 30
0
  3
GER_BLOCK_00001
  1

  0
LINE
  5
25
100
AcDbEntity
  8
200
100
AcDbLine
370
-1
  6
AUSGEZOGEN
 10
1135.4
 20
624.6
 30
0
 11
1130
 21
615.4
 31
0
  0
LINE
  5
26
100
AcDbEntity
  8
200
100
AcDbLine
370
-1
  6
AUSGEZOGEN
 10
1144.6
 20
630
 30
0
 11
1135.4
 21
624.6
 31
0
  0
LINE
  5
27
100
AcDbEntity
  8
200
100
AcDbLine
370
-1
  6
AUSGEZOGEN
 10
3070
 20
615.4
 30
0
 11
3064.6
 21
624.6
 31
0
  0
LINE
  5
28
100
AcDbEntity
  8
200
100
AcDbLine
370
-1
  6
AUSGEZOGEN
 10
3055.4
 20
630
 30
0
 11
3064.6
 21
624.6
 31
0
  0
LINE
  5
29
100
AcDbEntity
  8
200
100
AcDbLine
370
-1
  6
AUSGEZOGEN
 10
1144.6
 20
630
 30
0
 11
3055.4
 21
630
 31
0
  0
LINE
  5
2A
100
AcDbEntity
  8
200
100
AcDbLine
370
-1
  6
AUSGEZOGEN
 10
3064.6
 20
35.4
 30
0
 11
3055.4
 21
30
 31
0
  0
LINE
  5
2B
100
AcDbEntity
  8
200
100
AcDbLine
370
-1
  6
AUSGEZOGEN
 10
3070
 20
44.6
 30
0
 11
3064.6
 21
35.4
 31
0
  0
LINE
  5
2C
100
AcDbEntity
  8
200
100
AcDbLine
370
-1
  6
AUSGEZOGEN
 10
3070
 20
615.4
 30
0
 11
3070
 21
44.6
 31
0
  0
LINE
  5
2D
100
AcDbEntity
  8
200
100
AcDbLine
370
-1
  6
AUSGEZOGEN
 10
1135.4
 20
35.4
 30
0
 11
1130
 21
44.6
 31
0
  0
LINE
  5
2E
100
AcDbEntity
  8
200
100
AcDbLine
370
-1
  6
AUSGEZOGEN
 10
1144.6
 20
30
 30
0
 11
1135.4
 21
35.4
 31
0
  0
LINE
  5
2F
100
AcDbEntity
  8
200
100
AcDbLine
370
-1
  6
AUSGEZOGEN
 10
3055.4
 20
30
 30
0
 11
1144.6
 21
30
 31
0
  0
LINE
  5
30
100
AcDbEntity
  8
200
100
AcDbLine
370
-1
  6
AUSGEZOGEN
 10
1130
 20
615.4
 30
0
 11
1130
 21
44.6
 31
0
  0
LINE
  5
31
100
AcDbEntity
  8
200
100
AcDbLine
370
-1
  6
AUSGEZOGEN
 10
2242.7
 20
385
 30
0
 11
1257.3
 21
385
 31
0
  0
LINE
  5
32
100
AcDbEntity
  8
200
100
AcDbLine
370
-1
  6
AUSGEZOGEN
 10
1257.3
 20
85
 30
0
 11
2242.7
 21
85
 31
0
  0
LINE
  5
33
100
AcDbEntity
  8
200
100
AcDbLine
370
-1
  6
AUSGEZOGEN
 10
2250
 20
377.7
 30
0
 11
2250
 21
92.3
 31
0
  0
LINE
  5
34
100
AcDbEntity
  8
200
100
AcDbLine
370
-1
  6
AUSGEZOGEN
 10
2200
 20
330.8
 30
0
 11
2205.9
 21
325
 31
0
  0
LINE
  5
35
100
AcDbEntity
  8
200
100
AcDbLine
370
-1
  6
AUSGEZOGEN
 10
2205.9
 20
345
 30
0
 11
2200
 21
339.2
 31
0
  0
LINE
  5
36
100
AcDbEntity
  8
200
100
AcDbLine
370
-1
  6
AUSGEZOGEN
 10
2220
 20
339.2
 30
0
 11
2214.2
 21
345
 31
0
  0
LINE
  5
37
100
AcDbEntity
  8
200
100
AcDbLine
370
-1
  6
AUSGEZOGEN
 10
2214.2
 20
325
 30
0
 11
2220
 21
330.8
 31
0
  0
LINE
  5
38
100
AcDbEntity
  8
200
100
AcDbLine
370
-1
  6
AUSGEZOGEN
 10
2160
 20
330.8
 30
0
 11
2165.9
 21
325
 31
0
  0
LINE
  5
39
100
AcDbEntity
  8
200
100
AcDbLine
370
-1
  6
AUSGEZOGEN
 10
2165.9
 20
345
 30
0
 11
2160
 21
339.2
 31
0
  0
LINE
  5
3A
100
AcDbEntity
  8
200
100
AcDbLine
370
-1
  6
AUSGEZOGEN
 10
2180
 20
339.2
 30
0
 11
2174.1
 21
345
 31
0
  0
LINE
  5
3B
100
AcDbEntity
  8
200
100
AcDbLine
370
-1
  6
AUSGEZOGEN
 10
2174.1
 20
325
 30
0
 11
2180
 21
330.8
 31
0
  0
LINE
  5
3C
100
AcDbEntity
  8
200
100
AcDbLine
370
-1
  6
AUSGEZOGEN
 10
2120
 20
330.8
 30
0
 11
2125.8
 21
325
 31
0
  0
LINE
  5
3D
100
AcDbEntity
  8
200
100
AcDbLine
370
-1
  6
AUSGEZOGEN
 10
2125.8
 20
345
 30
0
 11
2120
 21
339.2
 31
0
  0
LINE
  5
3E
100
AcDbEntity
  8
200
100
AcDbLine
370
-1
  6
AUSGEZOGEN
 10
2140
 20
339.2
 30
0
 11
2134.1
 21
345
 31
0
  0
LINE
  5
3F
100
AcDbEntity
  8
200
100
AcDbLine
370
-1
  6
AUSGEZOGEN
 10
2134.1
 20
325
 30
0
 11
2140
 21
330.8
 31
0
  0
LINE
  5
40
100
AcDbEntity
  8
200
100
AcDbLine
370
-1
  6
AUSGEZOGEN
 10
2080
 20
330.8
 30
0
 11
2085.9
 21
325
 31
0
  0
LINE
  5
41
100
AcDbEntity
  8
200
100
AcDbLine
370
-1
  6
AUSGEZOGEN
 10
2085.9
 20
345
 30
0
 11
2080
 21
339.2
 31
0
  0
LINE
  5
42
100
AcDbEntity
  8
200
100
AcDbLine
370
-1
  6
AUSGEZOGEN
 10
2100
 20
339.2
 30
0
 11
2094.2
 21
345
 31
0
  0
LINE
  5
43
100
AcDbEntity
  8
200
100
AcDbLine
370
-1
  6
AUSGEZOGEN
 10
2094.2
 20
325
 30
0
 11
2100
 21
330.8
 31
0
  0
LINE
  5
44
100
AcDbEntity
  8
200
100
AcDbLine
370
-1
  6
AUSGEZOGEN
 10
2040
 20
330.8
 30
0
 11
2045.8
 21
325
 31
0
  0
LINE
  5
45
100
AcDbEntity
  8
200
100
AcDbLine
370
-1
  6
AUSGEZOGEN
 10
2045.8
 20
345
 30
0
 11
2040
 21
339.2
 31
0
  0
LINE
  5
46
100
AcDbEntity
  8
200
100
AcDbLine
370
-1
  6
AUSGEZOGEN
 10
2060
 20
339.2
 30
0
 11
2054.1
 21
345
 31
0
  0
LINE
  5
47
100
AcDbEntity
  8
200
100
AcDbLine
370
-1
  6
AUSGEZOGEN
 10
2054.1
 20
325
 30
0
 11
2060
 21
330.8
 31
0
  0
LINE
  5
48
100
AcDbEntity
  8
200
100
AcDbLine
370
-1
  6
AUSGEZOGEN
 10
2000
 20
330.8
 30
0
 11
2005.9
 21
325
 31
0
  0
LINE
  5
49
100
AcDbEntity
  8
200
100
AcDbLine
370
-1
  6
AUSGEZOGEN
 10
2005.9
 20
345
 30
0
 11
2000
 21
339.2
 31
0
  0
LINE
  5
4A
100
AcDbEntity
  8
200
100
AcDbLine
370
-1
  6
AUSGEZOGEN
 10
2020
 20
339.2
 30
0
 11
2014.2
 21
345
 31
0
  0
LINE
  5
4B
100
AcDbEntity
  8
200
100
AcDbLine
370
-1
  6
AUSGEZOGEN
 10
2014.2
 20
325
 30
0
 11
2020
 21
330.8
 31
0
  0
LINE
  5
4C
100
AcDbEntity
  8
200
100
AcDbLine
370
-1
  6
AUSGEZOGEN
 10
1960
 20
330.8
 30
0
 11
1965.9
 21
325
 31
0
  0
LINE
  5
4D
100
AcDbEntity
  8
200
100
AcDbLine
370
-1
  6
AUSGEZOGEN
 10
1965.9
 20
345
 30
0
 11
1960
 21
339.2
 31
0
  0
LINE
  5
4E
100
AcDbEntity
  8
200
100
AcDbLine
370
-1
  6
AUSGEZOGEN
 10
1980
 20
339.2
 30
0
 11
1974.1
 21
345
 31
0
  0
LINE
  5
4F
100
AcDbEntity
  8
200
100
AcDbLine
370
-1
  6
AUSGEZOGEN
 10
1974.1
 20
325
 30
0
 11
1980
 21
330.8
 31
0
  0
LINE
  5
50
100
AcDbEntity
  8
200
100
AcDbLine
370
-1
  6
AUSGEZOGEN
 10
1920
 20
330.8
 30
0
 11
1925.8
 21
325
 31
0
  0
LINE
  5
51
100
AcDbEntity
  8
200
100
AcDbLine
370
-1
  6
AUSGEZOGEN
 10
1925.8
 20
345
 30
0
 11
1920
 21
339.2
 31
0
  0
LINE
  5
52
100
AcDbEntity
  8
200
100
AcDbLine
370
-1
  6
AUSGEZOGEN
 10
1940
 20
339.2
 30
0
 11
1934.1
 21
345
 31
0
  0
LINE
  5
53
100
AcDbEntity
  8
200
100
AcDbLine
370
-1
  6
AUSGEZOGEN
 10
1934.1
 20
325
 30
0
 11
1940
 21
330.8
 31
0
  0
LINE
  5
54
100
AcDbEntity
  8
200
100
AcDbLine
370
-1
  6
AUSGEZOGEN
 10
1880
 20
330.8
 30
0
 11
1885.9
 21
325
 31
0
  0
LINE
  5
55
100
AcDbEntity
  8
200
100
AcDbLine
370
-1
  6
AUSGEZOGEN
 10
1885.9
 20
345
 30
0
 11
1880
 21
339.2
 31
0
  0
LINE
  5
56
100
AcDbEntity
  8
200
100
AcDbLine
370
-1
  6
AUSGEZOGEN
 10
1900
 20
339.2
 30
0
 11
1894.2
 21
345
 31
0
  0
LINE
  5
57
100
AcDbEntity
  8
200
100
AcDbLine
370
-1
  6
AUSGEZOGEN
 10
1894.2
 20
325
 30
0
 11
1900
 21
330.8
 31
0
  0
LINE
  5
58
100
AcDbEntity
  8
200
100
AcDbLine
370
-1
  6
AUSGEZOGEN
 10
1840
 20
330.8
 30
0
 11
1845.9
 21
325
 31
0
  0
LINE
  5
59
100
AcDbEntity
  8
200
100
AcDbLine
370
-1
  6
AUSGEZOGEN
 10
1845.9
 20
345
 30
0
 11
1840
 21
339.2
 31
0
  0
LINE
  5
5A
100
AcDbEntity
  8
200
100
AcDbLine
370
-1
  6
AUSGEZOGEN
 10
1860
 20
339.2
 30
0
 11
1854.1
 21
345
 31
0
  0
LINE
  5
5B
100
AcDbEntity
  8
200
100
AcDbLine
370
-1
  6
AUSGEZOGEN
 10
1854.1
 20
325
 30
0
 11
1860
 21
330.8
 31
0
  0
LINE
  5
5C
100
AcDbEntity
  8
200
100
AcDbLine
370
-1
  6
AUSGEZOGEN
 10
1800
 20
330.8
 30
0
 11
1805.8
 21
325
 31
0
  0
LINE
  5
5D
100
AcDbEntity
  8
200
100
AcDbLine
370
-1
  6
AUSGEZOGEN
 10
1805.8
 20
345
 30
0
 11
1800
 21
339.2
 31
0
  0
LINE
  5
5E
100
AcDbEntity
  8
200
100
AcDbLine
370
-1
  6
AUSGEZOGEN
 10
1820
 20
339.2
 30
0
 11
1814.2
 21
345
 31
0
  0
LINE
  5
5F
100
AcDbEntity
  8
200
100
AcDbLine
370
-1
  6
AUSGEZOGEN
 10
1814.2
 20
325
 30
0
 11
1820
 21
330.8
 31
0
  0
LINE
  5
60
100
AcDbEntity
  8
200
100
AcDbLine
370
-1
  6
AUSGEZOGEN
 10
1760
 20
330.8
 30
0
 11
1765.9
 21
325
 31
0
  0
LINE
  5
61
100
AcDbEntity
  8
200
100
AcDbLine
370
-1
  6
AUSGEZOGEN
 10
1765.9
 20
345
 30
0
 11
1760
 21
339.2
 31
0
  0
LINE
  5
62
100
AcDbEntity
  8
200
100
AcDbLine
370
-1
  6
AUSGEZOGEN
 10
1780
 20
339.2
 30
0
 11
1774.2
 21
345
 31
0
  0
LINE
  5
63
100
AcDbEntity
  8
200
100
AcDbLine
370
-1
  6
AUSGEZOGEN
 10
1774.2
 20
325
 30
0
 11
1780
 21
330.8
 31
0
  0
LINE
  5
64
100
AcDbEntity
  8
200
100
AcDbLine
370
-1
  6
AUSGEZOGEN
 10
1720
 20
330.8
 30
0
 11
1725.8
 21
325
 31
0
  0
LINE
  5
65
100
AcDbEntity
  8
200
100
AcDbLine
370
-1
  6
AUSGEZOGEN
 10
1725.8
 20
345
 30
0
 11
1720
 21
339.2
 31
0
  0
LINE
  5
66
100
AcDbEntity
  8
200
100
AcDbLine
370
-1
  6
AUSGEZOGEN
 10
1740
 20
339.2
 30
0
 11
1734.1
 21
345
 31
0
  0
LINE
  5
67
100
AcDbEntity
  8
200
100
AcDbLine
370
-1
  6
AUSGEZOGEN
 10
1734.1
 20
325
 30
0
 11
1740
 21
330.8
 31
0
  0
LINE
  5
68
100
AcDbEntity
  8
200
100
AcDbLine
370
-1
  6
AUSGEZOGEN
 10
1680
 20
330.8
 30
0
 11
1685.9
 21
325
 31
0
  0
LINE
  5
69
100
AcDbEntity
  8
200
100
AcDbLine
370
-1
  6
AUSGEZOGEN
 10
1685.9
 20
345
 30
0
 11
1680
 21
339.2
 31
0
  0
LINE
  5
6A
100
AcDbEntity
  8
200
100
AcDbLine
370
-1
  6
AUSGEZOGEN
 10
1700
 20
339.2
 30
0
 11
1694.2
 21
345
 31
0
  0
LINE
  5
6B
100
AcDbEntity
  8
200
100
AcDbLine
370
-1
  6
AUSGEZOGEN
 10
1694.2
 20
325
 30
0
 11
1700
 21
330.8
 31
0
  0
LINE
  5
6C
100
AcDbEntity
  8
200
100
AcDbLine
370
-1
  6
AUSGEZOGEN
 10
1640
 20
330.8
 30
0
 11
1645.9
 21
325
 31
0
  0
LINE
  5
6D
100
AcDbEntity
  8
200
100
AcDbLine
370
-1
  6
AUSGEZOGEN
 10
1645.9
 20
345
 30
0
 11
1640
 21
339.2
 31
0
  0
LINE
  5
6E
100
AcDbEntity
  8
200
100
AcDbLine
370
-1
  6
AUSGEZOGEN
 10
1660
 20
339.2
 30
0
 11
1654.1
 21
345
 31
0
  0
LINE
  5
6F
100
AcDbEntity
  8
200
100
AcDbLine
370
-1
  6
AUSGEZOGEN
 10
1654.1
 20
325
 30
0
 11
1660
 21
330.8
 31
0
  0
LINE
  5
70
100
AcDbEntity
  8
200
100
AcDbLine
370
-1
  6
AUSGEZOGEN
 10
1600
 20
330.8
 30
0
 11
1605.8
 21
325
 31
0
  0
LINE
  5
71
100
AcDbEntity
  8
200
100
AcDbLine
370
-1
  6
AUSGEZOGEN
 10
1605.8
 20
345
 30
0
 11
1600
 21
339.2
 31
0
  0
LINE
  5
72
100
AcDbEntity
  8
200
100
AcDbLine
370
-1
  6
AUSGEZOGEN
 10
1620
 20
339.2
 30
0
 11
1614.1
 21
345
 31
0
  0
LINE
  5
73
100
AcDbEntity
  8
200
100
AcDbLine
370
-1
  6
AUSGEZOGEN
 10
1614.1
 20
325
 30
0
 11
1620
 21
330.8
 31
0
  0
LINE
  5
74
100
AcDbEntity
  8
200
100
AcDbLine
370
-1
  6
AUSGEZOGEN
 10
1560
 20
330.8
 30
0
 11
1565.9
 21
325
 31
0
  0
LINE
  5
75
100
AcDbEntity
  8
200
100
AcDbLine
370
-1
  6
AUSGEZOGEN
 10
1565.9
 20
345
 30
0
 11
1560
 21
339.2
 31
0
  0
LINE
  5
76
100
AcDbEntity
  8
200
100
AcDbLine
370
-1
  6
AUSGEZOGEN
 10
1580
 20
339.2
 30
0
 11
1574.2
 21
345
 31
0
  0
LINE
  5
77
100
AcDbEntity
  8
200
100
AcDbLine
370
-1
  6
AUSGEZOGEN
 10
1574.2
 20
325
 30
0
 11
1580
 21
330.8
 31
0
  0
LINE
  5
78
100
AcDbEntity
  8
200
100
AcDbLine
370
-1
  6
AUSGEZOGEN
 10
1520
 20
330.8
 30
0
 11
1525.8
 21
325
 31
0
  0
LINE
  5
79
100
AcDbEntity
  8
200
100
AcDbLine
370
-1
  6
AUSGEZOGEN
 10
1525.8
 20
345
 30
0
 11
1520
 21
339.2
 31
0
  0
LINE
  5
7A
100
AcDbEntity
  8
200
100
AcDbLine
370
-1
  6
AUSGEZOGEN
 10
1540
 20
339.2
 30
0
 11
1534.1
 21
345
 31
0
  0
LINE
  5
7B
100
AcDbEntity
  8
200
100
AcDbLine
370
-1
  6
AUSGEZOGEN
 10
1534.1
 20
325
 30
0
 11
1540
 21
330.8
 31
0
  0
LINE
  5
7C
100
AcDbEntity
  8
200
100
AcDbLine
370
-1
  6
AUSGEZOGEN
 10
1480
 20
330.8
 30
0
 11
1485.9
 21
325
 31
0
  0
LINE
  5
7D
100
AcDbEntity
  8
200
100
AcDbLine
370
-1
  6
AUSGEZOGEN
 10
1485.9
 20
345
 30
0
 11
1480
 21
339.2
 31
0
  0
LINE
  5
7E
100
AcDbEntity
  8
200
100
AcDbLine
370
-1
  6
AUSGEZOGEN
 10
1500
 20
339.2
 30
0
 11
1494.2
 21
345
 31
0
  0
LINE
  5
7F
100
AcDbEntity
  8
200
100
AcDbLine
370
-1
  6
AUSGEZOGEN
 10
1494.2
 20
325
 30
0
 11
1500
 21
330.8
 31
0
  0
LINE
  5
80
100
AcDbEntity
  8
200
100
AcDbLine
370
-1
  6
AUSGEZOGEN
 10
1440
 20
330.8
 30
0
 11
1445.9
 21
325
 31
0
  0
LINE
  5
81
100
AcDbEntity
  8
200
100
AcDbLine
370
-1
  6
AUSGEZOGEN
 10
1445.9
 20
345
 30
0
 11
1440
 21
339.2
 31
0
  0
LINE
  5
82
100
AcDbEntity
  8
200
100
AcDbLine
370
-1
  6
AUSGEZOGEN
 10
1460
 20
339.2
 30
0
 11
1454.1
 21
345
 31
0
  0
LINE
  5
83
100
AcDbEntity
  8
200
100
AcDbLine
370
-1
  6
AUSGEZOGEN
 10
1454.1
 20
325
 30
0
 11
1460
 21
330.8
 31
0
  0
LINE
  5
84
100
AcDbEntity
  8
200
100
AcDbLine
370
-1
  6
AUSGEZOGEN
 10
1400
 20
330.8
 30
0
 11
1405.8
 21
325
 31
0
  0
LINE
  5
85
100
AcDbEntity
  8
200
100
AcDbLine
370
-1
  6
AUSGEZOGEN
 10
1405.8
 20
345
 30
0
 11
1400
 21
339.2
 31
0
  0
LINE
  5
86
100
AcDbEntity
  8
200
100
AcDbLine
370
-1
  6
AUSGEZOGEN
 10
1420
 20
339.2
 30
0
 11
1414.1
 21
345
 31
0
  0
LINE
  5
87
100
AcDbEntity
  8
200
100
AcDbLine
370
-1
  6
AUSGEZOGEN
 10
1414.1
 20
325
 30
0
 11
1420
 21
330.8
 31
0
  0
LINE
  5
88
100
AcDbEntity
  8
200
100
AcDbLine
370
-1
  6
AUSGEZOGEN
 10
1360
 20
330.8
 30
0
 11
1365.9
 21
325
 31
0
  0
LINE
  5
89
100
AcDbEntity
  8
200
100
AcDbLine
370
-1
  6
AUSGEZOGEN
 10
1365.9
 20
345
 30
0
 11
1360
 21
339.2
 31
0
  0
LINE
  5
8A
100
AcDbEntity
  8
200
100
AcDbLine
370
-1
  6
AUSGEZOGEN
 10
1380
 20
339.2
 30
0
 11
1374.2
 21
345
 31
0
  0
LINE
  5
8B
100
AcDbEntity
  8
200
100
AcDbLine
370
-1
  6
AUSGEZOGEN
 10
1374.2
 20
325
 30
0
 11
1380
 21
330.8
 31
0
  0
LINE
  5
8C
100
AcDbEntity
  8
200
100
AcDbLine
370
-1
  6
AUSGEZOGEN
 10
1320
 20
330.8
 30
0
 11
1325.8
 21
325
 31
0
  0
LINE
  5
8D
100
AcDbEntity
  8
200
100
AcDbLine
370
-1
  6
AUSGEZOGEN
 10
1325.8
 20
345
 30
0
 11
1320
 21
339.2
 31
0
  0
LINE
  5
8E
100
AcDbEntity
  8
200
100
AcDbLine
370
-1
  6
AUSGEZOGEN
 10
1340
 20
339.2
 30
0
 11
1334.1
 21
345
 31
0
  0
LINE
  5
8F
100
AcDbEntity
  8
200
100
AcDbLine
370
-1
  6
AUSGEZOGEN
 10
1334.1
 20
325
 30
0
 11
1340
 21
330.8
 31
0
  0
LINE
  5
90
100
AcDbEntity
  8
200
100
AcDbLine
370
-1
  6
AUSGEZOGEN
 10
1280
 20
330.8
 30
0
 11
1285.8
 21
325
 31
0
  0
LINE
  5
91
100
AcDbEntity
  8
200
100
AcDbLine
370
-1
  6
AUSGEZOGEN
 10
1285.8
 20
345
 30
0
 11
1280
 21
339.2
 31
0
  0
LINE
  5
92
100
AcDbEntity
  8
200
100
AcDbLine
370
-1
  6
AUSGEZOGEN
 10
1300
 20
339.2
 30
0
 11
1294.2
 21
345
 31
0
  0
LINE
  5
93
100
AcDbEntity
  8
200
100
AcDbLine
370
-1
  6
AUSGEZOGEN
 10
1294.2
 20
325
 30
0
 11
1300
 21
330.8
 31
0
  0
LINE
  5
94
100
AcDbEntity
  8
200
100
AcDbLine
370
-1
  6
AUSGEZOGEN
 10
2205.9
 20
285
 30
0
 11
2200
 21
290.9
 31
0
  0
LINE
  5
95
100
AcDbEntity
  8
200
100
AcDbLine
370
-1
  6
AUSGEZOGEN
 10
2200
 20
299.1
 30
0
 11
2205.9
 21
305
 31
0
  0
LINE
  5
96
100
AcDbEntity
  8
200
100
AcDbLine
370
-1
  6
AUSGEZOGEN
 10
2214.2
 20
305
 30
0
 11
2220
 21
299.1
 31
0
  0
LINE
  5
97
100
AcDbEntity
  8
200
100
AcDbLine
370
-1
  6
AUSGEZOGEN
 10
2214.2
 20
285
 30
0
 11
2220
 21
290.9
 31
0
  0
LINE
  5
98
100
AcDbEntity
  8
200
100
AcDbLine
370
-1
  6
AUSGEZOGEN
 10
2160
 20
290.9
 30
0
 11
2165.9
 21
285
 31
0
  0
LINE
  5
99
100
AcDbEntity
  8
200
100
AcDbLine
370
-1
  6
AUSGEZOGEN
 10
2165.9
 20
305
 30
0
 11
2160
 21
299.1
 31
0
  0
LINE
  5
9A
100
AcDbEntity
  8
200
100
AcDbLine
370
-1
  6
AUSGEZOGEN
 10
2180
 20
299.1
 30
0
 11
2174.1
 21
305
 31
0
  0
LINE
  5
9B
100
AcDbEntity
  8
200
100
AcDbLine
370
-1
  6
AUSGEZOGEN
 10
2174.1
 20
285
 30
0
 11
2180
 21
290.9
 31
0
  0
LINE
  5
9C
100
AcDbEntity
  8
200
100
AcDbLine
370
-1
  6
AUSGEZOGEN
 10
2120
 20
290.9
 30
0
 11
2125.8
 21
285
 31
0
  0
LINE
  5
9D
100
AcDbEntity
  8
200
100
AcDbLine
370
-1
  6
AUSGEZOGEN
 10
2125.8
 20
305
 30
0
 11
2120
 21
299.1
 31
0
  0
LINE
  5
9E
100
AcDbEntity
  8
200
100
AcDbLine
370
-1
  6
AUSGEZOGEN
 10
2140
 20
299.1
 30
0
 11
2134.1
 21
305
 31
0
  0
LINE
  5
9F
100
AcDbEntity
  8
200
100
AcDbLine
370
-1
  6
AUSGEZOGEN
 10
2134.1
 20
285
 30
0
 11
2140
 21
290.9
 31
0
  0
LINE
  5
A0
100
AcDbEntity
  8
200
100
AcDbLine
370
-1
  6
AUSGEZOGEN
 10
2080
 20
290.9
 30
0
 11
2085.9
 21
285
 31
0
  0
LINE
  5
A1
100
AcDbEntity
  8
200
100
AcDbLine
370
-1
  6
AUSGEZOGEN
 10
2085.9
 20
305
 30
0
 11
2080
 21
299.1
 31
0
  0
LINE
  5
A2
100
AcDbEntity
  8
200
100
AcDbLine
370
-1
  6
AUSGEZOGEN
 10
2100
 20
299.1
 30
0
 11
2094.2
 21
305
 31
0
  0
LINE
  5
A3
100
AcDbEntity
  8
200
100
AcDbLine
370
-1
  6
AUSGEZOGEN
 10
2094.2
 20
285
 30
0
 11
2100
 21
290.9
 31
0
  0
LINE
  5
A4
100
AcDbEntity
  8
200
100
AcDbLine
370
-1
  6
AUSGEZOGEN
 10
2040
 20
290.9
 30
0
 11
2045.8
 21
285
 31
0
  0
LINE
  5
A5
100
AcDbEntity
  8
200
100
AcDbLine
370
-1
  6
AUSGEZOGEN
 10
2045.8
 20
305
 30
0
 11
2040
 21
299.1
 31
0
  0
LINE
  5
A6
100
AcDbEntity
  8
200
100
AcDbLine
370
-1
  6
AUSGEZOGEN
 10
2060
 20
299.1
 30
0
 11
2054.1
 21
305
 31
0
  0
LINE
  5
A7
100
AcDbEntity
  8
200
100
AcDbLine
370
-1
  6
AUSGEZOGEN
 10
2054.1
 20
285
 30
0
 11
2060
 21
290.9
 31
0
  0
LINE
  5
A8
100
AcDbEntity
  8
200
100
AcDbLine
370
-1
  6
AUSGEZOGEN
 10
2000
 20
290.9
 30
0
 11
2005.9
 21
285
 31
0
  0
LINE
  5
A9
100
AcDbEntity
  8
200
100
AcDbLine
370
-1
  6
AUSGEZOGEN
 10
2005.9
 20
305
 30
0
 11
2000
 21
299.1
 31
0
  0
LINE
  5
AA
100
AcDbEntity
  8
200
100
AcDbLine
370
-1
  6
AUSGEZOGEN
 10
2020
 20
299.1
 30
0
 11
2014.2
 21
305
 31
0
  0
LINE
  5
AB
100
AcDbEntity
  8
200
100
AcDbLine
370
-1
  6
AUSGEZOGEN
 10
2014.2
 20
285
 30
0
 11
2020
 21
290.9
 31
0
  0
LINE
  5
AC
100
AcDbEntity
  8
200
100
AcDbLine
370
-1
  6
AUSGEZOGEN
 10
1960
 20
290.9
 30
0
 11
1965.9
 21
285
 31
0
  0
LINE
  5
AD
100
AcDbEntity
  8
200
100
AcDbLine
370
-1
  6
AUSGEZOGEN
 10
1965.9
 20
305
 30
0
 11
1960
 21
299.1
 31
0
  0
LINE
  5
AE
100
AcDbEntity
  8
200
100
AcDbLine
370
-1
  6
AUSGEZOGEN
 10
1980
 20
299.1
 30
0
 11
1974.1
 21
305
 31
0
  0
LINE
  5
AF
100
AcDbEntity
  8
200
100
AcDbLine
370
-1
  6
AUSGEZOGEN
 10
1974.1
 20
285
 30
0
 11
1980
 21
290.9
 31
0
  0
LINE
  5
B0
100
AcDbEntity
  8
200
100
AcDbLine
370
-1
  6
AUSGEZOGEN
 10
1920
 20
290.9
 30
0
 11
1925.8
 21
285
 31
0
  0
LINE
  5
B1
100
AcDbEntity
  8
200
100
AcDbLine
370
-1
  6
AUSGEZOGEN
 10
1925.8
 20
305
 30
0
 11
1920
 21
299.1
 31
0
  0
LINE
  5
B2
100
AcDbEntity
  8
200
100
AcDbLine
370
-1
  6
AUSGEZOGEN
 10
1940
 20
299.1
 30
0
 11
1934.1
 21
305
 31
0
  0
LINE
  5
B3
100
AcDbEntity
  8
200
100
AcDbLine
370
-1
  6
AUSGEZOGEN
 10
1934.1
 20
285
 30
0
 11
1940
 21
290.9
 31
0
  0
LINE
  5
B4
100
AcDbEntity
  8
200
100
AcDbLine
370
-1
  6
AUSGEZOGEN
 10
1880
 20
290.9
 30
0
 11
1885.9
 21
285
 31
0
  0
LINE
  5
B5
100
AcDbEntity
  8
200
100
AcDbLine
370
-1
  6
AUSGEZOGEN
 10
1885.9
 20
305
 30
0
 11
1880
 21
299.1
 31
0
  0
LINE
  5
B6
100
AcDbEntity
  8
200
100
AcDbLine
370
-1
  6
AUSGEZOGEN
 10
1900
 20
299.1
 30
0
 11
1894.2
 21
305
 31
0
  0
LINE
  5
B7
100
AcDbEntity
  8
200
100
AcDbLine
370
-1
  6
AUSGEZOGEN
 10
1894.2
 20
285
 30
0
 11
1900
 21
290.9
 31
0
  0
LINE
  5
B8
100
AcDbEntity
  8
200
100
AcDbLine
370
-1
  6
AUSGEZOGEN
 10
1840
 20
290.9
 30
0
 11
1845.9
 21
285
 31
0
  0
LINE
  5
B9
100
AcDbEntity
  8
200
100
AcDbLine
370
-1
  6
AUSGEZOGEN
 10
1845.9
 20
305
 30
0
 11
1840
 21
299.1
 31
0
  0
LINE
  5
BA
100
AcDbEntity
  8
200
100
AcDbLine
370
-1
  6
AUSGEZOGEN
 10
1860
 20
299.1
 30
0
 11
1854.1
 21
305
 31
0
  0
LINE
  5
BB
100
AcDbEntity
  8
200
100
AcDbLine
370
-1
  6
AUSGEZOGEN
 10
1854.1
 20
285
 30
0
 11
1860
 21
290.9
 31
0
  0
LINE
  5
BC
100
AcDbEntity
  8
200
100
AcDbLine
370
-1
  6
AUSGEZOGEN
 10
1800
 20
290.9
 30
0
 11
1805.8
 21
285
 31
0
  0
LINE
  5
BD
100
AcDbEntity
  8
200
100
AcDbLine
370
-1
  6
AUSGEZOGEN
 10
1805.8
 20
305
 30
0
 11
1800
 21
299.1
 31
0
  0
LINE
  5
BE
100
AcDbEntity
  8
200
100
AcDbLine
370
-1
  6
AUSGEZOGEN
 10
1820
 20
299.1
 30
0
 11
1814.2
 21
305
 31
0
  0
LINE
  5
BF
100
AcDbEntity
  8
200
100
AcDbLine
370
-1
  6
AUSGEZOGEN
 10
1814.2
 20
285
 30
0
 11
1820
 21
290.9
 31
0
  0
LINE
  5
C0
100
AcDbEntity
  8
200
100
AcDbLine
370
-1
  6
AUSGEZOGEN
 10
1760
 20
290.9
 30
0
 11
1765.9
 21
285
 31
0
  0
LINE
  5
C1
100
AcDbEntity
  8
200
100
AcDbLine
370
-1
  6
AUSGEZOGEN
 10
1765.9
 20
305
 30
0
 11
1760
 21
299.1
 31
0
  0
LINE
  5
C2
100
AcDbEntity
  8
200
100
AcDbLine
370
-1
  6
AUSGEZOGEN
 10
1780
 20
299.1
 30
0
 11
1774.2
 21
305
 31
0
  0
LINE
  5
C3
100
AcDbEntity
  8
200
100
AcDbLine
370
-1
  6
AUSGEZOGEN
 10
1774.2
 20
285
 30
0
 11
1780
 21
290.9
 31
0
  0
LINE
  5
C4
100
AcDbEntity
  8
200
100
AcDbLine
370
-1
  6
AUSGEZOGEN
 10
1720
 20
290.9
 30
0
 11
1725.8
 21
285
 31
0
  0
LINE
  5
C5
100
AcDbEntity
  8
200
100
AcDbLine
370
-1
  6
AUSGEZOGEN
 10
1725.8
 20
305
 30
0
 11
1720
 21
299.1
 31
0
  0
LINE
  5
C6
100
AcDbEntity
  8
200
100
AcDbLine
370
-1
  6
AUSGEZOGEN
 10
1740
 20
299.1
 30
0
 11
1734.1
 21
305
 31
0
  0
LINE
  5
C7
100
AcDbEntity
  8
200
100
AcDbLine
370
-1
  6
AUSGEZOGEN
 10
1734.1
 20
285
 30
0
 11
1740
 21
290.9
 31
0
  0
LINE
  5
C8
100
AcDbEntity
  8
200
100
AcDbLine
370
-1
  6
AUSGEZOGEN
 10
1680
 20
290.9
 30
0
 11
1685.9
 21
285
 31
0
  0
LINE
  5
C9
100
AcDbEntity
  8
200
100
AcDbLine
370
-1
  6
AUSGEZOGEN
 10
1685.9
 20
305
 30
0
 11
1680
 21
299.1
 31
0
  0
LINE
  5
CA
100
AcDbEntity
  8
200
100
AcDbLine
370
-1
  6
AUSGEZOGEN
 10
1700
 20
299.1
 30
0
 11
1694.2
 21
305
 31
0
  0
LINE
  5
CB
100
AcDbEntity
  8
200
100
AcDbLine
370
-1
  6
AUSGEZOGEN
 10
1694.2
 20
285
 30
0
 11
1700
 21
290.9
 31
0
  0
LINE
  5
CC
100
AcDbEntity
  8
200
100
AcDbLine
370
-1
  6
AUSGEZOGEN
 10
1640
 20
290.9
 30
0
 11
1645.9
 21
285
 31
0
  0
LINE
  5
CD
100
AcDbEntity
  8
200
100
AcDbLine
370
-1
  6
AUSGEZOGEN
 10
1645.9
 20
305
 30
0
 11
1640
 21
299.1
 31
0
  0
LINE
  5
CE
100
AcDbEntity
  8
200
100
AcDbLine
370
-1
  6
AUSGEZOGEN
 10
1660
 20
299.1
 30
0
 11
1654.1
 21
305
 31
0
  0
LINE
  5
CF
100
AcDbEntity
  8
200
100
AcDbLine
370
-1
  6
AUSGEZOGEN
 10
1654.1
 20
285
 30
0
 11
1660
 21
290.9
 31
0
  0
LINE
  5
D0
100
AcDbEntity
  8
200
100
AcDbLine
370
-1
  6
AUSGEZOGEN
 10
1600
 20
290.9
 30
0
 11
1605.8
 21
285
 31
0
  0
LINE
  5
D1
100
AcDbEntity
  8
200
100
AcDbLine
370
-1
  6
AUSGEZOGEN
 10
1605.8
 20
305
 30
0
 11
1600
 21
299.1
 31
0
  0
LINE
  5
D2
100
AcDbEntity
  8
200
100
AcDbLine
370
-1
  6
AUSGEZOGEN
 10
1620
 20
299.1
 30
0
 11
1614.1
 21
305
 31
0
  0
LINE
  5
D3
100
AcDbEntity
  8
200
100
AcDbLine
370
-1
  6
AUSGEZOGEN
 10
1614.1
 20
285
 30
0
 11
1620
 21
290.9
 31
0
  0
LINE
  5
D4
100
AcDbEntity
  8
200
100
AcDbLine
370
-1
  6
AUSGEZOGEN
 10
1560
 20
290.9
 30
0
 11
1565.9
 21
285
 31
0
  0
LINE
  5
D5
100
AcDbEntity
  8
200
100
AcDbLine
370
-1
  6
AUSGEZOGEN
 10
1565.9
 20
305
 30
0
 11
1560
 21
299.1
 31
0
  0
LINE
  5
D6
100
AcDbEntity
  8
200
100
AcDbLine
370
-1
  6
AUSGEZOGEN
 10
1580
 20
299.1
 30
0
 11
1574.2
 21
305
 31
0
  0
LINE
  5
D7
100
AcDbEntity
  8
200
100
AcDbLine
370
-1
  6
AUSGEZOGEN
 10
1574.2
 20
285
 30
0
 11
1580
 21
290.9
 31
0
  0
LINE
  5
D8
100
AcDbEntity
  8
200
100
AcDbLine
370
-1
  6
AUSGEZOGEN
 10
1520
 20
290.9
 30
0
 11
1525.8
 21
285
 31
0
  0
LINE
  5
D9
100
AcDbEntity
  8
200
100
AcDbLine
370
-1
  6
AUSGEZOGEN
 10
1525.8
 20
305
 30
0
 11
1520
 21
299.1
 31
0
  0
LINE
  5
DA
100
AcDbEntity
  8
200
100
AcDbLine
370
-1
  6
AUSGEZOGEN
 10
1540
 20
299.1
 30
0
 11
1534.1
 21
305
 31
0
  0
LINE
  5
DB
100
AcDbEntity
  8
200
100
AcDbLine
370
-1
  6
AUSGEZOGEN
 10
1534.1
 20
285
 30
0
 11
1540
 21
290.9
 31
0
  0
LINE
  5
DC
100
AcDbEntity
  8
200
100
AcDbLine
370
-1
  6
AUSGEZOGEN
 10
1480
 20
290.9
 30
0
 11
1485.9
 21
285
 31
0
  0
LINE
  5
DD
100
AcDbEntity
  8
200
100
AcDbLine
370
-1
  6
AUSGEZOGEN
 10
1485.9
 20
305
 30
0
 11
1480
 21
299.1
 31
0
  0
LINE
  5
DE
100
AcDbEntity
  8
200
100
AcDbLine
370
-1
  6
AUSGEZOGEN
 10
1500
 20
299.1
 30
0
 11
1494.2
 21
305
 31
0
  0
LINE
  5
DF
100
AcDbEntity
  8
200
100
AcDbLine
370
-1
  6
AUSGEZOGEN
 10
1494.2
 20
285
 30
0
 11
1500
 21
290.9
 31
0
  0
LINE
  5
E0
100
AcDbEntity
  8
200
100
AcDbLine
370
-1
  6
AUSGEZOGEN
 10
1440
 20
290.9
 30
0
 11
1445.9
 21
285
 31
0
  0
LINE
  5
E1
100
AcDbEntity
  8
200
100
AcDbLine
370
-1
  6
AUSGEZOGEN
 10
1445.9
 20
305
 30
0
 11
1440
 21
299.1
 31
0
  0
LINE
  5
E2
100
AcDbEntity
  8
200
100
AcDbLine
370
-1
  6
AUSGEZOGEN
 10
1460
 20
299.1
 30
0
 11
1454.1
 21
305
 31
0
  0
LINE
  5
E3
100
AcDbEntity
  8
200
100
AcDbLine
370
-1
  6
AUSGEZOGEN
 10
1454.1
 20
285
 30
0
 11
1460
 21
290.9
 31
0
  0
LINE
  5
E4
100
AcDbEntity
  8
200
100
AcDbLine
370
-1
  6
AUSGEZOGEN
 10
1400
 20
290.9
 30
0
 11
1405.8
 21
285
 31
0
  0
LINE
  5
E5
100
AcDbEntity
  8
200
100
AcDbLine
370
-1
  6
AUSGEZOGEN
 10
1405.8
 20
305
 30
0
 11
1400
 21
299.1
 31
0
  0
LINE
  5
E6
100
AcDbEntity
  8
200
100
AcDbLine
370
-1
  6
AUSGEZOGEN
 10
1420
 20
299.1
 30
0
 11
1414.1
 21
305
 31
0
  0
LINE
  5
E7
100
AcDbEntity
  8
200
100
AcDbLine
370
-1
  6
AUSGEZOGEN
 10
1414.1
 20
285
 30
0
 11
1420
 21
290.9
 31
0
  0
LINE
  5
E8
100
AcDbEntity
  8
200
100
AcDbLine
370
-1
  6
AUSGEZOGEN
 10
1360
 20
290.9
 30
0
 11
1365.9
 21
285
 31
0
  0
LINE
  5
E9
100
AcDbEntity
  8
200
100
AcDbLine
370
-1
  6
AUSGEZOGEN
 10
1365.9
 20
305
 30
0
 11
1360
 21
299.1
 31
0
  0
LINE
  5
EA
100
AcDbEntity
  8
200
100
AcDbLine
370
-1
  6
AUSGEZOGEN
 10
1380
 20
299.1
 30
0
 11
1374.2
 21
305
 31
0
  0
LINE
  5
EB
100
AcDbEntity
  8
200
100
AcDbLine
370
-1
  6
AUSGEZOGEN
 10
1374.2
 20
285
 30
0
 11
1380
 21
290.9
 31
0
  0
LINE
  5
EC
100
AcDbEntity
  8
200
100
AcDbLine
370
-1
  6
AUSGEZOGEN
 10
1320
 20
290.9
 30
0
 11
1325.8
 21
285
 31
0
  0
LINE
  5
ED
100
AcDbEntity
  8
200
100
AcDbLine
370
-1
  6
AUSGEZOGEN
 10
1325.8
 20
305
 30
0
 11
1320
 21
299.1
 31
0
  0
LINE
  5
EE
100
AcDbEntity
  8
200
100
AcDbLine
370
-1
  6
AUSGEZOGEN
 10
1340
 20
299.1
 30
0
 11
1334.1
 21
305
 31
0
  0
LINE
  5
EF
100
AcDbEntity
  8
200
100
AcDbLine
370
-1
  6
AUSGEZOGEN
 10
1334.1
 20
285
 30
0
 11
1340
 21
290.9
 31
0
  0
LINE
  5
F0
100
AcDbEntity
  8
200
100
AcDbLine
370
-1
  6
AUSGEZOGEN
 10
1280
 20
290.9
 30
0
 11
1285.8
 21
285
 31
0
  0
LINE
  5
F1
100
AcDbEntity
  8
200
100
AcDbLine
370
-1
  6
AUSGEZOGEN
 10
1285.8
 20
305
 30
0
 11
1280
 21
299.1
 31
0
  0
LINE
  5
F2
100
AcDbEntity
  8
200
100
AcDbLine
370
-1
  6
AUSGEZOGEN
 10
1300
 20
299.1
 30
0
 11
1294.2
 21
305
 31
0
  0
LINE
  5
F3
100
AcDbEntity
  8
200
100
AcDbLine
370
-1
  6
AUSGEZOGEN
 10
1294.2
 20
285
 30
0
 11
1300
 21
290.9
 31
0
  0
LINE
  5
F4
100
AcDbEntity
  8
200
100
AcDbLine
370
-1
  6
AUSGEZOGEN
 10
2205.9
 20
245
 30
0
 11
2200
 21
250.8
 31
0
  0
LINE
  5
F5
100
AcDbEntity
  8
200
100
AcDbLine
370
-1
  6
AUSGEZOGEN
 10
2200
 20
259.1
 30
0
 11
2205.9
 21
265
 31
0
  0
LINE
  5
F6
100
AcDbEntity
  8
200
100
AcDbLine
370
-1
  6
AUSGEZOGEN
 10
2214.2
 20
265
 30
0
 11
2220
 21
259.1
 31
0
  0
LINE
  5
F7
100
AcDbEntity
  8
200
100
AcDbLine
370
-1
  6
AUSGEZOGEN
 10
2220
 20
250.8
 30
0
 11
2214.2
 21
245
 31
0
  0
LINE
  5
F8
100
AcDbEntity
  8
200
100
AcDbLine
370
-1
  6
AUSGEZOGEN
 10
2160
 20
250.8
 30
0
 11
2165.9
 21
245
 31
0
  0
LINE
  5
F9
100
AcDbEntity
  8
200
100
AcDbLine
370
-1
  6
AUSGEZOGEN
 10
2165.9
 20
265
 30
0
 11
2160
 21
259.1
 31
0
  0
LINE
  5
FA
100
AcDbEntity
  8
200
100
AcDbLine
370
-1
  6
AUSGEZOGEN
 10
2180
 20
259.1
 30
0
 11
2174.1
 21
265
 31
0
  0
LINE
  5
FB
100
AcDbEntity
  8
200
100
AcDbLine
370
-1
  6
AUSGEZOGEN
 10
2174.1
 20
245
 30
0
 11
2180
 21
250.8
 31
0
  0
LINE
  5
FC
100
AcDbEntity
  8
200
100
AcDbLine
370
-1
  6
AUSGEZOGEN
 10
2120
 20
250.8
 30
0
 11
2125.8
 21
245
 31
0
  0
LINE
  5
FD
100
AcDbEntity
  8
200
100
AcDbLine
370
-1
  6
AUSGEZOGEN
 10
2125.8
 20
265
 30
0
 11
2120
 21
259.1
 31
0
  0
LINE
  5
FE
100
AcDbEntity
  8
200
100
AcDbLine
370
-1
  6
AUSGEZOGEN
 10
2140
 20
259.1
 30
0
 11
2134.1
 21
265
 31
0
  0
LINE
  5
FF
100
AcDbEntity
  8
200
100
AcDbLine
370
-1
  6
AUSGEZOGEN
 10
2134.1
 20
245
 30
0
 11
2140
 21
250.8
 31
0
  0
LINE
  5
100
100
AcDbEntity
  8
200
100
AcDbLine
370
-1
  6
AUSGEZOGEN
 10
2080
 20
250.8
 30
0
 11
2085.9
 21
245
 31
0
  0
LINE
  5
101
100
AcDbEntity
  8
200
100
AcDbLine
370
-1
  6
AUSGEZOGEN
 10
2085.9
 20
265
 30
0
 11
2080
 21
259.1
 31
0
  0
LINE
  5
102
100
AcDbEntity
  8
200
100
AcDbLine
370
-1
  6
AUSGEZOGEN
 10
2100
 20
259.1
 30
0
 11
2094.2
 21
265
 31
0
  0
LINE
  5
103
100
AcDbEntity
  8
200
100
AcDbLine
370
-1
  6
AUSGEZOGEN
 10
2094.2
 20
245
 30
0
 11
2100
 21
250.8
 31
0
  0
LINE
  5
104
100
AcDbEntity
  8
200
100
AcDbLine
370
-1
  6
AUSGEZOGEN
 10
2040
 20
250.8
 30
0
 11
2045.8
 21
245
 31
0
  0
LINE
  5
105
100
AcDbEntity
  8
200
100
AcDbLine
370
-1
  6
AUSGEZOGEN
 10
2045.8
 20
265
 30
0
 11
2040
 21
259.1
 31
0
  0
LINE
  5
106
100
AcDbEntity
  8
200
100
AcDbLine
370
-1
  6
AUSGEZOGEN
 10
2060
 20
259.1
 30
0
 11
2054.1
 21
265
 31
0
  0
LINE
  5
107
100
AcDbEntity
  8
200
100
AcDbLine
370
-1
  6
AUSGEZOGEN
 10
2054.1
 20
245
 30
0
 11
2060
 21
250.8
 31
0
  0
LINE
  5
108
100
AcDbEntity
  8
200
100
AcDbLine
370
-1
  6
AUSGEZOGEN
 10
2000
 20
250.8
 30
0
 11
2005.9
 21
245
 31
0
  0
LINE
  5
109
100
AcDbEntity
  8
200
100
AcDbLine
370
-1
  6
AUSGEZOGEN
 10
2005.9
 20
265
 30
0
 11
2000
 21
259.1
 31
0
  0
LINE
  5
10A
100
AcDbEntity
  8
200
100
AcDbLine
370
-1
  6
AUSGEZOGEN
 10
2020
 20
259.1
 30
0
 11
2014.2
 21
265
 31
0
  0
LINE
  5
10B
100
AcDbEntity
  8
200
100
AcDbLine
370
-1
  6
AUSGEZOGEN
 10
2014.2
 20
245
 30
0
 11
2020
 21
250.8
 31
0
  0
LINE
  5
10C
100
AcDbEntity
  8
200
100
AcDbLine
370
-1
  6
AUSGEZOGEN
 10
1960
 20
250.8
 30
0
 11
1965.9
 21
245
 31
0
  0
LINE
  5
10D
100
AcDbEntity
  8
200
100
AcDbLine
370
-1
  6
AUSGEZOGEN
 10
1965.9
 20
265
 30
0
 11
1960
 21
259.1
 31
0
  0
LINE
  5
10E
100
AcDbEntity
  8
200
100
AcDbLine
370
-1
  6
AUSGEZOGEN
 10
1980
 20
259.1
 30
0
 11
1974.1
 21
265
 31
0
  0
LINE
  5
10F
100
AcDbEntity
  8
200
100
AcDbLine
370
-1
  6
AUSGEZOGEN
 10
1974.1
 20
245
 30
0
 11
1980
 21
250.8
 31
0
  0
LINE
  5
110
100
AcDbEntity
  8
200
100
AcDbLine
370
-1
  6
AUSGEZOGEN
 10
1920
 20
250.8
 30
0
 11
1925.8
 21
245
 31
0
  0
LINE
  5
111
100
AcDbEntity
  8
200
100
AcDbLine
370
-1
  6
AUSGEZOGEN
 10
1925.8
 20
265
 30
0
 11
1920
 21
259.1
 31
0
  0
LINE
  5
112
100
AcDbEntity
  8
200
100
AcDbLine
370
-1
  6
AUSGEZOGEN
 10
1940
 20
259.1
 30
0
 11
1934.1
 21
265
 31
0
  0
LINE
  5
113
100
AcDbEntity
  8
200
100
AcDbLine
370
-1
  6
AUSGEZOGEN
 10
1934.1
 20
245
 30
0
 11
1940
 21
250.8
 31
0
  0
LINE
  5
114
100
AcDbEntity
  8
200
100
AcDbLine
370
-1
  6
AUSGEZOGEN
 10
1880
 20
250.8
 30
0
 11
1885.9
 21
245
 31
0
  0
LINE
  5
115
100
AcDbEntity
  8
200
100
AcDbLine
370
-1
  6
AUSGEZOGEN
 10
1885.9
 20
265
 30
0
 11
1880
 21
259.1
 31
0
  0
LINE
  5
116
100
AcDbEntity
  8
200
100
AcDbLine
370
-1
  6
AUSGEZOGEN
 10
1900
 20
259.1
 30
0
 11
1894.2
 21
265
 31
0
  0
LINE
  5
117
100
AcDbEntity
  8
200
100
AcDbLine
370
-1
  6
AUSGEZOGEN
 10
1894.2
 20
245
 30
0
 11
1900
 21
250.8
 31
0
  0
LINE
  5
118
100
AcDbEntity
  8
200
100
AcDbLine
370
-1
  6
AUSGEZOGEN
 10
1840
 20
250.8
 30
0
 11
1845.9
 21
245
 31
0
  0
LINE
  5
119
100
AcDbEntity
  8
200
100
AcDbLine
370
-1
  6
AUSGEZOGEN
 10
1845.9
 20
265
 30
0
 11
1840
 21
259.1
 31
0
  0
LINE
  5
11A
100
AcDbEntity
  8
200
100
AcDbLine
370
-1
  6
AUSGEZOGEN
 10
1860
 20
259.1
 30
0
 11
1854.1
 21
265
 31
0
  0
LINE
  5
11B
100
AcDbEntity
  8
200
100
AcDbLine
370
-1
  6
AUSGEZOGEN
 10
1854.1
 20
245
 30
0
 11
1860
 21
250.8
 31
0
  0
LINE
  5
11C
100
AcDbEntity
  8
200
100
AcDbLine
370
-1
  6
AUSGEZOGEN
 10
1800
 20
250.8
 30
0
 11
1805.8
 21
245
 31
0
  0
LINE
  5
11D
100
AcDbEntity
  8
200
100
AcDbLine
370
-1
  6
AUSGEZOGEN
 10
1805.8
 20
265
 30
0
 11
1800
 21
259.1
 31
0
  0
LINE
  5
11E
100
AcDbEntity
  8
200
100
AcDbLine
370
-1
  6
AUSGEZOGEN
 10
1820
 20
259.1
 30
0
 11
1814.2
 21
265
 31
0
  0
LINE
  5
11F
100
AcDbEntity
  8
200
100
AcDbLine
370
-1
  6
AUSGEZOGEN
 10
1814.2
 20
245
 30
0
 11
1820
 21
250.8
 31
0
  0
LINE
  5
120
100
AcDbEntity
  8
200
100
AcDbLine
370
-1
  6
AUSGEZOGEN
 10
1760
 20
250.8
 30
0
 11
1765.9
 21
245
 31
0
  0
LINE
  5
121
100
AcDbEntity
  8
200
100
AcDbLine
370
-1
  6
AUSGEZOGEN
 10
1765.9
 20
265
 30
0
 11
1760
 21
259.1
 31
0
  0
LINE
  5
122
100
AcDbEntity
  8
200
100
AcDbLine
370
-1
  6
AUSGEZOGEN
 10
1780
 20
259.1
 30
0
 11
1774.2
 21
265
 31
0
  0
LINE
  5
123
100
AcDbEntity
  8
200
100
AcDbLine
370
-1
  6
AUSGEZOGEN
 10
1774.2
 20
245
 30
0
 11
1780
 21
250.8
 31
0
  0
LINE
  5
124
100
AcDbEntity
  8
200
100
AcDbLine
370
-1
  6
AUSGEZOGEN
 10
1720
 20
250.8
 30
0
 11
1725.8
 21
245
 31
0
  0
LINE
  5
125
100
AcDbEntity
  8
200
100
AcDbLine
370
-1
  6
AUSGEZOGEN
 10
1725.8
 20
265
 30
0
 11
1720
 21
259.1
 31
0
  0
LINE
  5
126
100
AcDbEntity
  8
200
100
AcDbLine
370
-1
  6
AUSGEZOGEN
 10
1740
 20
259.1
 30
0
 11
1734.1
 21
265
 31
0
  0
LINE
  5
127
100
AcDbEntity
  8
200
100
AcDbLine
370
-1
  6
AUSGEZOGEN
 10
1734.1
 20
245
 30
0
 11
1740
 21
250.8
 31
0
  0
LINE
  5
128
100
AcDbEntity
  8
200
100
AcDbLine
370
-1
  6
AUSGEZOGEN
 10
1680
 20
250.8
 30
0
 11
1685.9
 21
245
 31
0
  0
LINE
  5
129
100
AcDbEntity
  8
200
100
AcDbLine
370
-1
  6
AUSGEZOGEN
 10
1685.9
 20
265
 30
0
 11
1680
 21
259.1
 31
0
  0
LINE
  5
12A
100
AcDbEntity
  8
200
100
AcDbLine
370
-1
  6
AUSGEZOGEN
 10
1700
 20
259.1
 30
0
 11
1694.2
 21
265
 31
0
  0
LINE
  5
12B
100
AcDbEntity
  8
200
100
AcDbLine
370
-1
  6
AUSGEZOGEN
 10
1694.2
 20
245
 30
0
 11
1700
 21
250.8
 31
0
  0
LINE
  5
12C
100
AcDbEntity
  8
200
100
AcDbLine
370
-1
  6
AUSGEZOGEN
 10
1640
 20
250.8
 30
0
 11
1645.9
 21
245
 31
0
  0
LINE
  5
12D
100
AcDbEntity
  8
200
100
AcDbLine
370
-1
  6
AUSGEZOGEN
 10
1645.9
 20
265
 30
0
 11
1640
 21
259.1
 31
0
  0
LINE
  5
12E
100
AcDbEntity
  8
200
100
AcDbLine
370
-1
  6
AUSGEZOGEN
 10
1660
 20
259.1
 30
0
 11
1654.1
 21
265
 31
0
  0
LINE
  5
12F
100
AcDbEntity
  8
200
100
AcDbLine
370
-1
  6
AUSGEZOGEN
 10
1654.1
 20
245
 30
0
 11
1660
 21
250.8
 31
0
  0
LINE
  5
130
100
AcDbEntity
  8
200
100
AcDbLine
370
-1
  6
AUSGEZOGEN
 10
1600
 20
250.8
 30
0
 11
1605.8
 21
245
 31
0
  0
LINE
  5
131
100
AcDbEntity
  8
200
100
AcDbLine
370
-1
  6
AUSGEZOGEN
 10
1605.8
 20
265
 30
0
 11
1600
 21
259.1
 31
0
  0
LINE
  5
132
100
AcDbEntity
  8
200
100
AcDbLine
370
-1
  6
AUSGEZOGEN
 10
1620
 20
259.1
 30
0
 11
1614.1
 21
265
 31
0
  0
LINE
  5
133
100
AcDbEntity
  8
200
100
AcDbLine
370
-1
  6
AUSGEZOGEN
 10
1614.1
 20
245
 30
0
 11
1620
 21
250.8
 31
0
  0
LINE
  5
134
100
AcDbEntity
  8
200
100
AcDbLine
370
-1
  6
AUSGEZOGEN
 10
1560
 20
250.8
 30
0
 11
1565.9
 21
245
 31
0
  0
LINE
  5
135
100
AcDbEntity
  8
200
100
AcDbLine
370
-1
  6
AUSGEZOGEN
 10
1565.9
 20
265
 30
0
 11
1560
 21
259.1
 31
0
  0
LINE
  5
136
100
AcDbEntity
  8
200
100
AcDbLine
370
-1
  6
AUSGEZOGEN
 10
1580
 20
259.1
 30
0
 11
1574.2
 21
265
 31
0
  0
LINE
  5
137
100
AcDbEntity
  8
200
100
AcDbLine
370
-1
  6
AUSGEZOGEN
 10
1574.2
 20
245
 30
0
 11
1580
 21
250.8
 31
0
  0
LINE
  5
138
100
AcDbEntity
  8
200
100
AcDbLine
370
-1
  6
AUSGEZOGEN
 10
1520
 20
250.8
 30
0
 11
1525.8
 21
245
 31
0
  0
LINE
  5
139
100
AcDbEntity
  8
200
100
AcDbLine
370
-1
  6
AUSGEZOGEN
 10
1525.8
 20
265
 30
0
 11
1520
 21
259.1
 31
0
  0
LINE
  5
13A
100
AcDbEntity
  8
200
100
AcDbLine
370
-1
  6
AUSGEZOGEN
 10
1540
 20
259.1
 30
0
 11
1534.1
 21
265
 31
0
  0
LINE
  5
13B
100
AcDbEntity
  8
200
100
AcDbLine
370
-1
  6
AUSGEZOGEN
 10
1534.1
 20
245
 30
0
 11
1540
 21
250.8
 31
0
  0
LINE
  5
13C
100
AcDbEntity
  8
200
100
AcDbLine
370
-1
  6
AUSGEZOGEN
 10
1480
 20
250.8
 30
0
 11
1485.9
 21
245
 31
0
  0
LINE
  5
13D
100
AcDbEntity
  8
200
100
AcDbLine
370
-1
  6
AUSGEZOGEN
 10
1485.9
 20
265
 30
0
 11
1480
 21
259.1
 31
0
  0
LINE
  5
13E
100
AcDbEntity
  8
200
100
AcDbLine
370
-1
  6
AUSGEZOGEN
 10
1500
 20
259.1
 30
0
 11
1494.2
 21
265
 31
0
  0
LINE
  5
13F
100
AcDbEntity
  8
200
100
AcDbLine
370
-1
  6
AUSGEZOGEN
 10
1494.2
 20
245
 30
0
 11
1500
 21
250.8
 31
0
  0
LINE
  5
140
100
AcDbEntity
  8
200
100
AcDbLine
370
-1
  6
AUSGEZOGEN
 10
1440
 20
250.8
 30
0
 11
1445.9
 21
245
 31
0
  0
LINE
  5
141
100
AcDbEntity
  8
200
100
AcDbLine
370
-1
  6
AUSGEZOGEN
 10
1445.9
 20
265
 30
0
 11
1440
 21
259.1
 31
0
  0
LINE
  5
142
100
AcDbEntity
  8
200
100
AcDbLine
370
-1
  6
AUSGEZOGEN
 10
1460
 20
259.1
 30
0
 11
1454.1
 21
265
 31
0
  0
LINE
  5
143
100
AcDbEntity
  8
200
100
AcDbLine
370
-1
  6
AUSGEZOGEN
 10
1454.1
 20
245
 30
0
 11
1460
 21
250.8
 31
0
  0
LINE
  5
144
100
AcDbEntity
  8
200
100
AcDbLine
370
-1
  6
AUSGEZOGEN
 10
1400
 20
250.8
 30
0
 11
1405.8
 21
245
 31
0
  0
LINE
  5
145
100
AcDbEntity
  8
200
100
AcDbLine
370
-1
  6
AUSGEZOGEN
 10
1405.8
 20
265
 30
0
 11
1400
 21
259.1
 31
0
  0
LINE
  5
146
100
AcDbEntity
  8
200
100
AcDbLine
370
-1
  6
AUSGEZOGEN
 10
1420
 20
259.1
 30
0
 11
1414.1
 21
265
 31
0
  0
LINE
  5
147
100
AcDbEntity
  8
200
100
AcDbLine
370
-1
  6
AUSGEZOGEN
 10
1414.1
 20
245
 30
0
 11
1420
 21
250.8
 31
0
  0
LINE
  5
148
100
AcDbEntity
  8
200
100
AcDbLine
370
-1
  6
AUSGEZOGEN
 10
1360
 20
250.8
 30
0
 11
1365.9
 21
245
 31
0
  0
LINE
  5
149
100
AcDbEntity
  8
200
100
AcDbLine
370
-1
  6
AUSGEZOGEN
 10
1365.9
 20
265
 30
0
 11
1360
 21
259.1
 31
0
  0
LINE
  5
14A
100
AcDbEntity
  8
200
100
AcDbLine
370
-1
  6
AUSGEZOGEN
 10
1380
 20
259.1
 30
0
 11
1374.2
 21
265
 31
0
  0
LINE
  5
14B
100
AcDbEntity
  8
200
100
AcDbLine
370
-1
  6
AUSGEZOGEN
 10
1374.2
 20
245
 30
0
 11
1380
 21
250.8
 31
0
  0
LINE
  5
14C
100
AcDbEntity
  8
200
100
AcDbLine
370
-1
  6
AUSGEZOGEN
 10
1320
 20
250.8
 30
0
 11
1325.8
 21
245
 31
0
  0
LINE
  5
14D
100
AcDbEntity
  8
200
100
AcDbLine
370
-1
  6
AUSGEZOGEN
 10
1325.8
 20
265
 30
0
 11
1320
 21
259.1
 31
0
  0
LINE
  5
14E
100
AcDbEntity
  8
200
100
AcDbLine
370
-1
  6
AUSGEZOGEN
 10
1340
 20
259.1
 30
0
 11
1334.1
 21
265
 31
0
  0
LINE
  5
14F
100
AcDbEntity
  8
200
100
AcDbLine
370
-1
  6
AUSGEZOGEN
 10
1334.1
 20
245
 30
0
 11
1340
 21
250.8
 31
0
  0
LINE
  5
150
100
AcDbEntity
  8
200
100
AcDbLine
370
-1
  6
AUSGEZOGEN
 10
1280
 20
250.8
 30
0
 11
1285.8
 21
245
 31
0
  0
LINE
  5
151
100
AcDbEntity
  8
200
100
AcDbLine
370
-1
  6
AUSGEZOGEN
 10
1285.8
 20
265
 30
0
 11
1280
 21
259.1
 31
0
  0
LINE
  5
152
100
AcDbEntity
  8
200
100
AcDbLine
370
-1
  6
AUSGEZOGEN
 10
1300
 20
259.1
 30
0
 11
1294.2
 21
265
 31
0
  0
LINE
  5
153
100
AcDbEntity
  8
200
100
AcDbLine
370
-1
  6
AUSGEZOGEN
 10
1294.2
 20
245
 30
0
 11
1300
 21
250.8
 31
0
  0
LINE
  5
154
100
AcDbEntity
  8
200
100
AcDbLine
370
-1
  6
AUSGEZOGEN
 10
2205.9
 20
205
 30
0
 11
2200
 21
210.9
 31
0
  0
LINE
  5
155
100
AcDbEntity
  8
200
100
AcDbLine
370
-1
  6
AUSGEZOGEN
 10
2200
 20
219.2
 30
0
 11
2205.9
 21
225
 31
0
  0
LINE
  5
156
100
AcDbEntity
  8
200
100
AcDbLine
370
-1
  6
AUSGEZOGEN
 10
2214.2
 20
225
 30
0
 11
2220
 21
219.2
 31
0
  0
LINE
  5
157
100
AcDbEntity
  8
200
100
AcDbLine
370
-1
  6
AUSGEZOGEN
 10
2214.2
 20
205
 30
0
 11
2220
 21
210.9
 31
0
  0
LINE
  5
158
100
AcDbEntity
  8
200
100
AcDbLine
370
-1
  6
AUSGEZOGEN
 10
2160
 20
210.9
 30
0
 11
2165.9
 21
205
 31
0
  0
LINE
  5
159
100
AcDbEntity
  8
200
100
AcDbLine
370
-1
  6
AUSGEZOGEN
 10
2165.9
 20
225
 30
0
 11
2160
 21
219.2
 31
0
  0
LINE
  5
15A
100
AcDbEntity
  8
200
100
AcDbLine
370
-1
  6
AUSGEZOGEN
 10
2180
 20
219.2
 30
0
 11
2174.1
 21
225
 31
0
  0
LINE
  5
15B
100
AcDbEntity
  8
200
100
AcDbLine
370
-1
  6
AUSGEZOGEN
 10
2174.1
 20
205
 30
0
 11
2180
 21
210.9
 31
0
  0
LINE
  5
15C
100
AcDbEntity
  8
200
100
AcDbLine
370
-1
  6
AUSGEZOGEN
 10
2120
 20
210.9
 30
0
 11
2125.8
 21
205
 31
0
  0
LINE
  5
15D
100
AcDbEntity
  8
200
100
AcDbLine
370
-1
  6
AUSGEZOGEN
 10
2125.8
 20
225
 30
0
 11
2120
 21
219.2
 31
0
  0
LINE
  5
15E
100
AcDbEntity
  8
200
100
AcDbLine
370
-1
  6
AUSGEZOGEN
 10
2140
 20
219.2
 30
0
 11
2134.1
 21
225
 31
0
  0
LINE
  5
15F
100
AcDbEntity
  8
200
100
AcDbLine
370
-1
  6
AUSGEZOGEN
 10
2134.1
 20
205
 30
0
 11
2140
 21
210.9
 31
0
  0
LINE
  5
160
100
AcDbEntity
  8
200
100
AcDbLine
370
-1
  6
AUSGEZOGEN
 10
2080
 20
210.9
 30
0
 11
2085.9
 21
205
 31
0
  0
LINE
  5
161
100
AcDbEntity
  8
200
100
AcDbLine
370
-1
  6
AUSGEZOGEN
 10
2085.9
 20
225
 30
0
 11
2080
 21
219.2
 31
0
  0
LINE
  5
162
100
AcDbEntity
  8
200
100
AcDbLine
370
-1
  6
AUSGEZOGEN
 10
2100
 20
219.2
 30
0
 11
2094.2
 21
225
 31
0
  0
LINE
  5
163
100
AcDbEntity
  8
200
100
AcDbLine
370
-1
  6
AUSGEZOGEN
 10
2094.2
 20
205
 30
0
 11
2100
 21
210.9
 31
0
  0
LINE
  5
164
100
AcDbEntity
  8
200
100
AcDbLine
370
-1
  6
AUSGEZOGEN
 10
2040
 20
210.9
 30
0
 11
2045.8
 21
205
 31
0
  0
LINE
  5
165
100
AcDbEntity
  8
200
100
AcDbLine
370
-1
  6
AUSGEZOGEN
 10
2045.8
 20
225
 30
0
 11
2040
 21
219.2
 31
0
  0
LINE
  5
166
100
AcDbEntity
  8
200
100
AcDbLine
370
-1
  6
AUSGEZOGEN
 10
2060
 20
219.2
 30
0
 11
2054.1
 21
225
 31
0
  0
LINE
  5
167
100
AcDbEntity
  8
200
100
AcDbLine
370
-1
  6
AUSGEZOGEN
 10
2054.1
 20
205
 30
0
 11
2060
 21
210.9
 31
0
  0
LINE
  5
168
100
AcDbEntity
  8
200
100
AcDbLine
370
-1
  6
AUSGEZOGEN
 10
2000
 20
210.9
 30
0
 11
2005.9
 21
205
 31
0
  0
LINE
  5
169
100
AcDbEntity
  8
200
100
AcDbLine
370
-1
  6
AUSGEZOGEN
 10
2005.9
 20
225
 30
0
 11
2000
 21
219.2
 31
0
  0
LINE
  5
16A
100
AcDbEntity
  8
200
100
AcDbLine
370
-1
  6
AUSGEZOGEN
 10
2020
 20
219.2
 30
0
 11
2014.2
 21
225
 31
0
  0
LINE
  5
16B
100
AcDbEntity
  8
200
100
AcDbLine
370
-1
  6
AUSGEZOGEN
 10
2014.2
 20
205
 30
0
 11
2020
 21
210.9
 31
0
  0
LINE
  5
16C
100
AcDbEntity
  8
200
100
AcDbLine
370
-1
  6
AUSGEZOGEN
 10
1960
 20
210.9
 30
0
 11
1965.9
 21
205
 31
0
  0
LINE
  5
16D
100
AcDbEntity
  8
200
100
AcDbLine
370
-1
  6
AUSGEZOGEN
 10
1965.9
 20
225
 30
0
 11
1960
 21
219.2
 31
0
  0
LINE
  5
16E
100
AcDbEntity
  8
200
100
AcDbLine
370
-1
  6
AUSGEZOGEN
 10
1980
 20
219.2
 30
0
 11
1974.1
 21
225
 31
0
  0
LINE
  5
16F
100
AcDbEntity
  8
200
100
AcDbLine
370
-1
  6
AUSGEZOGEN
 10
1974.1
 20
205
 30
0
 11
1980
 21
210.9
 31
0
  0
LINE
  5
170
100
AcDbEntity
  8
200
100
AcDbLine
370
-1
  6
AUSGEZOGEN
 10
1920
 20
210.9
 30
0
 11
1925.8
 21
205
 31
0
  0
LINE
  5
171
100
AcDbEntity
  8
200
100
AcDbLine
370
-1
  6
AUSGEZOGEN
 10
1925.8
 20
225
 30
0
 11
1920
 21
219.2
 31
0
  0
LINE
  5
172
100
AcDbEntity
  8
200
100
AcDbLine
370
-1
  6
AUSGEZOGEN
 10
1940
 20
219.2
 30
0
 11
1934.1
 21
225
 31
0
  0
LINE
  5
173
100
AcDbEntity
  8
200
100
AcDbLine
370
-1
  6
AUSGEZOGEN
 10
1934.1
 20
205
 30
0
 11
1940
 21
210.9
 31
0
  0
LINE
  5
174
100
AcDbEntity
  8
200
100
AcDbLine
370
-1
  6
AUSGEZOGEN
 10
1880
 20
210.9
 30
0
 11
1885.9
 21
205
 31
0
  0
LINE
  5
175
100
AcDbEntity
  8
200
100
AcDbLine
370
-1
  6
AUSGEZOGEN
 10
1885.9
 20
225
 30
0
 11
1880
 21
219.2
 31
0
  0
LINE
  5
176
100
AcDbEntity
  8
200
100
AcDbLine
370
-1
  6
AUSGEZOGEN
 10
1900
 20
219.2
 30
0
 11
1894.2
 21
225
 31
0
  0
LINE
  5
177
100
AcDbEntity
  8
200
100
AcDbLine
370
-1
  6
AUSGEZOGEN
 10
1894.2
 20
205
 30
0
 11
1900
 21
210.9
 31
0
  0
LINE
  5
178
100
AcDbEntity
  8
200
100
AcDbLine
370
-1
  6
AUSGEZOGEN
 10
1840
 20
210.9
 30
0
 11
1845.9
 21
205
 31
0
  0
LINE
  5
179
100
AcDbEntity
  8
200
100
AcDbLine
370
-1
  6
AUSGEZOGEN
 10
1845.9
 20
225
 30
0
 11
1840
 21
219.2
 31
0
  0
LINE
  5
17A
100
AcDbEntity
  8
200
100
AcDbLine
370
-1
  6
AUSGEZOGEN
 10
1860
 20
219.2
 30
0
 11
1854.1
 21
225
 31
0
  0
LINE
  5
17B
100
AcDbEntity
  8
200
100
AcDbLine
370
-1
  6
AUSGEZOGEN
 10
1854.1
 20
205
 30
0
 11
1860
 21
210.9
 31
0
  0
LINE
  5
17C
100
AcDbEntity
  8
200
100
AcDbLine
370
-1
  6
AUSGEZOGEN
 10
1800
 20
210.9
 30
0
 11
1805.8
 21
205
 31
0
  0
LINE
  5
17D
100
AcDbEntity
  8
200
100
AcDbLine
370
-1
  6
AUSGEZOGEN
 10
1805.8
 20
225
 30
0
 11
1800
 21
219.2
 31
0
  0
LINE
  5
17E
100
AcDbEntity
  8
200
100
AcDbLine
370
-1
  6
AUSGEZOGEN
 10
1820
 20
219.2
 30
0
 11
1814.2
 21
225
 31
0
  0
LINE
  5
17F
100
AcDbEntity
  8
200
100
AcDbLine
370
-1
  6
AUSGEZOGEN
 10
1814.2
 20
205
 30
0
 11
1820
 21
210.9
 31
0
  0
LINE
  5
180
100
AcDbEntity
  8
200
100
AcDbLine
370
-1
  6
AUSGEZOGEN
 10
1760
 20
210.9
 30
0
 11
1765.9
 21
205
 31
0
  0
LINE
  5
181
100
AcDbEntity
  8
200
100
AcDbLine
370
-1
  6
AUSGEZOGEN
 10
1765.9
 20
225
 30
0
 11
1760
 21
219.2
 31
0
  0
LINE
  5
182
100
AcDbEntity
  8
200
100
AcDbLine
370
-1
  6
AUSGEZOGEN
 10
1780
 20
219.2
 30
0
 11
1774.2
 21
225
 31
0
  0
LINE
  5
183
100
AcDbEntity
  8
200
100
AcDbLine
370
-1
  6
AUSGEZOGEN
 10
1774.2
 20
205
 30
0
 11
1780
 21
210.9
 31
0
  0
LINE
  5
184
100
AcDbEntity
  8
200
100
AcDbLine
370
-1
  6
AUSGEZOGEN
 10
1720
 20
210.9
 30
0
 11
1725.8
 21
205
 31
0
  0
LINE
  5
185
100
AcDbEntity
  8
200
100
AcDbLine
370
-1
  6
AUSGEZOGEN
 10
1725.8
 20
225
 30
0
 11
1720
 21
219.2
 31
0
  0
LINE
  5
186
100
AcDbEntity
  8
200
100
AcDbLine
370
-1
  6
AUSGEZOGEN
 10
1740
 20
219.2
 30
0
 11
1734.1
 21
225
 31
0
  0
LINE
  5
187
100
AcDbEntity
  8
200
100
AcDbLine
370
-1
  6
AUSGEZOGEN
 10
1734.1
 20
205
 30
0
 11
1740
 21
210.9
 31
0
  0
LINE
  5
188
100
AcDbEntity
  8
200
100
AcDbLine
370
-1
  6
AUSGEZOGEN
 10
1680
 20
210.9
 30
0
 11
1685.9
 21
205
 31
0
  0
LINE
  5
189
100
AcDbEntity
  8
200
100
AcDbLine
370
-1
  6
AUSGEZOGEN
 10
1685.9
 20
225
 30
0
 11
1680
 21
219.2
 31
0
  0
LINE
  5
18A
100
AcDbEntity
  8
200
100
AcDbLine
370
-1
  6
AUSGEZOGEN
 10
1700
 20
219.2
 30
0
 11
1694.2
 21
225
 31
0
  0
LINE
  5
18B
100
AcDbEntity
  8
200
100
AcDbLine
370
-1
  6
AUSGEZOGEN
 10
1694.2
 20
205
 30
0
 11
1700
 21
210.9
 31
0
  0
LINE
  5
18C
100
AcDbEntity
  8
200
100
AcDbLine
370
-1
  6
AUSGEZOGEN
 10
1640
 20
210.9
 30
0
 11
1645.9
 21
205
 31
0
  0
LINE
  5
18D
100
AcDbEntity
  8
200
100
AcDbLine
370
-1
  6
AUSGEZOGEN
 10
1645.9
 20
225
 30
0
 11
1640
 21
219.2
 31
0
  0
LINE
  5
18E
100
AcDbEntity
  8
200
100
AcDbLine
370
-1
  6
AUSGEZOGEN
 10
1660
 20
219.2
 30
0
 11
1654.1
 21
225
 31
0
  0
LINE
  5
18F
100
AcDbEntity
  8
200
100
AcDbLine
370
-1
  6
AUSGEZOGEN
 10
1654.1
 20
205
 30
0
 11
1660
 21
210.9
 31
0
  0
LINE
  5
190
100
AcDbEntity
  8
200
100
AcDbLine
370
-1
  6
AUSGEZOGEN
 10
1600
 20
210.9
 30
0
 11
1605.8
 21
205
 31
0
  0
LINE
  5
191
100
AcDbEntity
  8
200
100
AcDbLine
370
-1
  6
AUSGEZOGEN
 10
1605.8
 20
225
 30
0
 11
1600
 21
219.2
 31
0
  0
LINE
  5
192
100
AcDbEntity
  8
200
100
AcDbLine
370
-1
  6
AUSGEZOGEN
 10
1620
 20
219.2
 30
0
 11
1614.1
 21
225
 31
0
  0
LINE
  5
193
100
AcDbEntity
  8
200
100
AcDbLine
370
-1
  6
AUSGEZOGEN
 10
1614.1
 20
205
 30
0
 11
1620
 21
210.9
 31
0
  0
LINE
  5
194
100
AcDbEntity
  8
200
100
AcDbLine
370
-1
  6
AUSGEZOGEN
 10
1560
 20
210.9
 30
0
 11
1565.9
 21
205
 31
0
  0
LINE
  5
195
100
AcDbEntity
  8
200
100
AcDbLine
370
-1
  6
AUSGEZOGEN
 10
1565.9
 20
225
 30
0
 11
1560
 21
219.2
 31
0
  0
LINE
  5
196
100
AcDbEntity
  8
200
100
AcDbLine
370
-1
  6
AUSGEZOGEN
 10
1580
 20
219.2
 30
0
 11
1574.2
 21
225
 31
0
  0
LINE
  5
197
100
AcDbEntity
  8
200
100
AcDbLine
370
-1
  6
AUSGEZOGEN
 10
1574.2
 20
205
 30
0
 11
1580
 21
210.9
 31
0
  0
LINE
  5
198
100
AcDbEntity
  8
200
100
AcDbLine
370
-1
  6
AUSGEZOGEN
 10
1520
 20
210.9
 30
0
 11
1525.8
 21
205
 31
0
  0
LINE
  5
199
100
AcDbEntity
  8
200
100
AcDbLine
370
-1
  6
AUSGEZOGEN
 10
1525.8
 20
225
 30
0
 11
1520
 21
219.2
 31
0
  0
LINE
  5
19A
100
AcDbEntity
  8
200
100
AcDbLine
370
-1
  6
AUSGEZOGEN
 10
1540
 20
219.2
 30
0
 11
1534.1
 21
225
 31
0
  0
LINE
  5
19B
100
AcDbEntity
  8
200
100
AcDbLine
370
-1
  6
AUSGEZOGEN
 10
1534.1
 20
205
 30
0
 11
1540
 21
210.9
 31
0
  0
LINE
  5
19C
100
AcDbEntity
  8
200
100
AcDbLine
370
-1
  6
AUSGEZOGEN
 10
1480
 20
210.9
 30
0
 11
1485.9
 21
205
 31
0
  0
LINE
  5
19D
100
AcDbEntity
  8
200
100
AcDbLine
370
-1
  6
AUSGEZOGEN
 10
1485.9
 20
225
 30
0
 11
1480
 21
219.2
 31
0
  0
LINE
  5
19E
100
AcDbEntity
  8
200
100
AcDbLine
370
-1
  6
AUSGEZOGEN
 10
1500
 20
219.2
 30
0
 11
1494.2
 21
225
 31
0
  0
LINE
  5
19F
100
AcDbEntity
  8
200
100
AcDbLine
370
-1
  6
AUSGEZOGEN
 10
1494.2
 20
205
 30
0
 11
1500
 21
210.9
 31
0
  0
LINE
  5
1A0
100
AcDbEntity
  8
200
100
AcDbLine
370
-1
  6
AUSGEZOGEN
 10
1440
 20
210.9
 30
0
 11
1445.9
 21
205
 31
0
  0
LINE
  5
1A1
100
AcDbEntity
  8
200
100
AcDbLine
370
-1
  6
AUSGEZOGEN
 10
1445.9
 20
225
 30
0
 11
1440
 21
219.2
 31
0
  0
LINE
  5
1A2
100
AcDbEntity
  8
200
100
AcDbLine
370
-1
  6
AUSGEZOGEN
 10
1460
 20
219.2
 30
0
 11
1454.1
 21
225
 31
0
  0
LINE
  5
1A3
100
AcDbEntity
  8
200
100
AcDbLine
370
-1
  6
AUSGEZOGEN
 10
1454.1
 20
205
 30
0
 11
1460
 21
210.9
 31
0
  0
LINE
  5
1A4
100
AcDbEntity
  8
200
100
AcDbLine
370
-1
  6
AUSGEZOGEN
 10
1400
 20
210.9
 30
0
 11
1405.8
 21
205
 31
0
  0
LINE
  5
1A5
100
AcDbEntity
  8
200
100
AcDbLine
370
-1
  6
AUSGEZOGEN
 10
1405.8
 20
225
 30
0
 11
1400
 21
219.2
 31
0
  0
LINE
  5
1A6
100
AcDbEntity
  8
200
100
AcDbLine
370
-1
  6
AUSGEZOGEN
 10
1420
 20
219.2
 30
0
 11
1414.1
 21
225
 31
0
  0
LINE
  5
1A7
100
AcDbEntity
  8
200
100
AcDbLine
370
-1
  6
AUSGEZOGEN
 10
1414.1
 20
205
 30
0
 11
1420
 21
210.9
 31
0
  0
LINE
  5
1A8
100
AcDbEntity
  8
200
100
AcDbLine
370
-1
  6
AUSGEZOGEN
 10
1360
 20
210.9
 30
0
 11
1365.9
 21
205
 31
0
  0
LINE
  5
1A9
100
AcDbEntity
  8
200
100
AcDbLine
370
-1
  6
AUSGEZOGEN
 10
1365.9
 20
225
 30
0
 11
1360
 21
219.2
 31
0
  0
LINE
  5
1AA
100
AcDbEntity
  8
200
100
AcDbLine
370
-1
  6
AUSGEZOGEN
 10
1380
 20
219.2
 30
0
 11
1374.2
 21
225
 31
0
  0
LINE
  5
1AB
100
AcDbEntity
  8
200
100
AcDbLine
370
-1
  6
AUSGEZOGEN
 10
1374.2
 20
205
 30
0
 11
1380
 21
210.9
 31
0
  0
LINE
  5
1AC
100
AcDbEntity
  8
200
100
AcDbLine
370
-1
  6
AUSGEZOGEN
 10
1320
 20
210.9
 30
0
 11
1325.8
 21
205
 31
0
  0
LINE
  5
1AD
100
AcDbEntity
  8
200
100
AcDbLine
370
-1
  6
AUSGEZOGEN
 10
1325.8
 20
225
 30
0
 11
1320
 21
219.2
 31
0
  0
LINE
  5
1AE
100
AcDbEntity
  8
200
100
AcDbLine
370
-1
  6
AUSGEZOGEN
 10
1340
 20
219.2
 30
0
 11
1334.1
 21
225
 31
0
  0
LINE
  5
1AF
100
AcDbEntity
  8
200
100
AcDbLine
370
-1
  6
AUSGEZOGEN
 10
1334.1
 20
205
 30
0
 11
1340
 21
210.9
 31
0
  0
LINE
  5
1B0
100
AcDbEntity
  8
200
100
AcDbLine
370
-1
  6
AUSGEZOGEN
 10
1280
 20
210.9
 30
0
 11
1285.8
 21
205
 31
0
  0
LINE
  5
1B1
100
AcDbEntity
  8
200
100
AcDbLine
370
-1
  6
AUSGEZOGEN
 10
1285.8
 20
225
 30
0
 11
1280
 21
219.2
 31
0
  0
LINE
  5
1B2
100
AcDbEntity
  8
200
100
AcDbLine
370
-1
  6
AUSGEZOGEN
 10
1300
 20
219.2
 30
0
 11
1294.2
 21
225
 31
0
  0
LINE
  5
1B3
100
AcDbEntity
  8
200
100
AcDbLine
370
-1
  6
AUSGEZOGEN
 10
1294.2
 20
205
 30
0
 11
1300
 21
210.9
 31
0
  0
LINE
  5
1B4
100
AcDbEntity
  8
200
100
AcDbLine
370
-1
  6
AUSGEZOGEN
 10
2205.9
 20
165
 30
0
 11
2200
 21
170.9
 31
0
  0
LINE
  5
1B5
100
AcDbEntity
  8
200
100
AcDbLine
370
-1
  6
AUSGEZOGEN
 10
2200
 20
179.1
 30
0
 11
2205.9
 21
185
 31
0
  0
LINE
  5
1B6
100
AcDbEntity
  8
200
100
AcDbLine
370
-1
  6
AUSGEZOGEN
 10
2214.2
 20
185
 30
0
 11
2220
 21
179.1
 31
0
  0
LINE
  5
1B7
100
AcDbEntity
  8
200
100
AcDbLine
370
-1
  6
AUSGEZOGEN
 10
2214.2
 20
165
 30
0
 11
2220
 21
170.9
 31
0
  0
LINE
  5
1B8
100
AcDbEntity
  8
200
100
AcDbLine
370
-1
  6
AUSGEZOGEN
 10
2160
 20
170.9
 30
0
 11
2165.9
 21
165
 31
0
  0
LINE
  5
1B9
100
AcDbEntity
  8
200
100
AcDbLine
370
-1
  6
AUSGEZOGEN
 10
2165.9
 20
185
 30
0
 11
2160
 21
179.1
 31
0
  0
LINE
  5
1BA
100
AcDbEntity
  8
200
100
AcDbLine
370
-1
  6
AUSGEZOGEN
 10
2180
 20
179.1
 30
0
 11
2174.1
 21
185
 31
0
  0
LINE
  5
1BB
100
AcDbEntity
  8
200
100
AcDbLine
370
-1
  6
AUSGEZOGEN
 10
2174.1
 20
165
 30
0
 11
2180
 21
170.9
 31
0
  0
LINE
  5
1BC
100
AcDbEntity
  8
200
100
AcDbLine
370
-1
  6
AUSGEZOGEN
 10
2120
 20
170.9
 30
0
 11
2125.8
 21
165
 31
0
  0
LINE
  5
1BD
100
AcDbEntity
  8
200
100
AcDbLine
370
-1
  6
AUSGEZOGEN
 10
2125.8
 20
185
 30
0
 11
2120
 21
179.1
 31
0
  0
LINE
  5
1BE
100
AcDbEntity
  8
200
100
AcDbLine
370
-1
  6
AUSGEZOGEN
 10
2140
 20
179.1
 30
0
 11
2134.1
 21
185
 31
0
  0
LINE
  5
1BF
100
AcDbEntity
  8
200
100
AcDbLine
370
-1
  6
AUSGEZOGEN
 10
2134.1
 20
165
 30
0
 11
2140
 21
170.9
 31
0
  0
LINE
  5
1C0
100
AcDbEntity
  8
200
100
AcDbLine
370
-1
  6
AUSGEZOGEN
 10
2080
 20
170.9
 30
0
 11
2085.9
 21
165
 31
0
  0
LINE
  5
1C1
100
AcDbEntity
  8
200
100
AcDbLine
370
-1
  6
AUSGEZOGEN
 10
2085.9
 20
185
 30
0
 11
2080
 21
179.1
 31
0
  0
LINE
  5
1C2
100
AcDbEntity
  8
200
100
AcDbLine
370
-1
  6
AUSGEZOGEN
 10
2100
 20
179.1
 30
0
 11
2094.2
 21
185
 31
0
  0
LINE
  5
1C3
100
AcDbEntity
  8
200
100
AcDbLine
370
-1
  6
AUSGEZOGEN
 10
2094.2
 20
165
 30
0
 11
2100
 21
170.9
 31
0
  0
LINE
  5
1C4
100
AcDbEntity
  8
200
100
AcDbLine
370
-1
  6
AUSGEZOGEN
 10
2040
 20
170.9
 30
0
 11
2045.8
 21
165
 31
0
  0
LINE
  5
1C5
100
AcDbEntity
  8
200
100
AcDbLine
370
-1
  6
AUSGEZOGEN
 10
2045.8
 20
185
 30
0
 11
2040
 21
179.1
 31
0
  0
LINE
  5
1C6
100
AcDbEntity
  8
200
100
AcDbLine
370
-1
  6
AUSGEZOGEN
 10
2060
 20
179.1
 30
0
 11
2054.1
 21
185
 31
0
  0
LINE
  5
1C7
100
AcDbEntity
  8
200
100
AcDbLine
370
-1
  6
AUSGEZOGEN
 10
2054.1
 20
165
 30
0
 11
2060
 21
170.9
 31
0
  0
LINE
  5
1C8
100
AcDbEntity
  8
200
100
AcDbLine
370
-1
  6
AUSGEZOGEN
 10
2000
 20
170.9
 30
0
 11
2005.9
 21
165
 31
0
  0
LINE
  5
1C9
100
AcDbEntity
  8
200
100
AcDbLine
370
-1
  6
AUSGEZOGEN
 10
2005.9
 20
185
 30
0
 11
2000
 21
179.1
 31
0
  0
LINE
  5
1CA
100
AcDbEntity
  8
200
100
AcDbLine
370
-1
  6
AUSGEZOGEN
 10
2020
 20
179.1
 30
0
 11
2014.2
 21
185
 31
0
  0
LINE
  5
1CB
100
AcDbEntity
  8
200
100
AcDbLine
370
-1
  6
AUSGEZOGEN
 10
2014.2
 20
165
 30
0
 11
2020
 21
170.9
 31
0
  0
LINE
  5
1CC
100
AcDbEntity
  8
200
100
AcDbLine
370
-1
  6
AUSGEZOGEN
 10
1960
 20
170.9
 30
0
 11
1965.9
 21
165
 31
0
  0
LINE
  5
1CD
100
AcDbEntity
  8
200
100
AcDbLine
370
-1
  6
AUSGEZOGEN
 10
1965.9
 20
185
 30
0
 11
1960
 21
179.1
 31
0
  0
LINE
  5
1CE
100
AcDbEntity
  8
200
100
AcDbLine
370
-1
  6
AUSGEZOGEN
 10
1980
 20
179.1
 30
0
 11
1974.1
 21
185
 31
0
  0
LINE
  5
1CF
100
AcDbEntity
  8
200
100
AcDbLine
370
-1
  6
AUSGEZOGEN
 10
1974.1
 20
165
 30
0
 11
1980
 21
170.9
 31
0
  0
LINE
  5
1D0
100
AcDbEntity
  8
200
100
AcDbLine
370
-1
  6
AUSGEZOGEN
 10
1920
 20
170.9
 30
0
 11
1925.8
 21
165
 31
0
  0
LINE
  5
1D1
100
AcDbEntity
  8
200
100
AcDbLine
370
-1
  6
AUSGEZOGEN
 10
1925.8
 20
185
 30
0
 11
1920
 21
179.1
 31
0
  0
LINE
  5
1D2
100
AcDbEntity
  8
200
100
AcDbLine
370
-1
  6
AUSGEZOGEN
 10
1940
 20
179.1
 30
0
 11
1934.1
 21
185
 31
0
  0
LINE
  5
1D3
100
AcDbEntity
  8
200
100
AcDbLine
370
-1
  6
AUSGEZOGEN
 10
1934.1
 20
165
 30
0
 11
1940
 21
170.9
 31
0
  0
LINE
  5
1D4
100
AcDbEntity
  8
200
100
AcDbLine
370
-1
  6
AUSGEZOGEN
 10
1880
 20
170.9
 30
0
 11
1885.9
 21
165
 31
0
  0
LINE
  5
1D5
100
AcDbEntity
  8
200
100
AcDbLine
370
-1
  6
AUSGEZOGEN
 10
1885.9
 20
185
 30
0
 11
1880
 21
179.1
 31
0
  0
LINE
  5
1D6
100
AcDbEntity
  8
200
100
AcDbLine
370
-1
  6
AUSGEZOGEN
 10
1900
 20
179.1
 30
0
 11
1894.2
 21
185
 31
0
  0
LINE
  5
1D7
100
AcDbEntity
  8
200
100
AcDbLine
370
-1
  6
AUSGEZOGEN
 10
1894.2
 20
165
 30
0
 11
1900
 21
170.9
 31
0
  0
LINE
  5
1D8
100
AcDbEntity
  8
200
100
AcDbLine
370
-1
  6
AUSGEZOGEN
 10
1840
 20
170.9
 30
0
 11
1845.9
 21
165
 31
0
  0
LINE
  5
1D9
100
AcDbEntity
  8
200
100
AcDbLine
370
-1
  6
AUSGEZOGEN
 10
1845.9
 20
185
 30
0
 11
1840
 21
179.1
 31
0
  0
LINE
  5
1DA
100
AcDbEntity
  8
200
100
AcDbLine
370
-1
  6
AUSGEZOGEN
 10
1860
 20
179.1
 30
0
 11
1854.1
 21
185
 31
0
  0
LINE
  5
1DB
100
AcDbEntity
  8
200
100
AcDbLine
370
-1
  6
AUSGEZOGEN
 10
1854.1
 20
165
 30
0
 11
1860
 21
170.9
 31
0
  0
LINE
  5
1DC
100
AcDbEntity
  8
200
100
AcDbLine
370
-1
  6
AUSGEZOGEN
 10
1800
 20
170.9
 30
0
 11
1805.8
 21
165
 31
0
  0
LINE
  5
1DD
100
AcDbEntity
  8
200
100
AcDbLine
370
-1
  6
AUSGEZOGEN
 10
1805.8
 20
185
 30
0
 11
1800
 21
179.1
 31
0
  0
LINE
  5
1DE
100
AcDbEntity
  8
200
100
AcDbLine
370
-1
  6
AUSGEZOGEN
 10
1820
 20
179.1
 30
0
 11
1814.2
 21
185
 31
0
  0
LINE
  5
1DF
100
AcDbEntity
  8
200
100
AcDbLine
370
-1
  6
AUSGEZOGEN
 10
1814.2
 20
165
 30
0
 11
1820
 21
170.9
 31
0
  0
LINE
  5
1E0
100
AcDbEntity
  8
200
100
AcDbLine
370
-1
  6
AUSGEZOGEN
 10
1760
 20
170.9
 30
0
 11
1765.9
 21
165
 31
0
  0
LINE
  5
1E1
100
AcDbEntity
  8
200
100
AcDbLine
370
-1
  6
AUSGEZOGEN
 10
1765.9
 20
185
 30
0
 11
1760
 21
179.1
 31
0
  0
LINE
  5
1E2
100
AcDbEntity
  8
200
100
AcDbLine
370
-1
  6
AUSGEZOGEN
 10
1780
 20
179.1
 30
0
 11
1774.2
 21
185
 31
0
  0
LINE
  5
1E3
100
AcDbEntity
  8
200
100
AcDbLine
370
-1
  6
AUSGEZOGEN
 10
1774.2
 20
165
 30
0
 11
1780
 21
170.9
 31
0
  0
LINE
  5
1E4
100
AcDbEntity
  8
200
100
AcDbLine
370
-1
  6
AUSGEZOGEN
 10
1720
 20
170.9
 30
0
 11
1725.8
 21
165
 31
0
  0
LINE
  5
1E5
100
AcDbEntity
  8
200
100
AcDbLine
370
-1
  6
AUSGEZOGEN
 10
1725.8
 20
185
 30
0
 11
1720
 21
179.1
 31
0
  0
LINE
  5
1E6
100
AcDbEntity
  8
200
100
AcDbLine
370
-1
  6
AUSGEZOGEN
 10
1740
 20
179.1
 30
0
 11
1734.1
 21
185
 31
0
  0
LINE
  5
1E7
100
AcDbEntity
  8
200
100
AcDbLine
370
-1
  6
AUSGEZOGEN
 10
1734.1
 20
165
 30
0
 11
1740
 21
170.9
 31
0
  0
LINE
  5
1E8
100
AcDbEntity
  8
200
100
AcDbLine
370
-1
  6
AUSGEZOGEN
 10
1680
 20
170.9
 30
0
 11
1685.9
 21
165
 31
0
  0
LINE
  5
1E9
100
AcDbEntity
  8
200
100
AcDbLine
370
-1
  6
AUSGEZOGEN
 10
1685.9
 20
185
 30
0
 11
1680
 21
179.1
 31
0
  0
LINE
  5
1EA
100
AcDbEntity
  8
200
100
AcDbLine
370
-1
  6
AUSGEZOGEN
 10
1700
 20
179.1
 30
0
 11
1694.2
 21
185
 31
0
  0
LINE
  5
1EB
100
AcDbEntity
  8
200
100
AcDbLine
370
-1
  6
AUSGEZOGEN
 10
1694.2
 20
165
 30
0
 11
1700
 21
170.9
 31
0
  0
LINE
  5
1EC
100
AcDbEntity
  8
200
100
AcDbLine
370
-1
  6
AUSGEZOGEN
 10
1640
 20
170.9
 30
0
 11
1645.9
 21
165
 31
0
  0
LINE
  5
1ED
100
AcDbEntity
  8
200
100
AcDbLine
370
-1
  6
AUSGEZOGEN
 10
1645.9
 20
185
 30
0
 11
1640
 21
179.1
 31
0
  0
LINE
  5
1EE
100
AcDbEntity
  8
200
100
AcDbLine
370
-1
  6
AUSGEZOGEN
 10
1660
 20
179.1
 30
0
 11
1654.1
 21
185
 31
0
  0
LINE
  5
1EF
100
AcDbEntity
  8
200
100
AcDbLine
370
-1
  6
AUSGEZOGEN
 10
1654.1
 20
165
 30
0
 11
1660
 21
170.9
 31
0
  0
LINE
  5
1F0
100
AcDbEntity
  8
200
100
AcDbLine
370
-1
  6
AUSGEZOGEN
 10
1600
 20
170.9
 30
0
 11
1605.8
 21
165
 31
0
  0
LINE
  5
1F1
100
AcDbEntity
  8
200
100
AcDbLine
370
-1
  6
AUSGEZOGEN
 10
1605.8
 20
185
 30
0
 11
1600
 21
179.1
 31
0
  0
LINE
  5
1F2
100
AcDbEntity
  8
200
100
AcDbLine
370
-1
  6
AUSGEZOGEN
 10
1620
 20
179.1
 30
0
 11
1614.1
 21
185
 31
0
  0
LINE
  5
1F3
100
AcDbEntity
  8
200
100
AcDbLine
370
-1
  6
AUSGEZOGEN
 10
1614.1
 20
165
 30
0
 11
1620
 21
170.9
 31
0
  0
LINE
  5
1F4
100
AcDbEntity
  8
200
100
AcDbLine
370
-1
  6
AUSGEZOGEN
 10
1560
 20
170.9
 30
0
 11
1565.9
 21
165
 31
0
  0
LINE
  5
1F5
100
AcDbEntity
  8
200
100
AcDbLine
370
-1
  6
AUSGEZOGEN
 10
1565.9
 20
185
 30
0
 11
1560
 21
179.1
 31
0
  0
LINE
  5
1F6
100
AcDbEntity
  8
200
100
AcDbLine
370
-1
  6
AUSGEZOGEN
 10
1580
 20
179.1
 30
0
 11
1574.2
 21
185
 31
0
  0
LINE
  5
1F7
100
AcDbEntity
  8
200
100
AcDbLine
370
-1
  6
AUSGEZOGEN
 10
1574.2
 20
165
 30
0
 11
1580
 21
170.9
 31
0
  0
LINE
  5
1F8
100
AcDbEntity
  8
200
100
AcDbLine
370
-1
  6
AUSGEZOGEN
 10
1520
 20
170.9
 30
0
 11
1525.8
 21
165
 31
0
  0
LINE
  5
1F9
100
AcDbEntity
  8
200
100
AcDbLine
370
-1
  6
AUSGEZOGEN
 10
1525.8
 20
185
 30
0
 11
1520
 21
179.1
 31
0
  0
LINE
  5
1FA
100
AcDbEntity
  8
200
100
AcDbLine
370
-1
  6
AUSGEZOGEN
 10
1540
 20
179.1
 30
0
 11
1534.1
 21
185
 31
0
  0
LINE
  5
1FB
100
AcDbEntity
  8
200
100
AcDbLine
370
-1
  6
AUSGEZOGEN
 10
1534.1
 20
165
 30
0
 11
1540
 21
170.9
 31
0
  0
LINE
  5
1FC
100
AcDbEntity
  8
200
100
AcDbLine
370
-1
  6
AUSGEZOGEN
 10
1480
 20
170.9
 30
0
 11
1485.9
 21
165
 31
0
  0
LINE
  5
1FD
100
AcDbEntity
  8
200
100
AcDbLine
370
-1
  6
AUSGEZOGEN
 10
1485.9
 20
185
 30
0
 11
1480
 21
179.1
 31
0
  0
LINE
  5
1FE
100
AcDbEntity
  8
200
100
AcDbLine
370
-1
  6
AUSGEZOGEN
 10
1500
 20
179.1
 30
0
 11
1494.2
 21
185
 31
0
  0
LINE
  5
1FF
100
AcDbEntity
  8
200
100
AcDbLine
370
-1
  6
AUSGEZOGEN
 10
1494.2
 20
165
 30
0
 11
1500
 21
170.9
 31
0
  0
LINE
  5
200
100
AcDbEntity
  8
200
100
AcDbLine
370
-1
  6
AUSGEZOGEN
 10
1440
 20
170.9
 30
0
 11
1445.9
 21
165
 31
0
  0
LINE
  5
201
100
AcDbEntity
  8
200
100
AcDbLine
370
-1
  6
AUSGEZOGEN
 10
1445.9
 20
185
 30
0
 11
1440
 21
179.1
 31
0
  0
LINE
  5
202
100
AcDbEntity
  8
200
100
AcDbLine
370
-1
  6
AUSGEZOGEN
 10
1460
 20
179.1
 30
0
 11
1454.1
 21
185
 31
0
  0
LINE
  5
203
100
AcDbEntity
  8
200
100
AcDbLine
370
-1
  6
AUSGEZOGEN
 10
1454.1
 20
165
 30
0
 11
1460
 21
170.9
 31
0
  0
LINE
  5
204
100
AcDbEntity
  8
200
100
AcDbLine
370
-1
  6
AUSGEZOGEN
 10
1400
 20
170.9
 30
0
 11
1405.8
 21
165
 31
0
  0
LINE
  5
205
100
AcDbEntity
  8
200
100
AcDbLine
370
-1
  6
AUSGEZOGEN
 10
1405.8
 20
185
 30
0
 11
1400
 21
179.1
 31
0
  0
LINE
  5
206
100
AcDbEntity
  8
200
100
AcDbLine
370
-1
  6
AUSGEZOGEN
 10
1420
 20
179.1
 30
0
 11
1414.1
 21
185
 31
0
  0
LINE
  5
207
100
AcDbEntity
  8
200
100
AcDbLine
370
-1
  6
AUSGEZOGEN
 10
1414.1
 20
165
 30
0
 11
1420
 21
170.9
 31
0
  0
LINE
  5
208
100
AcDbEntity
  8
200
100
AcDbLine
370
-1
  6
AUSGEZOGEN
 10
1360
 20
170.9
 30
0
 11
1365.9
 21
165
 31
0
  0
LINE
  5
209
100
AcDbEntity
  8
200
100
AcDbLine
370
-1
  6
AUSGEZOGEN
 10
1365.9
 20
185
 30
0
 11
1360
 21
179.1
 31
0
  0
LINE
  5
20A
100
AcDbEntity
  8
200
100
AcDbLine
370
-1
  6
AUSGEZOGEN
 10
1380
 20
179.1
 30
0
 11
1374.2
 21
185
 31
0
  0
LINE
  5
20B
100
AcDbEntity
  8
200
100
AcDbLine
370
-1
  6
AUSGEZOGEN
 10
1374.2
 20
165
 30
0
 11
1380
 21
170.9
 31
0
  0
LINE
  5
20C
100
AcDbEntity
  8
200
100
AcDbLine
370
-1
  6
AUSGEZOGEN
 10
1320
 20
170.9
 30
0
 11
1325.8
 21
165
 31
0
  0
LINE
  5
20D
100
AcDbEntity
  8
200
100
AcDbLine
370
-1
  6
AUSGEZOGEN
 10
1325.8
 20
185
 30
0
 11
1320
 21
179.1
 31
0
  0
LINE
  5
20E
100
AcDbEntity
  8
200
100
AcDbLine
370
-1
  6
AUSGEZOGEN
 10
1340
 20
179.1
 30
0
 11
1334.1
 21
185
 31
0
  0
LINE
  5
20F
100
AcDbEntity
  8
200
100
AcDbLine
370
-1
  6
AUSGEZOGEN
 10
1334.1
 20
165
 30
0
 11
1340
 21
170.9
 31
0
  0
LINE
  5
210
100
AcDbEntity
  8
200
100
AcDbLine
370
-1
  6
AUSGEZOGEN
 10
1280
 20
170.9
 30
0
 11
1285.8
 21
165
 31
0
  0
LINE
  5
211
100
AcDbEntity
  8
200
100
AcDbLine
370
-1
  6
AUSGEZOGEN
 10
1285.8
 20
185
 30
0
 11
1280
 21
179.1
 31
0
  0
LINE
  5
212
100
AcDbEntity
  8
200
100
AcDbLine
370
-1
  6
AUSGEZOGEN
 10
1300
 20
179.1
 30
0
 11
1294.2
 21
185
 31
0
  0
LINE
  5
213
100
AcDbEntity
  8
200
100
AcDbLine
370
-1
  6
AUSGEZOGEN
 10
1294.2
 20
165
 30
0
 11
1300
 21
170.9
 31
0
  0
LINE
  5
214
100
AcDbEntity
  8
200
100
AcDbLine
370
-1
  6
AUSGEZOGEN
 10
2205.9
 20
125
 30
0
 11
2200
 21
130.8
 31
0
  0
LINE
  5
215
100
AcDbEntity
  8
200
100
AcDbLine
370
-1
  6
AUSGEZOGEN
 10
2200
 20
139.1
 30
0
 11
2205.9
 21
145
 31
0
  0
LINE
  5
216
100
AcDbEntity
  8
200
100
AcDbLine
370
-1
  6
AUSGEZOGEN
 10
2214.2
 20
145
 30
0
 11
2220
 21
139.1
 31
0
  0
LINE
  5
217
100
AcDbEntity
  8
200
100
AcDbLine
370
-1
  6
AUSGEZOGEN
 10
2220
 20
130.8
 30
0
 11
2214.2
 21
125
 31
0
  0
LINE
  5
218
100
AcDbEntity
  8
200
100
AcDbLine
370
-1
  6
AUSGEZOGEN
 10
2160
 20
130.8
 30
0
 11
2165.9
 21
125
 31
0
  0
LINE
  5
219
100
AcDbEntity
  8
200
100
AcDbLine
370
-1
  6
AUSGEZOGEN
 10
2165.9
 20
145
 30
0
 11
2160
 21
139.1
 31
0
  0
LINE
  5
21A
100
AcDbEntity
  8
200
100
AcDbLine
370
-1
  6
AUSGEZOGEN
 10
2180
 20
139.1
 30
0
 11
2174.1
 21
145
 31
0
  0
LINE
  5
21B
100
AcDbEntity
  8
200
100
AcDbLine
370
-1
  6
AUSGEZOGEN
 10
2174.1
 20
125
 30
0
 11
2180
 21
130.8
 31
0
  0
LINE
  5
21C
100
AcDbEntity
  8
200
100
AcDbLine
370
-1
  6
AUSGEZOGEN
 10
2120
 20
130.8
 30
0
 11
2125.8
 21
125
 31
0
  0
LINE
  5
21D
100
AcDbEntity
  8
200
100
AcDbLine
370
-1
  6
AUSGEZOGEN
 10
2125.8
 20
145
 30
0
 11
2120
 21
139.1
 31
0
  0
LINE
  5
21E
100
AcDbEntity
  8
200
100
AcDbLine
370
-1
  6
AUSGEZOGEN
 10
2140
 20
139.1
 30
0
 11
2134.1
 21
145
 31
0
  0
LINE
  5
21F
100
AcDbEntity
  8
200
100
AcDbLine
370
-1
  6
AUSGEZOGEN
 10
2134.1
 20
125
 30
0
 11
2140
 21
130.8
 31
0
  0
LINE
  5
220
100
AcDbEntity
  8
200
100
AcDbLine
370
-1
  6
AUSGEZOGEN
 10
2080
 20
130.8
 30
0
 11
2085.9
 21
125
 31
0
  0
LINE
  5
221
100
AcDbEntity
  8
200
100
AcDbLine
370
-1
  6
AUSGEZOGEN
 10
2085.9
 20
145
 30
0
 11
2080
 21
139.1
 31
0
  0
LINE
  5
222
100
AcDbEntity
  8
200
100
AcDbLine
370
-1
  6
AUSGEZOGEN
 10
2100
 20
139.1
 30
0
 11
2094.2
 21
145
 31
0
  0
LINE
  5
223
100
AcDbEntity
  8
200
100
AcDbLine
370
-1
  6
AUSGEZOGEN
 10
2094.2
 20
125
 30
0
 11
2100
 21
130.8
 31
0
  0
LINE
  5
224
100
AcDbEntity
  8
200
100
AcDbLine
370
-1
  6
AUSGEZOGEN
 10
2040
 20
130.8
 30
0
 11
2045.8
 21
125
 31
0
  0
LINE
  5
225
100
AcDbEntity
  8
200
100
AcDbLine
370
-1
  6
AUSGEZOGEN
 10
2045.8
 20
145
 30
0
 11
2040
 21
139.1
 31
0
  0
LINE
  5
226
100
AcDbEntity
  8
200
100
AcDbLine
370
-1
  6
AUSGEZOGEN
 10
2060
 20
139.1
 30
0
 11
2054.1
 21
145
 31
0
  0
LINE
  5
227
100
AcDbEntity
  8
200
100
AcDbLine
370
-1
  6
AUSGEZOGEN
 10
2054.1
 20
125
 30
0
 11
2060
 21
130.8
 31
0
  0
LINE
  5
228
100
AcDbEntity
  8
200
100
AcDbLine
370
-1
  6
AUSGEZOGEN
 10
2000
 20
130.8
 30
0
 11
2005.9
 21
125
 31
0
  0
LINE
  5
229
100
AcDbEntity
  8
200
100
AcDbLine
370
-1
  6
AUSGEZOGEN
 10
2005.9
 20
145
 30
0
 11
2000
 21
139.1
 31
0
  0
LINE
  5
22A
100
AcDbEntity
  8
200
100
AcDbLine
370
-1
  6
AUSGEZOGEN
 10
2020
 20
139.1
 30
0
 11
2014.2
 21
145
 31
0
  0
LINE
  5
22B
100
AcDbEntity
  8
200
100
AcDbLine
370
-1
  6
AUSGEZOGEN
 10
2014.2
 20
125
 30
0
 11
2020
 21
130.8
 31
0
  0
LINE
  5
22C
100
AcDbEntity
  8
200
100
AcDbLine
370
-1
  6
AUSGEZOGEN
 10
1960
 20
130.8
 30
0
 11
1965.9
 21
125
 31
0
  0
LINE
  5
22D
100
AcDbEntity
  8
200
100
AcDbLine
370
-1
  6
AUSGEZOGEN
 10
1965.9
 20
145
 30
0
 11
1960
 21
139.1
 31
0
  0
LINE
  5
22E
100
AcDbEntity
  8
200
100
AcDbLine
370
-1
  6
AUSGEZOGEN
 10
1980
 20
139.1
 30
0
 11
1974.1
 21
145
 31
0
  0
LINE
  5
22F
100
AcDbEntity
  8
200
100
AcDbLine
370
-1
  6
AUSGEZOGEN
 10
1974.1
 20
125
 30
0
 11
1980
 21
130.8
 31
0
  0
LINE
  5
230
100
AcDbEntity
  8
200
100
AcDbLine
370
-1
  6
AUSGEZOGEN
 10
1920
 20
130.8
 30
0
 11
1925.8
 21
125
 31
0
  0
LINE
  5
231
100
AcDbEntity
  8
200
100
AcDbLine
370
-1
  6
AUSGEZOGEN
 10
1925.8
 20
145
 30
0
 11
1920
 21
139.1
 31
0
  0
LINE
  5
232
100
AcDbEntity
  8
200
100
AcDbLine
370
-1
  6
AUSGEZOGEN
 10
1940
 20
139.1
 30
0
 11
1934.1
 21
145
 31
0
  0
LINE
  5
233
100
AcDbEntity
  8
200
100
AcDbLine
370
-1
  6
AUSGEZOGEN
 10
1934.1
 20
125
 30
0
 11
1940
 21
130.8
 31
0
  0
LINE
  5
234
100
AcDbEntity
  8
200
100
AcDbLine
370
-1
  6
AUSGEZOGEN
 10
1880
 20
130.8
 30
0
 11
1885.9
 21
125
 31
0
  0
LINE
  5
235
100
AcDbEntity
  8
200
100
AcDbLine
370
-1
  6
AUSGEZOGEN
 10
1885.9
 20
145
 30
0
 11
1880
 21
139.1
 31
0
  0
LINE
  5
236
100
AcDbEntity
  8
200
100
AcDbLine
370
-1
  6
AUSGEZOGEN
 10
1900
 20
139.1
 30
0
 11
1894.2
 21
145
 31
0
  0
LINE
  5
237
100
AcDbEntity
  8
200
100
AcDbLine
370
-1
  6
AUSGEZOGEN
 10
1894.2
 20
125
 30
0
 11
1900
 21
130.8
 31
0
  0
LINE
  5
238
100
AcDbEntity
  8
200
100
AcDbLine
370
-1
  6
AUSGEZOGEN
 10
1840
 20
130.8
 30
0
 11
1845.9
 21
125
 31
0
  0
LINE
  5
239
100
AcDbEntity
  8
200
100
AcDbLine
370
-1
  6
AUSGEZOGEN
 10
1845.9
 20
145
 30
0
 11
1840
 21
139.1
 31
0
  0
LINE
  5
23A
100
AcDbEntity
  8
200
100
AcDbLine
370
-1
  6
AUSGEZOGEN
 10
1860
 20
139.1
 30
0
 11
1854.1
 21
145
 31
0
  0
LINE
  5
23B
100
AcDbEntity
  8
200
100
AcDbLine
370
-1
  6
AUSGEZOGEN
 10
1854.1
 20
125
 30
0
 11
1860
 21
130.8
 31
0
  0
LINE
  5
23C
100
AcDbEntity
  8
200
100
AcDbLine
370
-1
  6
AUSGEZOGEN
 10
1800
 20
130.8
 30
0
 11
1805.8
 21
125
 31
0
  0
LINE
  5
23D
100
AcDbEntity
  8
200
100
AcDbLine
370
-1
  6
AUSGEZOGEN
 10
1805.8
 20
145
 30
0
 11
1800
 21
139.1
 31
0
  0
LINE
  5
23E
100
AcDbEntity
  8
200
100
AcDbLine
370
-1
  6
AUSGEZOGEN
 10
1820
 20
139.1
 30
0
 11
1814.2
 21
145
 31
0
  0
LINE
  5
23F
100
AcDbEntity
  8
200
100
AcDbLine
370
-1
  6
AUSGEZOGEN
 10
1814.2
 20
125
 30
0
 11
1820
 21
130.8
 31
0
  0
LINE
  5
240
100
AcDbEntity
  8
200
100
AcDbLine
370
-1
  6
AUSGEZOGEN
 10
1760
 20
130.8
 30
0
 11
1765.9
 21
125
 31
0
  0
LINE
  5
241
100
AcDbEntity
  8
200
100
AcDbLine
370
-1
  6
AUSGEZOGEN
 10
1765.9
 20
145
 30
0
 11
1760
 21
139.1
 31
0
  0
LINE
  5
242
100
AcDbEntity
  8
200
100
AcDbLine
370
-1
  6
AUSGEZOGEN
 10
1780
 20
139.1
 30
0
 11
1774.2
 21
145
 31
0
  0
LINE
  5
243
100
AcDbEntity
  8
200
100
AcDbLine
370
-1
  6
AUSGEZOGEN
 10
1774.2
 20
125
 30
0
 11
1780
 21
130.8
 31
0
  0
LINE
  5
244
100
AcDbEntity
  8
200
100
AcDbLine
370
-1
  6
AUSGEZOGEN
 10
1720
 20
130.8
 30
0
 11
1725.8
 21
125
 31
0
  0
LINE
  5
245
100
AcDbEntity
  8
200
100
AcDbLine
370
-1
  6
AUSGEZOGEN
 10
1725.8
 20
145
 30
0
 11
1720
 21
139.1
 31
0
  0
LINE
  5
246
100
AcDbEntity
  8
200
100
AcDbLine
370
-1
  6
AUSGEZOGEN
 10
1740
 20
139.1
 30
0
 11
1734.1
 21
145
 31
0
  0
LINE
  5
247
100
AcDbEntity
  8
200
100
AcDbLine
370
-1
  6
AUSGEZOGEN
 10
1734.1
 20
125
 30
0
 11
1740
 21
130.8
 31
0
  0
LINE
  5
248
100
AcDbEntity
  8
200
100
AcDbLine
370
-1
  6
AUSGEZOGEN
 10
1680
 20
130.8
 30
0
 11
1685.9
 21
125
 31
0
  0
LINE
  5
249
100
AcDbEntity
  8
200
100
AcDbLine
370
-1
  6
AUSGEZOGEN
 10
1685.9
 20
145
 30
0
 11
1680
 21
139.1
 31
0
  0
LINE
  5
24A
100
AcDbEntity
  8
200
100
AcDbLine
370
-1
  6
AUSGEZOGEN
 10
1700
 20
139.1
 30
0
 11
1694.2
 21
145
 31
0
  0
LINE
  5
24B
100
AcDbEntity
  8
200
100
AcDbLine
370
-1
  6
AUSGEZOGEN
 10
1694.2
 20
125
 30
0
 11
1700
 21
130.8
 31
0
  0
LINE
  5
24C
100
AcDbEntity
  8
200
100
AcDbLine
370
-1
  6
AUSGEZOGEN
 10
1640
 20
130.8
 30
0
 11
1645.9
 21
125
 31
0
  0
LINE
  5
24D
100
AcDbEntity
  8
200
100
AcDbLine
370
-1
  6
AUSGEZOGEN
 10
1645.9
 20
145
 30
0
 11
1640
 21
139.1
 31
0
  0
LINE
  5
24E
100
AcDbEntity
  8
200
100
AcDbLine
370
-1
  6
AUSGEZOGEN
 10
1660
 20
139.1
 30
0
 11
1654.1
 21
145
 31
0
  0
LINE
  5
24F
100
AcDbEntity
  8
200
100
AcDbLine
370
-1
  6
AUSGEZOGEN
 10
1654.1
 20
125
 30
0
 11
1660
 21
130.8
 31
0
  0
LINE
  5
250
100
AcDbEntity
  8
200
100
AcDbLine
370
-1
  6
AUSGEZOGEN
 10
1600
 20
130.8
 30
0
 11
1605.8
 21
125
 31
0
  0
LINE
  5
251
100
AcDbEntity
  8
200
100
AcDbLine
370
-1
  6
AUSGEZOGEN
 10
1605.8
 20
145
 30
0
 11
1600
 21
139.1
 31
0
  0
LINE
  5
252
100
AcDbEntity
  8
200
100
AcDbLine
370
-1
  6
AUSGEZOGEN
 10
1620
 20
139.1
 30
0
 11
1614.1
 21
145
 31
0
  0
LINE
  5
253
100
AcDbEntity
  8
200
100
AcDbLine
370
-1
  6
AUSGEZOGEN
 10
1614.1
 20
125
 30
0
 11
1620
 21
130.8
 31
0
  0
LINE
  5
254
100
AcDbEntity
  8
200
100
AcDbLine
370
-1
  6
AUSGEZOGEN
 10
1560
 20
130.8
 30
0
 11
1565.9
 21
125
 31
0
  0
LINE
  5
255
100
AcDbEntity
  8
200
100
AcDbLine
370
-1
  6
AUSGEZOGEN
 10
1565.9
 20
145
 30
0
 11
1560
 21
139.1
 31
0
  0
LINE
  5
256
100
AcDbEntity
  8
200
100
AcDbLine
370
-1
  6
AUSGEZOGEN
 10
1580
 20
139.1
 30
0
 11
1574.2
 21
145
 31
0
  0
LINE
  5
257
100
AcDbEntity
  8
200
100
AcDbLine
370
-1
  6
AUSGEZOGEN
 10
1574.2
 20
125
 30
0
 11
1580
 21
130.8
 31
0
  0
LINE
  5
258
100
AcDbEntity
  8
200
100
AcDbLine
370
-1
  6
AUSGEZOGEN
 10
1520
 20
130.8
 30
0
 11
1525.8
 21
125
 31
0
  0
LINE
  5
259
100
AcDbEntity
  8
200
100
AcDbLine
370
-1
  6
AUSGEZOGEN
 10
1525.8
 20
145
 30
0
 11
1520
 21
139.1
 31
0
  0
LINE
  5
25A
100
AcDbEntity
  8
200
100
AcDbLine
370
-1
  6
AUSGEZOGEN
 10
1540
 20
139.1
 30
0
 11
1534.1
 21
145
 31
0
  0
LINE
  5
25B
100
AcDbEntity
  8
200
100
AcDbLine
370
-1
  6
AUSGEZOGEN
 10
1534.1
 20
125
 30
0
 11
1540
 21
130.8
 31
0
  0
LINE
  5
25C
100
AcDbEntity
  8
200
100
AcDbLine
370
-1
  6
AUSGEZOGEN
 10
1480
 20
130.8
 30
0
 11
1485.9
 21
125
 31
0
  0
LINE
  5
25D
100
AcDbEntity
  8
200
100
AcDbLine
370
-1
  6
AUSGEZOGEN
 10
1485.9
 20
145
 30
0
 11
1480
 21
139.1
 31
0
  0
LINE
  5
25E
100
AcDbEntity
  8
200
100
AcDbLine
370
-1
  6
AUSGEZOGEN
 10
1500
 20
139.1
 30
0
 11
1494.2
 21
145
 31
0
  0
LINE
  5
25F
100
AcDbEntity
  8
200
100
AcDbLine
370
-1
  6
AUSGEZOGEN
 10
1494.2
 20
125
 30
0
 11
1500
 21
130.8
 31
0
  0
LINE
  5
260
100
AcDbEntity
  8
200
100
AcDbLine
370
-1
  6
AUSGEZOGEN
 10
1440
 20
130.8
 30
0
 11
1445.9
 21
125
 31
0
  0
LINE
  5
261
100
AcDbEntity
  8
200
100
AcDbLine
370
-1
  6
AUSGEZOGEN
 10
1445.9
 20
145
 30
0
 11
1440
 21
139.1
 31
0
  0
LINE
  5
262
100
AcDbEntity
  8
200
100
AcDbLine
370
-1
  6
AUSGEZOGEN
 10
1460
 20
139.1
 30
0
 11
1454.1
 21
145
 31
0
  0
LINE
  5
263
100
AcDbEntity
  8
200
100
AcDbLine
370
-1
  6
AUSGEZOGEN
 10
1454.1
 20
125
 30
0
 11
1460
 21
130.8
 31
0
  0
LINE
  5
264
100
AcDbEntity
  8
200
100
AcDbLine
370
-1
  6
AUSGEZOGEN
 10
1400
 20
130.8
 30
0
 11
1405.8
 21
125
 31
0
  0
LINE
  5
265
100
AcDbEntity
  8
200
100
AcDbLine
370
-1
  6
AUSGEZOGEN
 10
1405.8
 20
145
 30
0
 11
1400
 21
139.1
 31
0
  0
LINE
  5
266
100
AcDbEntity
  8
200
100
AcDbLine
370
-1
  6
AUSGEZOGEN
 10
1420
 20
139.1
 30
0
 11
1414.1
 21
145
 31
0
  0
LINE
  5
267
100
AcDbEntity
  8
200
100
AcDbLine
370
-1
  6
AUSGEZOGEN
 10
1414.1
 20
125
 30
0
 11
1420
 21
130.8
 31
0
  0
LINE
  5
268
100
AcDbEntity
  8
200
100
AcDbLine
370
-1
  6
AUSGEZOGEN
 10
1360
 20
130.8
 30
0
 11
1365.9
 21
125
 31
0
  0
LINE
  5
269
100
AcDbEntity
  8
200
100
AcDbLine
370
-1
  6
AUSGEZOGEN
 10
1365.9
 20
145
 30
0
 11
1360
 21
139.1
 31
0
  0
LINE
  5
26A
100
AcDbEntity
  8
200
100
AcDbLine
370
-1
  6
AUSGEZOGEN
 10
1380
 20
139.1
 30
0
 11
1374.2
 21
145
 31
0
  0
LINE
  5
26B
100
AcDbEntity
  8
200
100
AcDbLine
370
-1
  6
AUSGEZOGEN
 10
1374.2
 20
125
 30
0
 11
1380
 21
130.8
 31
0
  0
LINE
  5
26C
100
AcDbEntity
  8
200
100
AcDbLine
370
-1
  6
AUSGEZOGEN
 10
1320
 20
130.8
 30
0
 11
1325.8
 21
125
 31
0
  0
LINE
  5
26D
100
AcDbEntity
  8
200
100
AcDbLine
370
-1
  6
AUSGEZOGEN
 10
1325.8
 20
145
 30
0
 11
1320
 21
139.1
 31
0
  0
LINE
  5
26E
100
AcDbEntity
  8
200
100
AcDbLine
370
-1
  6
AUSGEZOGEN
 10
1340
 20
139.1
 30
0
 11
1334.1
 21
145
 31
0
  0
LINE
  5
26F
100
AcDbEntity
  8
200
100
AcDbLine
370
-1
  6
AUSGEZOGEN
 10
1334.1
 20
125
 30
0
 11
1340
 21
130.8
 31
0
  0
LINE
  5
270
100
AcDbEntity
  8
200
100
AcDbLine
370
-1
  6
AUSGEZOGEN
 10
1280
 20
130.8
 30
0
 11
1285.8
 21
125
 31
0
  0
LINE
  5
271
100
AcDbEntity
  8
200
100
AcDbLine
370
-1
  6
AUSGEZOGEN
 10
1285.8
 20
145
 30
0
 11
1280
 21
139.1
 31
0
  0
LINE
  5
272
100
AcDbEntity
  8
200
100
AcDbLine
370
-1
  6
AUSGEZOGEN
 10
1300
 20
139.1
 30
0
 11
1294.2
 21
145
 31
0
  0
LINE
  5
273
100
AcDbEntity
  8
200
100
AcDbLine
370
-1
  6
AUSGEZOGEN
 10
1294.2
 20
125
 30
0
 11
1300
 21
130.8
 31
0
  0
LINE
  5
274
100
AcDbEntity
  8
200
100
AcDbLine
370
-1
  6
AUSGEZOGEN
 10
1252.7
 20
382.3
 30
0
 11
1257.3
 21
385
 31
0
  0
LINE
  5
275
100
AcDbEntity
  8
200
100
AcDbLine
370
-1
  6
AUSGEZOGEN
 10
1250
 20
377.7
 30
0
 11
1252.7
 21
382.3
 31
0
  0
LINE
  5
276
100
AcDbEntity
  8
200
100
AcDbLine
370
-1
  6
AUSGEZOGEN
 10
1252.7
 20
87.7
 30
0
 11
1250
 21
92.3
 31
0
  0
LINE
  5
277
100
AcDbEntity
  8
200
100
AcDbLine
370
-1
  6
AUSGEZOGEN
 10
1257.3
 20
85
 30
0
 11
1252.7
 21
87.7
 31
0
  0
LINE
  5
278
100
AcDbEntity
  8
200
100
AcDbLine
370
-1
  6
AUSGEZOGEN
 10
2247.3
 20
87.7
 30
0
 11
2242.7
 21
85
 31
0
  0
LINE
  5
279
100
AcDbEntity
  8
200
100
AcDbLine
370
-1
  6
AUSGEZOGEN
 10
2250
 20
92.3
 30
0
 11
2247.3
 21
87.7
 31
0
  0
LINE
  5
27A
100
AcDbEntity
  8
200
100
AcDbLine
370
-1
  6
AUSGEZOGEN
 10
2247.3
 20
382.3
 30
0
 11
2250
 21
377.7
 31
0
  0
LINE
  5
27B
100
AcDbEntity
  8
200
100
AcDbLine
370
-1
  6
AUSGEZOGEN
 10
2242.7
 20
385
 30
0
 11
2247.3
 21
382.3
 31
0
  0
LINE
  5
27C
100
AcDbEntity
  8
200
100
AcDbLine
370
-1
  6
AUSGEZOGEN
 10
1285.8
 20
125
 30
0
 11
1294.2
 21
125
 31
0
  0
LINE
  5
27D
100
AcDbEntity
  8
200
100
AcDbLine
370
-1
  6
AUSGEZOGEN
 10
1300
 20
139.1
 30
0
 11
1300
 21
130.8
 31
0
  0
LINE
  5
27E
100
AcDbEntity
  8
200
100
AcDbLine
370
-1
  6
AUSGEZOGEN
 10
1285.8
 20
145
 30
0
 11
1294.2
 21
145
 31
0
  0
LINE
  5
27F
100
AcDbEntity
  8
200
100
AcDbLine
370
-1
  6
AUSGEZOGEN
 10
1280
 20
130.8
 30
0
 11
1280
 21
139.1
 31
0
  0
LINE
  5
280
100
AcDbEntity
  8
200
100
AcDbLine
370
-1
  6
AUSGEZOGEN
 10
1334.1
 20
125
 30
0
 11
1325.8
 21
125
 31
0
  0
LINE
  5
281
100
AcDbEntity
  8
200
100
AcDbLine
370
-1
  6
AUSGEZOGEN
 10
1340
 20
139.1
 30
0
 11
1340
 21
130.8
 31
0
  0
LINE
  5
282
100
AcDbEntity
  8
200
100
AcDbLine
370
-1
  6
AUSGEZOGEN
 10
1325.8
 20
145
 30
0
 11
1334.1
 21
145
 31
0
  0
LINE
  5
283
100
AcDbEntity
  8
200
100
AcDbLine
370
-1
  6
AUSGEZOGEN
 10
1320
 20
130.8
 30
0
 11
1320
 21
139.1
 31
0
  0
LINE
  5
284
100
AcDbEntity
  8
200
100
AcDbLine
370
-1
  6
AUSGEZOGEN
 10
1374.2
 20
125
 30
0
 11
1365.9
 21
125
 31
0
  0
LINE
  5
285
100
AcDbEntity
  8
200
100
AcDbLine
370
-1
  6
AUSGEZOGEN
 10
1380
 20
139.1
 30
0
 11
1380
 21
130.8
 31
0
  0
LINE
  5
286
100
AcDbEntity
  8
200
100
AcDbLine
370
-1
  6
AUSGEZOGEN
 10
1365.9
 20
145
 30
0
 11
1374.2
 21
145
 31
0
  0
LINE
  5
287
100
AcDbEntity
  8
200
100
AcDbLine
370
-1
  6
AUSGEZOGEN
 10
1360
 20
130.8
 30
0
 11
1360
 21
139.1
 31
0
  0
LINE
  5
288
100
AcDbEntity
  8
200
100
AcDbLine
370
-1
  6
AUSGEZOGEN
 10
1414.1
 20
125
 30
0
 11
1405.8
 21
125
 31
0
  0
LINE
  5
289
100
AcDbEntity
  8
200
100
AcDbLine
370
-1
  6
AUSGEZOGEN
 10
1420
 20
139.1
 30
0
 11
1420
 21
130.8
 31
0
  0
LINE
  5
28A
100
AcDbEntity
  8
200
100
AcDbLine
370
-1
  6
AUSGEZOGEN
 10
1405.8
 20
145
 30
0
 11
1414.1
 21
145
 31
0
  0
LINE
  5
28B
100
AcDbEntity
  8
200
100
AcDbLine
370
-1
  6
AUSGEZOGEN
 10
1400
 20
130.8
 30
0
 11
1400
 21
139.1
 31
0
  0
LINE
  5
28C
100
AcDbEntity
  8
200
100
AcDbLine
370
-1
  6
AUSGEZOGEN
 10
1454.1
 20
125
 30
0
 11
1445.9
 21
125
 31
0
  0
LINE
  5
28D
100
AcDbEntity
  8
200
100
AcDbLine
370
-1
  6
AUSGEZOGEN
 10
1460
 20
139.1
 30
0
 11
1460
 21
130.8
 31
0
  0
LINE
  5
28E
100
AcDbEntity
  8
200
100
AcDbLine
370
-1
  6
AUSGEZOGEN
 10
1445.9
 20
145
 30
0
 11
1454.1
 21
145
 31
0
  0
LINE
  5
28F
100
AcDbEntity
  8
200
100
AcDbLine
370
-1
  6
AUSGEZOGEN
 10
1440
 20
130.8
 30
0
 11
1440
 21
139.1
 31
0
  0
LINE
  5
290
100
AcDbEntity
  8
200
100
AcDbLine
370
-1
  6
AUSGEZOGEN
 10
1494.2
 20
125
 30
0
 11
1485.9
 21
125
 31
0
  0
LINE
  5
291
100
AcDbEntity
  8
200
100
AcDbLine
370
-1
  6
AUSGEZOGEN
 10
1500
 20
139.1
 30
0
 11
1500
 21
130.8
 31
0
  0
LINE
  5
292
100
AcDbEntity
  8
200
100
AcDbLine
370
-1
  6
AUSGEZOGEN
 10
1485.9
 20
145
 30
0
 11
1494.2
 21
145
 31
0
  0
LINE
  5
293
100
AcDbEntity
  8
200
100
AcDbLine
370
-1
  6
AUSGEZOGEN
 10
1480
 20
130.8
 30
0
 11
1480
 21
139.1
 31
0
  0
LINE
  5
294
100
AcDbEntity
  8
200
100
AcDbLine
370
-1
  6
AUSGEZOGEN
 10
1534.1
 20
125
 30
0
 11
1525.8
 21
125
 31
0
  0
LINE
  5
295
100
AcDbEntity
  8
200
100
AcDbLine
370
-1
  6
AUSGEZOGEN
 10
1540
 20
139.1
 30
0
 11
1540
 21
130.8
 31
0
  0
LINE
  5
296
100
AcDbEntity
  8
200
100
AcDbLine
370
-1
  6
AUSGEZOGEN
 10
1525.8
 20
145
 30
0
 11
1534.1
 21
145
 31
0
  0
LINE
  5
297
100
AcDbEntity
  8
200
100
AcDbLine
370
-1
  6
AUSGEZOGEN
 10
1520
 20
130.8
 30
0
 11
1520
 21
139.1
 31
0
  0
LINE
  5
298
100
AcDbEntity
  8
200
100
AcDbLine
370
-1
  6
AUSGEZOGEN
 10
1574.2
 20
125
 30
0
 11
1565.9
 21
125
 31
0
  0
LINE
  5
299
100
AcDbEntity
  8
200
100
AcDbLine
370
-1
  6
AUSGEZOGEN
 10
1580
 20
139.1
 30
0
 11
1580
 21
130.8
 31
0
  0
LINE
  5
29A
100
AcDbEntity
  8
200
100
AcDbLine
370
-1
  6
AUSGEZOGEN
 10
1565.9
 20
145
 30
0
 11
1574.2
 21
145
 31
0
  0
LINE
  5
29B
100
AcDbEntity
  8
200
100
AcDbLine
370
-1
  6
AUSGEZOGEN
 10
1560
 20
130.8
 30
0
 11
1560
 21
139.1
 31
0
  0
LINE
  5
29C
100
AcDbEntity
  8
200
100
AcDbLine
370
-1
  6
AUSGEZOGEN
 10
1614.1
 20
125
 30
0
 11
1605.8
 21
125
 31
0
  0
LINE
  5
29D
100
AcDbEntity
  8
200
100
AcDbLine
370
-1
  6
AUSGEZOGEN
 10
1620
 20
139.1
 30
0
 11
1620
 21
130.8
 31
0
  0
LINE
  5
29E
100
AcDbEntity
  8
200
100
AcDbLine
370
-1
  6
AUSGEZOGEN
 10
1605.8
 20
145
 30
0
 11
1614.1
 21
145
 31
0
  0
LINE
  5
29F
100
AcDbEntity
  8
200
100
AcDbLine
370
-1
  6
AUSGEZOGEN
 10
1600
 20
130.8
 30
0
 11
1600
 21
139.1
 31
0
  0
LINE
  5
2A0
100
AcDbEntity
  8
200
100
AcDbLine
370
-1
  6
AUSGEZOGEN
 10
1654.1
 20
125
 30
0
 11
1645.9
 21
125
 31
0
  0
LINE
  5
2A1
100
AcDbEntity
  8
200
100
AcDbLine
370
-1
  6
AUSGEZOGEN
 10
1660
 20
139.1
 30
0
 11
1660
 21
130.8
 31
0
  0
LINE
  5
2A2
100
AcDbEntity
  8
200
100
AcDbLine
370
-1
  6
AUSGEZOGEN
 10
1645.9
 20
145
 30
0
 11
1654.1
 21
145
 31
0
  0
LINE
  5
2A3
100
AcDbEntity
  8
200
100
AcDbLine
370
-1
  6
AUSGEZOGEN
 10
1640
 20
130.8
 30
0
 11
1640
 21
139.1
 31
0
  0
LINE
  5
2A4
100
AcDbEntity
  8
200
100
AcDbLine
370
-1
  6
AUSGEZOGEN
 10
1694.2
 20
125
 30
0
 11
1685.9
 21
125
 31
0
  0
LINE
  5
2A5
100
AcDbEntity
  8
200
100
AcDbLine
370
-1
  6
AUSGEZOGEN
 10
1700
 20
139.1
 30
0
 11
1700
 21
130.8
 31
0
  0
LINE
  5
2A6
100
AcDbEntity
  8
200
100
AcDbLine
370
-1
  6
AUSGEZOGEN
 10
1685.9
 20
145
 30
0
 11
1694.2
 21
145
 31
0
  0
LINE
  5
2A7
100
AcDbEntity
  8
200
100
AcDbLine
370
-1
  6
AUSGEZOGEN
 10
1680
 20
130.8
 30
0
 11
1680
 21
139.1
 31
0
  0
LINE
  5
2A8
100
AcDbEntity
  8
200
100
AcDbLine
370
-1
  6
AUSGEZOGEN
 10
1734.1
 20
125
 30
0
 11
1725.8
 21
125
 31
0
  0
LINE
  5
2A9
100
AcDbEntity
  8
200
100
AcDbLine
370
-1
  6
AUSGEZOGEN
 10
1740
 20
139.1
 30
0
 11
1740
 21
130.8
 31
0
  0
LINE
  5
2AA
100
AcDbEntity
  8
200
100
AcDbLine
370
-1
  6
AUSGEZOGEN
 10
1725.8
 20
145
 30
0
 11
1734.1
 21
145
 31
0
  0
LINE
  5
2AB
100
AcDbEntity
  8
200
100
AcDbLine
370
-1
  6
AUSGEZOGEN
 10
1720
 20
130.8
 30
0
 11
1720
 21
139.1
 31
0
  0
LINE
  5
2AC
100
AcDbEntity
  8
200
100
AcDbLine
370
-1
  6
AUSGEZOGEN
 10
1774.2
 20
125
 30
0
 11
1765.9
 21
125
 31
0
  0
LINE
  5
2AD
100
AcDbEntity
  8
200
100
AcDbLine
370
-1
  6
AUSGEZOGEN
 10
1780
 20
139.1
 30
0
 11
1780
 21
130.8
 31
0
  0
LINE
  5
2AE
100
AcDbEntity
  8
200
100
AcDbLine
370
-1
  6
AUSGEZOGEN
 10
1765.9
 20
145
 30
0
 11
1774.2
 21
145
 31
0
  0
LINE
  5
2AF
100
AcDbEntity
  8
200
100
AcDbLine
370
-1
  6
AUSGEZOGEN
 10
1760
 20
130.8
 30
0
 11
1760
 21
139.1
 31
0
  0
LINE
  5
2B0
100
AcDbEntity
  8
200
100
AcDbLine
370
-1
  6
AUSGEZOGEN
 10
1814.2
 20
125
 30
0
 11
1805.8
 21
125
 31
0
  0
LINE
  5
2B1
100
AcDbEntity
  8
200
100
AcDbLine
370
-1
  6
AUSGEZOGEN
 10
1820
 20
139.1
 30
0
 11
1820
 21
130.8
 31
0
  0
LINE
  5
2B2
100
AcDbEntity
  8
200
100
AcDbLine
370
-1
  6
AUSGEZOGEN
 10
1805.8
 20
145
 30
0
 11
1814.2
 21
145
 31
0
  0
LINE
  5
2B3
100
AcDbEntity
  8
200
100
AcDbLine
370
-1
  6
AUSGEZOGEN
 10
1800
 20
130.8
 30
0
 11
1800
 21
139.1
 31
0
  0
LINE
  5
2B4
100
AcDbEntity
  8
200
100
AcDbLine
370
-1
  6
AUSGEZOGEN
 10
1854.1
 20
125
 30
0
 11
1845.9
 21
125
 31
0
  0
LINE
  5
2B5
100
AcDbEntity
  8
200
100
AcDbLine
370
-1
  6
AUSGEZOGEN
 10
1860
 20
139.1
 30
0
 11
1860
 21
130.8
 31
0
  0
LINE
  5
2B6
100
AcDbEntity
  8
200
100
AcDbLine
370
-1
  6
AUSGEZOGEN
 10
1845.9
 20
145
 30
0
 11
1854.1
 21
145
 31
0
  0
LINE
  5
2B7
100
AcDbEntity
  8
200
100
AcDbLine
370
-1
  6
AUSGEZOGEN
 10
1840
 20
130.8
 30
0
 11
1840
 21
139.1
 31
0
  0
LINE
  5
2B8
100
AcDbEntity
  8
200
100
AcDbLine
370
-1
  6
AUSGEZOGEN
 10
1894.2
 20
125
 30
0
 11
1885.9
 21
125
 31
0
  0
LINE
  5
2B9
100
AcDbEntity
  8
200
100
AcDbLine
370
-1
  6
AUSGEZOGEN
 10
1900
 20
139.1
 30
0
 11
1900
 21
130.8
 31
0
  0
LINE
  5
2BA
100
AcDbEntity
  8
200
100
AcDbLine
370
-1
  6
AUSGEZOGEN
 10
1885.9
 20
145
 30
0
 11
1894.2
 21
145
 31
0
  0
LINE
  5
2BB
100
AcDbEntity
  8
200
100
AcDbLine
370
-1
  6
AUSGEZOGEN
 10
1880
 20
130.8
 30
0
 11
1880
 21
139.1
 31
0
  0
LINE
  5
2BC
100
AcDbEntity
  8
200
100
AcDbLine
370
-1
  6
AUSGEZOGEN
 10
1934.1
 20
125
 30
0
 11
1925.8
 21
125
 31
0
  0
LINE
  5
2BD
100
AcDbEntity
  8
200
100
AcDbLine
370
-1
  6
AUSGEZOGEN
 10
1940
 20
139.1
 30
0
 11
1940
 21
130.8
 31
0
  0
LINE
  5
2BE
100
AcDbEntity
  8
200
100
AcDbLine
370
-1
  6
AUSGEZOGEN
 10
1925.8
 20
145
 30
0
 11
1934.1
 21
145
 31
0
  0
LINE
  5
2BF
100
AcDbEntity
  8
200
100
AcDbLine
370
-1
  6
AUSGEZOGEN
 10
1920
 20
130.8
 30
0
 11
1920
 21
139.1
 31
0
  0
LINE
  5
2C0
100
AcDbEntity
  8
200
100
AcDbLine
370
-1
  6
AUSGEZOGEN
 10
1974.1
 20
125
 30
0
 11
1965.9
 21
125
 31
0
  0
LINE
  5
2C1
100
AcDbEntity
  8
200
100
AcDbLine
370
-1
  6
AUSGEZOGEN
 10
1980
 20
139.1
 30
0
 11
1980
 21
130.8
 31
0
  0
LINE
  5
2C2
100
AcDbEntity
  8
200
100
AcDbLine
370
-1
  6
AUSGEZOGEN
 10
1965.9
 20
145
 30
0
 11
1974.1
 21
145
 31
0
  0
LINE
  5
2C3
100
AcDbEntity
  8
200
100
AcDbLine
370
-1
  6
AUSGEZOGEN
 10
1960
 20
130.8
 30
0
 11
1960
 21
139.1
 31
0
  0
LINE
  5
2C4
100
AcDbEntity
  8
200
100
AcDbLine
370
-1
  6
AUSGEZOGEN
 10
2014.2
 20
125
 30
0
 11
2005.9
 21
125
 31
0
  0
LINE
  5
2C5
100
AcDbEntity
  8
200
100
AcDbLine
370
-1
  6
AUSGEZOGEN
 10
2020
 20
139.1
 30
0
 11
2020
 21
130.8
 31
0
  0
LINE
  5
2C6
100
AcDbEntity
  8
200
100
AcDbLine
370
-1
  6
AUSGEZOGEN
 10
2005.9
 20
145
 30
0
 11
2014.2
 21
145
 31
0
  0
LINE
  5
2C7
100
AcDbEntity
  8
200
100
AcDbLine
370
-1
  6
AUSGEZOGEN
 10
2000
 20
130.8
 30
0
 11
2000
 21
139.1
 31
0
  0
LINE
  5
2C8
100
AcDbEntity
  8
200
100
AcDbLine
370
-1
  6
AUSGEZOGEN
 10
2054.1
 20
125
 30
0
 11
2045.8
 21
125
 31
0
  0
LINE
  5
2C9
100
AcDbEntity
  8
200
100
AcDbLine
370
-1
  6
AUSGEZOGEN
 10
2060
 20
139.1
 30
0
 11
2060
 21
130.8
 31
0
  0
LINE
  5
2CA
100
AcDbEntity
  8
200
100
AcDbLine
370
-1
  6
AUSGEZOGEN
 10
2045.8
 20
145
 30
0
 11
2054.1
 21
145
 31
0
  0
LINE
  5
2CB
100
AcDbEntity
  8
200
100
AcDbLine
370
-1
  6
AUSGEZOGEN
 10
2040
 20
130.8
 30
0
 11
2040
 21
139.1
 31
0
  0
LINE
  5
2CC
100
AcDbEntity
  8
200
100
AcDbLine
370
-1
  6
AUSGEZOGEN
 10
2094.2
 20
125
 30
0
 11
2085.9
 21
125
 31
0
  0
LINE
  5
2CD
100
AcDbEntity
  8
200
100
AcDbLine
370
-1
  6
AUSGEZOGEN
 10
2100
 20
139.1
 30
0
 11
2100
 21
130.8
 31
0
  0
LINE
  5
2CE
100
AcDbEntity
  8
200
100
AcDbLine
370
-1
  6
AUSGEZOGEN
 10
2085.9
 20
145
 30
0
 11
2094.2
 21
145
 31
0
  0
LINE
  5
2CF
100
AcDbEntity
  8
200
100
AcDbLine
370
-1
  6
AUSGEZOGEN
 10
2080
 20
130.8
 30
0
 11
2080
 21
139.1
 31
0
  0
LINE
  5
2D0
100
AcDbEntity
  8
200
100
AcDbLine
370
-1
  6
AUSGEZOGEN
 10
2134.1
 20
125
 30
0
 11
2125.8
 21
125
 31
0
  0
LINE
  5
2D1
100
AcDbEntity
  8
200
100
AcDbLine
370
-1
  6
AUSGEZOGEN
 10
2140
 20
139.1
 30
0
 11
2140
 21
130.8
 31
0
  0
LINE
  5
2D2
100
AcDbEntity
  8
200
100
AcDbLine
370
-1
  6
AUSGEZOGEN
 10
2125.8
 20
145
 30
0
 11
2134.1
 21
145
 31
0
  0
LINE
  5
2D3
100
AcDbEntity
  8
200
100
AcDbLine
370
-1
  6
AUSGEZOGEN
 10
2120
 20
130.8
 30
0
 11
2120
 21
139.1
 31
0
  0
LINE
  5
2D4
100
AcDbEntity
  8
200
100
AcDbLine
370
-1
  6
AUSGEZOGEN
 10
2174.1
 20
125
 30
0
 11
2165.9
 21
125
 31
0
  0
LINE
  5
2D5
100
AcDbEntity
  8
200
100
AcDbLine
370
-1
  6
AUSGEZOGEN
 10
2180
 20
139.1
 30
0
 11
2180
 21
130.8
 31
0
  0
LINE
  5
2D6
100
AcDbEntity
  8
200
100
AcDbLine
370
-1
  6
AUSGEZOGEN
 10
2165.9
 20
145
 30
0
 11
2174.1
 21
145
 31
0
  0
LINE
  5
2D7
100
AcDbEntity
  8
200
100
AcDbLine
370
-1
  6
AUSGEZOGEN
 10
2160
 20
130.8
 30
0
 11
2160
 21
139.1
 31
0
  0
LINE
  5
2D8
100
AcDbEntity
  8
200
100
AcDbLine
370
-1
  6
AUSGEZOGEN
 10
2214.2
 20
125
 30
0
 11
2205.9
 21
125
 31
0
  0
LINE
  5
2D9
100
AcDbEntity
  8
200
100
AcDbLine
370
-1
  6
AUSGEZOGEN
 10
2220
 20
139.1
 30
0
 11
2220
 21
130.8
 31
0
  0
LINE
  5
2DA
100
AcDbEntity
  8
200
100
AcDbLine
370
-1
  6
AUSGEZOGEN
 10
2205.9
 20
145
 30
0
 11
2214.2
 21
145
 31
0
  0
LINE
  5
2DB
100
AcDbEntity
  8
200
100
AcDbLine
370
-1
  6
AUSGEZOGEN
 10
2200
 20
130.8
 30
0
 11
2200
 21
139.1
 31
0
  0
LINE
  5
2DC
100
AcDbEntity
  8
200
100
AcDbLine
370
-1
  6
AUSGEZOGEN
 10
1285.8
 20
165
 30
0
 11
1294.2
 21
165
 31
0
  0
LINE
  5
2DD
100
AcDbEntity
  8
200
100
AcDbLine
370
-1
  6
AUSGEZOGEN
 10
1300
 20
179.1
 30
0
 11
1300
 21
170.9
 31
0
  0
LINE
  5
2DE
100
AcDbEntity
  8
200
100
AcDbLine
370
-1
  6
AUSGEZOGEN
 10
1285.8
 20
185
 30
0
 11
1294.2
 21
185
 31
0
  0
LINE
  5
2DF
100
AcDbEntity
  8
200
100
AcDbLine
370
-1
  6
AUSGEZOGEN
 10
1280
 20
170.9
 30
0
 11
1280
 21
179.1
 31
0
  0
LINE
  5
2E0
100
AcDbEntity
  8
200
100
AcDbLine
370
-1
  6
AUSGEZOGEN
 10
1334.1
 20
165
 30
0
 11
1325.8
 21
165
 31
0
  0
LINE
  5
2E1
100
AcDbEntity
  8
200
100
AcDbLine
370
-1
  6
AUSGEZOGEN
 10
1340
 20
179.1
 30
0
 11
1340
 21
170.9
 31
0
  0
LINE
  5
2E2
100
AcDbEntity
  8
200
100
AcDbLine
370
-1
  6
AUSGEZOGEN
 10
1325.8
 20
185
 30
0
 11
1334.1
 21
185
 31
0
  0
LINE
  5
2E3
100
AcDbEntity
  8
200
100
AcDbLine
370
-1
  6
AUSGEZOGEN
 10
1320
 20
170.9
 30
0
 11
1320
 21
179.1
 31
0
  0
LINE
  5
2E4
100
AcDbEntity
  8
200
100
AcDbLine
370
-1
  6
AUSGEZOGEN
 10
1374.2
 20
165
 30
0
 11
1365.9
 21
165
 31
0
  0
LINE
  5
2E5
100
AcDbEntity
  8
200
100
AcDbLine
370
-1
  6
AUSGEZOGEN
 10
1380
 20
179.1
 30
0
 11
1380
 21
170.9
 31
0
  0
LINE
  5
2E6
100
AcDbEntity
  8
200
100
AcDbLine
370
-1
  6
AUSGEZOGEN
 10
1365.9
 20
185
 30
0
 11
1374.2
 21
185
 31
0
  0
LINE
  5
2E7
100
AcDbEntity
  8
200
100
AcDbLine
370
-1
  6
AUSGEZOGEN
 10
1360
 20
170.9
 30
0
 11
1360
 21
179.1
 31
0
  0
LINE
  5
2E8
100
AcDbEntity
  8
200
100
AcDbLine
370
-1
  6
AUSGEZOGEN
 10
1414.1
 20
165
 30
0
 11
1405.8
 21
165
 31
0
  0
LINE
  5
2E9
100
AcDbEntity
  8
200
100
AcDbLine
370
-1
  6
AUSGEZOGEN
 10
1420
 20
179.1
 30
0
 11
1420
 21
170.9
 31
0
  0
LINE
  5
2EA
100
AcDbEntity
  8
200
100
AcDbLine
370
-1
  6
AUSGEZOGEN
 10
1405.8
 20
185
 30
0
 11
1414.1
 21
185
 31
0
  0
LINE
  5
2EB
100
AcDbEntity
  8
200
100
AcDbLine
370
-1
  6
AUSGEZOGEN
 10
1400
 20
170.9
 30
0
 11
1400
 21
179.1
 31
0
  0
LINE
  5
2EC
100
AcDbEntity
  8
200
100
AcDbLine
370
-1
  6
AUSGEZOGEN
 10
1454.1
 20
165
 30
0
 11
1445.9
 21
165
 31
0
  0
LINE
  5
2ED
100
AcDbEntity
  8
200
100
AcDbLine
370
-1
  6
AUSGEZOGEN
 10
1460
 20
179.1
 30
0
 11
1460
 21
170.9
 31
0
  0
LINE
  5
2EE
100
AcDbEntity
  8
200
100
AcDbLine
370
-1
  6
AUSGEZOGEN
 10
1445.9
 20
185
 30
0
 11
1454.1
 21
185
 31
0
  0
LINE
  5
2EF
100
AcDbEntity
  8
200
100
AcDbLine
370
-1
  6
AUSGEZOGEN
 10
1440
 20
170.9
 30
0
 11
1440
 21
179.1
 31
0
  0
LINE
  5
2F0
100
AcDbEntity
  8
200
100
AcDbLine
370
-1
  6
AUSGEZOGEN
 10
1494.2
 20
165
 30
0
 11
1485.9
 21
165
 31
0
  0
LINE
  5
2F1
100
AcDbEntity
  8
200
100
AcDbLine
370
-1
  6
AUSGEZOGEN
 10
1500
 20
179.1
 30
0
 11
1500
 21
170.9
 31
0
  0
LINE
  5
2F2
100
AcDbEntity
  8
200
100
AcDbLine
370
-1
  6
AUSGEZOGEN
 10
1485.9
 20
185
 30
0
 11
1494.2
 21
185
 31
0
  0
LINE
  5
2F3
100
AcDbEntity
  8
200
100
AcDbLine
370
-1
  6
AUSGEZOGEN
 10
1480
 20
170.9
 30
0
 11
1480
 21
179.1
 31
0
  0
LINE
  5
2F4
100
AcDbEntity
  8
200
100
AcDbLine
370
-1
  6
AUSGEZOGEN
 10
1534.1
 20
165
 30
0
 11
1525.8
 21
165
 31
0
  0
LINE
  5
2F5
100
AcDbEntity
  8
200
100
AcDbLine
370
-1
  6
AUSGEZOGEN
 10
1540
 20
179.1
 30
0
 11
1540
 21
170.9
 31
0
  0
LINE
  5
2F6
100
AcDbEntity
  8
200
100
AcDbLine
370
-1
  6
AUSGEZOGEN
 10
1525.8
 20
185
 30
0
 11
1534.1
 21
185
 31
0
  0
LINE
  5
2F7
100
AcDbEntity
  8
200
100
AcDbLine
370
-1
  6
AUSGEZOGEN
 10
1520
 20
170.9
 30
0
 11
1520
 21
179.1
 31
0
  0
LINE
  5
2F8
100
AcDbEntity
  8
200
100
AcDbLine
370
-1
  6
AUSGEZOGEN
 10
1574.2
 20
165
 30
0
 11
1565.9
 21
165
 31
0
  0
LINE
  5
2F9
100
AcDbEntity
  8
200
100
AcDbLine
370
-1
  6
AUSGEZOGEN
 10
1580
 20
179.1
 30
0
 11
1580
 21
170.9
 31
0
  0
LINE
  5
2FA
100
AcDbEntity
  8
200
100
AcDbLine
370
-1
  6
AUSGEZOGEN
 10
1565.9
 20
185
 30
0
 11
1574.2
 21
185
 31
0
  0
LINE
  5
2FB
100
AcDbEntity
  8
200
100
AcDbLine
370
-1
  6
AUSGEZOGEN
 10
1560
 20
170.9
 30
0
 11
1560
 21
179.1
 31
0
  0
LINE
  5
2FC
100
AcDbEntity
  8
200
100
AcDbLine
370
-1
  6
AUSGEZOGEN
 10
1614.1
 20
165
 30
0
 11
1605.8
 21
165
 31
0
  0
LINE
  5
2FD
100
AcDbEntity
  8
200
100
AcDbLine
370
-1
  6
AUSGEZOGEN
 10
1620
 20
179.1
 30
0
 11
1620
 21
170.9
 31
0
  0
LINE
  5
2FE
100
AcDbEntity
  8
200
100
AcDbLine
370
-1
  6
AUSGEZOGEN
 10
1605.8
 20
185
 30
0
 11
1614.1
 21
185
 31
0
  0
LINE
  5
2FF
100
AcDbEntity
  8
200
100
AcDbLine
370
-1
  6
AUSGEZOGEN
 10
1600
 20
170.9
 30
0
 11
1600
 21
179.1
 31
0
  0
LINE
  5
300
100
AcDbEntity
  8
200
100
AcDbLine
370
-1
  6
AUSGEZOGEN
 10
1654.1
 20
165
 30
0
 11
1645.9
 21
165
 31
0
  0
LINE
  5
301
100
AcDbEntity
  8
200
100
AcDbLine
370
-1
  6
AUSGEZOGEN
 10
1660
 20
179.1
 30
0
 11
1660
 21
170.9
 31
0
  0
LINE
  5
302
100
AcDbEntity
  8
200
100
AcDbLine
370
-1
  6
AUSGEZOGEN
 10
1645.9
 20
185
 30
0
 11
1654.1
 21
185
 31
0
  0
LINE
  5
303
100
AcDbEntity
  8
200
100
AcDbLine
370
-1
  6
AUSGEZOGEN
 10
1640
 20
170.9
 30
0
 11
1640
 21
179.1
 31
0
  0
LINE
  5
304
100
AcDbEntity
  8
200
100
AcDbLine
370
-1
  6
AUSGEZOGEN
 10
1694.2
 20
165
 30
0
 11
1685.9
 21
165
 31
0
  0
LINE
  5
305
100
AcDbEntity
  8
200
100
AcDbLine
370
-1
  6
AUSGEZOGEN
 10
1700
 20
179.1
 30
0
 11
1700
 21
170.9
 31
0
  0
LINE
  5
306
100
AcDbEntity
  8
200
100
AcDbLine
370
-1
  6
AUSGEZOGEN
 10
1685.9
 20
185
 30
0
 11
1694.2
 21
185
 31
0
  0
LINE
  5
307
100
AcDbEntity
  8
200
100
AcDbLine
370
-1
  6
AUSGEZOGEN
 10
1680
 20
170.9
 30
0
 11
1680
 21
179.1
 31
0
  0
LINE
  5
308
100
AcDbEntity
  8
200
100
AcDbLine
370
-1
  6
AUSGEZOGEN
 10
1734.1
 20
165
 30
0
 11
1725.8
 21
165
 31
0
  0
LINE
  5
309
100
AcDbEntity
  8
200
100
AcDbLine
370
-1
  6
AUSGEZOGEN
 10
1740
 20
179.1
 30
0
 11
1740
 21
170.9
 31
0
  0
LINE
  5
30A
100
AcDbEntity
  8
200
100
AcDbLine
370
-1
  6
AUSGEZOGEN
 10
1725.8
 20
185
 30
0
 11
1734.1
 21
185
 31
0
  0
LINE
  5
30B
100
AcDbEntity
  8
200
100
AcDbLine
370
-1
  6
AUSGEZOGEN
 10
1720
 20
170.9
 30
0
 11
1720
 21
179.1
 31
0
  0
LINE
  5
30C
100
AcDbEntity
  8
200
100
AcDbLine
370
-1
  6
AUSGEZOGEN
 10
1774.2
 20
165
 30
0
 11
1765.9
 21
165
 31
0
  0
LINE
  5
30D
100
AcDbEntity
  8
200
100
AcDbLine
370
-1
  6
AUSGEZOGEN
 10
1780
 20
179.1
 30
0
 11
1780
 21
170.9
 31
0
  0
LINE
  5
30E
100
AcDbEntity
  8
200
100
AcDbLine
370
-1
  6
AUSGEZOGEN
 10
1765.9
 20
185
 30
0
 11
1774.2
 21
185
 31
0
  0
LINE
  5
30F
100
AcDbEntity
  8
200
100
AcDbLine
370
-1
  6
AUSGEZOGEN
 10
1760
 20
170.9
 30
0
 11
1760
 21
179.1
 31
0
  0
LINE
  5
310
100
AcDbEntity
  8
200
100
AcDbLine
370
-1
  6
AUSGEZOGEN
 10
1814.2
 20
165
 30
0
 11
1805.8
 21
165
 31
0
  0
LINE
  5
311
100
AcDbEntity
  8
200
100
AcDbLine
370
-1
  6
AUSGEZOGEN
 10
1820
 20
179.1
 30
0
 11
1820
 21
170.9
 31
0
  0
LINE
  5
312
100
AcDbEntity
  8
200
100
AcDbLine
370
-1
  6
AUSGEZOGEN
 10
1805.8
 20
185
 30
0
 11
1814.2
 21
185
 31
0
  0
LINE
  5
313
100
AcDbEntity
  8
200
100
AcDbLine
370
-1
  6
AUSGEZOGEN
 10
1800
 20
170.9
 30
0
 11
1800
 21
179.1
 31
0
  0
LINE
  5
314
100
AcDbEntity
  8
200
100
AcDbLine
370
-1
  6
AUSGEZOGEN
 10
1854.1
 20
165
 30
0
 11
1845.9
 21
165
 31
0
  0
LINE
  5
315
100
AcDbEntity
  8
200
100
AcDbLine
370
-1
  6
AUSGEZOGEN
 10
1860
 20
179.1
 30
0
 11
1860
 21
170.9
 31
0
  0
LINE
  5
316
100
AcDbEntity
  8
200
100
AcDbLine
370
-1
  6
AUSGEZOGEN
 10
1845.9
 20
185
 30
0
 11
1854.1
 21
185
 31
0
  0
LINE
  5
317
100
AcDbEntity
  8
200
100
AcDbLine
370
-1
  6
AUSGEZOGEN
 10
1840
 20
170.9
 30
0
 11
1840
 21
179.1
 31
0
  0
LINE
  5
318
100
AcDbEntity
  8
200
100
AcDbLine
370
-1
  6
AUSGEZOGEN
 10
1894.2
 20
165
 30
0
 11
1885.9
 21
165
 31
0
  0
LINE
  5
319
100
AcDbEntity
  8
200
100
AcDbLine
370
-1
  6
AUSGEZOGEN
 10
1900
 20
179.1
 30
0
 11
1900
 21
170.9
 31
0
  0
LINE
  5
31A
100
AcDbEntity
  8
200
100
AcDbLine
370
-1
  6
AUSGEZOGEN
 10
1885.9
 20
185
 30
0
 11
1894.2
 21
185
 31
0
  0
LINE
  5
31B
100
AcDbEntity
  8
200
100
AcDbLine
370
-1
  6
AUSGEZOGEN
 10
1880
 20
170.9
 30
0
 11
1880
 21
179.1
 31
0
  0
LINE
  5
31C
100
AcDbEntity
  8
200
100
AcDbLine
370
-1
  6
AUSGEZOGEN
 10
1934.1
 20
165
 30
0
 11
1925.8
 21
165
 31
0
  0
LINE
  5
31D
100
AcDbEntity
  8
200
100
AcDbLine
370
-1
  6
AUSGEZOGEN
 10
1940
 20
179.1
 30
0
 11
1940
 21
170.9
 31
0
  0
LINE
  5
31E
100
AcDbEntity
  8
200
100
AcDbLine
370
-1
  6
AUSGEZOGEN
 10
1925.8
 20
185
 30
0
 11
1934.1
 21
185
 31
0
  0
LINE
  5
31F
100
AcDbEntity
  8
200
100
AcDbLine
370
-1
  6
AUSGEZOGEN
 10
1920
 20
170.9
 30
0
 11
1920
 21
179.1
 31
0
  0
LINE
  5
320
100
AcDbEntity
  8
200
100
AcDbLine
370
-1
  6
AUSGEZOGEN
 10
1974.1
 20
165
 30
0
 11
1965.9
 21
165
 31
0
  0
LINE
  5
321
100
AcDbEntity
  8
200
100
AcDbLine
370
-1
  6
AUSGEZOGEN
 10
1980
 20
179.1
 30
0
 11
1980
 21
170.9
 31
0
  0
LINE
  5
322
100
AcDbEntity
  8
200
100
AcDbLine
370
-1
  6
AUSGEZOGEN
 10
1965.9
 20
185
 30
0
 11
1974.1
 21
185
 31
0
  0
LINE
  5
323
100
AcDbEntity
  8
200
100
AcDbLine
370
-1
  6
AUSGEZOGEN
 10
1960
 20
170.9
 30
0
 11
1960
 21
179.1
 31
0
  0
LINE
  5
324
100
AcDbEntity
  8
200
100
AcDbLine
370
-1
  6
AUSGEZOGEN
 10
2014.2
 20
165
 30
0
 11
2005.9
 21
165
 31
0
  0
LINE
  5
325
100
AcDbEntity
  8
200
100
AcDbLine
370
-1
  6
AUSGEZOGEN
 10
2020
 20
179.1
 30
0
 11
2020
 21
170.9
 31
0
  0
LINE
  5
326
100
AcDbEntity
  8
200
100
AcDbLine
370
-1
  6
AUSGEZOGEN
 10
2005.9
 20
185
 30
0
 11
2014.2
 21
185
 31
0
  0
LINE
  5
327
100
AcDbEntity
  8
200
100
AcDbLine
370
-1
  6
AUSGEZOGEN
 10
2000
 20
170.9
 30
0
 11
2000
 21
179.1
 31
0
  0
LINE
  5
328
100
AcDbEntity
  8
200
100
AcDbLine
370
-1
  6
AUSGEZOGEN
 10
2054.1
 20
165
 30
0
 11
2045.8
 21
165
 31
0
  0
LINE
  5
329
100
AcDbEntity
  8
200
100
AcDbLine
370
-1
  6
AUSGEZOGEN
 10
2060
 20
179.1
 30
0
 11
2060
 21
170.9
 31
0
  0
LINE
  5
32A
100
AcDbEntity
  8
200
100
AcDbLine
370
-1
  6
AUSGEZOGEN
 10
2045.8
 20
185
 30
0
 11
2054.1
 21
185
 31
0
  0
LINE
  5
32B
100
AcDbEntity
  8
200
100
AcDbLine
370
-1
  6
AUSGEZOGEN
 10
2040
 20
170.9
 30
0
 11
2040
 21
179.1
 31
0
  0
LINE
  5
32C
100
AcDbEntity
  8
200
100
AcDbLine
370
-1
  6
AUSGEZOGEN
 10
2094.2
 20
165
 30
0
 11
2085.9
 21
165
 31
0
  0
LINE
  5
32D
100
AcDbEntity
  8
200
100
AcDbLine
370
-1
  6
AUSGEZOGEN
 10
2100
 20
179.1
 30
0
 11
2100
 21
170.9
 31
0
  0
LINE
  5
32E
100
AcDbEntity
  8
200
100
AcDbLine
370
-1
  6
AUSGEZOGEN
 10
2085.9
 20
185
 30
0
 11
2094.2
 21
185
 31
0
  0
LINE
  5
32F
100
AcDbEntity
  8
200
100
AcDbLine
370
-1
  6
AUSGEZOGEN
 10
2080
 20
170.9
 30
0
 11
2080
 21
179.1
 31
0
  0
LINE
  5
330
100
AcDbEntity
  8
200
100
AcDbLine
370
-1
  6
AUSGEZOGEN
 10
2134.1
 20
165
 30
0
 11
2125.8
 21
165
 31
0
  0
LINE
  5
331
100
AcDbEntity
  8
200
100
AcDbLine
370
-1
  6
AUSGEZOGEN
 10
2140
 20
179.1
 30
0
 11
2140
 21
170.9
 31
0
  0
LINE
  5
332
100
AcDbEntity
  8
200
100
AcDbLine
370
-1
  6
AUSGEZOGEN
 10
2125.8
 20
185
 30
0
 11
2134.1
 21
185
 31
0
  0
LINE
  5
333
100
AcDbEntity
  8
200
100
AcDbLine
370
-1
  6
AUSGEZOGEN
 10
2120
 20
170.9
 30
0
 11
2120
 21
179.1
 31
0
  0
LINE
  5
334
100
AcDbEntity
  8
200
100
AcDbLine
370
-1
  6
AUSGEZOGEN
 10
2174.1
 20
165
 30
0
 11
2165.9
 21
165
 31
0
  0
LINE
  5
335
100
AcDbEntity
  8
200
100
AcDbLine
370
-1
  6
AUSGEZOGEN
 10
2180
 20
179.1
 30
0
 11
2180
 21
170.9
 31
0
  0
LINE
  5
336
100
AcDbEntity
  8
200
100
AcDbLine
370
-1
  6
AUSGEZOGEN
 10
2165.9
 20
185
 30
0
 11
2174.1
 21
185
 31
0
  0
LINE
  5
337
100
AcDbEntity
  8
200
100
AcDbLine
370
-1
  6
AUSGEZOGEN
 10
2160
 20
170.9
 30
0
 11
2160
 21
179.1
 31
0
  0
LINE
  5
338
100
AcDbEntity
  8
200
100
AcDbLine
370
-1
  6
AUSGEZOGEN
 10
2214.2
 20
165
 30
0
 11
2205.9
 21
165
 31
0
  0
LINE
  5
339
100
AcDbEntity
  8
200
100
AcDbLine
370
-1
  6
AUSGEZOGEN
 10
2220
 20
179.1
 30
0
 11
2220
 21
170.9
 31
0
  0
LINE
  5
33A
100
AcDbEntity
  8
200
100
AcDbLine
370
-1
  6
AUSGEZOGEN
 10
2205.9
 20
185
 30
0
 11
2214.2
 21
185
 31
0
  0
LINE
  5
33B
100
AcDbEntity
  8
200
100
AcDbLine
370
-1
  6
AUSGEZOGEN
 10
2200
 20
170.9
 30
0
 11
2200
 21
179.1
 31
0
  0
LINE
  5
33C
100
AcDbEntity
  8
200
100
AcDbLine
370
-1
  6
AUSGEZOGEN
 10
1285.8
 20
205
 30
0
 11
1294.2
 21
205
 31
0
  0
LINE
  5
33D
100
AcDbEntity
  8
200
100
AcDbLine
370
-1
  6
AUSGEZOGEN
 10
1300
 20
219.2
 30
0
 11
1300
 21
210.9
 31
0
  0
LINE
  5
33E
100
AcDbEntity
  8
200
100
AcDbLine
370
-1
  6
AUSGEZOGEN
 10
1285.8
 20
225
 30
0
 11
1294.2
 21
225
 31
0
  0
LINE
  5
33F
100
AcDbEntity
  8
200
100
AcDbLine
370
-1
  6
AUSGEZOGEN
 10
1280
 20
210.9
 30
0
 11
1280
 21
219.2
 31
0
  0
LINE
  5
340
100
AcDbEntity
  8
200
100
AcDbLine
370
-1
  6
AUSGEZOGEN
 10
1334.1
 20
205
 30
0
 11
1325.8
 21
205
 31
0
  0
LINE
  5
341
100
AcDbEntity
  8
200
100
AcDbLine
370
-1
  6
AUSGEZOGEN
 10
1340
 20
219.2
 30
0
 11
1340
 21
210.9
 31
0
  0
LINE
  5
342
100
AcDbEntity
  8
200
100
AcDbLine
370
-1
  6
AUSGEZOGEN
 10
1325.8
 20
225
 30
0
 11
1334.1
 21
225
 31
0
  0
LINE
  5
343
100
AcDbEntity
  8
200
100
AcDbLine
370
-1
  6
AUSGEZOGEN
 10
1320
 20
210.9
 30
0
 11
1320
 21
219.2
 31
0
  0
LINE
  5
344
100
AcDbEntity
  8
200
100
AcDbLine
370
-1
  6
AUSGEZOGEN
 10
1374.2
 20
205
 30
0
 11
1365.9
 21
205
 31
0
  0
LINE
  5
345
100
AcDbEntity
  8
200
100
AcDbLine
370
-1
  6
AUSGEZOGEN
 10
1380
 20
219.2
 30
0
 11
1380
 21
210.9
 31
0
  0
LINE
  5
346
100
AcDbEntity
  8
200
100
AcDbLine
370
-1
  6
AUSGEZOGEN
 10
1365.9
 20
225
 30
0
 11
1374.2
 21
225
 31
0
  0
LINE
  5
347
100
AcDbEntity
  8
200
100
AcDbLine
370
-1
  6
AUSGEZOGEN
 10
1360
 20
210.9
 30
0
 11
1360
 21
219.2
 31
0
  0
LINE
  5
348
100
AcDbEntity
  8
200
100
AcDbLine
370
-1
  6
AUSGEZOGEN
 10
1414.1
 20
205
 30
0
 11
1405.8
 21
205
 31
0
  0
LINE
  5
349
100
AcDbEntity
  8
200
100
AcDbLine
370
-1
  6
AUSGEZOGEN
 10
1420
 20
219.2
 30
0
 11
1420
 21
210.9
 31
0
  0
LINE
  5
34A
100
AcDbEntity
  8
200
100
AcDbLine
370
-1
  6
AUSGEZOGEN
 10
1405.8
 20
225
 30
0
 11
1414.1
 21
225
 31
0
  0
LINE
  5
34B
100
AcDbEntity
  8
200
100
AcDbLine
370
-1
  6
AUSGEZOGEN
 10
1400
 20
210.9
 30
0
 11
1400
 21
219.2
 31
0
  0
LINE
  5
34C
100
AcDbEntity
  8
200
100
AcDbLine
370
-1
  6
AUSGEZOGEN
 10
1454.1
 20
205
 30
0
 11
1445.9
 21
205
 31
0
  0
LINE
  5
34D
100
AcDbEntity
  8
200
100
AcDbLine
370
-1
  6
AUSGEZOGEN
 10
1460
 20
219.2
 30
0
 11
1460
 21
210.9
 31
0
  0
LINE
  5
34E
100
AcDbEntity
  8
200
100
AcDbLine
370
-1
  6
AUSGEZOGEN
 10
1445.9
 20
225
 30
0
 11
1454.1
 21
225
 31
0
  0
LINE
  5
34F
100
AcDbEntity
  8
200
100
AcDbLine
370
-1
  6
AUSGEZOGEN
 10
1440
 20
210.9
 30
0
 11
1440
 21
219.2
 31
0
  0
LINE
  5
350
100
AcDbEntity
  8
200
100
AcDbLine
370
-1
  6
AUSGEZOGEN
 10
1494.2
 20
205
 30
0
 11
1485.9
 21
205
 31
0
  0
LINE
  5
351
100
AcDbEntity
  8
200
100
AcDbLine
370
-1
  6
AUSGEZOGEN
 10
1500
 20
219.2
 30
0
 11
1500
 21
210.9
 31
0
  0
LINE
  5
352
100
AcDbEntity
  8
200
100
AcDbLine
370
-1
  6
AUSGEZOGEN
 10
1485.9
 20
225
 30
0
 11
1494.2
 21
225
 31
0
  0
LINE
  5
353
100
AcDbEntity
  8
200
100
AcDbLine
370
-1
  6
AUSGEZOGEN
 10
1480
 20
210.9
 30
0
 11
1480
 21
219.2
 31
0
  0
LINE
  5
354
100
AcDbEntity
  8
200
100
AcDbLine
370
-1
  6
AUSGEZOGEN
 10
1534.1
 20
205
 30
0
 11
1525.8
 21
205
 31
0
  0
LINE
  5
355
100
AcDbEntity
  8
200
100
AcDbLine
370
-1
  6
AUSGEZOGEN
 10
1540
 20
219.2
 30
0
 11
1540
 21
210.9
 31
0
  0
LINE
  5
356
100
AcDbEntity
  8
200
100
AcDbLine
370
-1
  6
AUSGEZOGEN
 10
1525.8
 20
225
 30
0
 11
1534.1
 21
225
 31
0
  0
LINE
  5
357
100
AcDbEntity
  8
200
100
AcDbLine
370
-1
  6
AUSGEZOGEN
 10
1520
 20
210.9
 30
0
 11
1520
 21
219.2
 31
0
  0
LINE
  5
358
100
AcDbEntity
  8
200
100
AcDbLine
370
-1
  6
AUSGEZOGEN
 10
1574.2
 20
205
 30
0
 11
1565.9
 21
205
 31
0
  0
LINE
  5
359
100
AcDbEntity
  8
200
100
AcDbLine
370
-1
  6
AUSGEZOGEN
 10
1580
 20
219.2
 30
0
 11
1580
 21
210.9
 31
0
  0
LINE
  5
35A
100
AcDbEntity
  8
200
100
AcDbLine
370
-1
  6
AUSGEZOGEN
 10
1565.9
 20
225
 30
0
 11
1574.2
 21
225
 31
0
  0
LINE
  5
35B
100
AcDbEntity
  8
200
100
AcDbLine
370
-1
  6
AUSGEZOGEN
 10
1560
 20
210.9
 30
0
 11
1560
 21
219.2
 31
0
  0
LINE
  5
35C
100
AcDbEntity
  8
200
100
AcDbLine
370
-1
  6
AUSGEZOGEN
 10
1614.1
 20
205
 30
0
 11
1605.8
 21
205
 31
0
  0
LINE
  5
35D
100
AcDbEntity
  8
200
100
AcDbLine
370
-1
  6
AUSGEZOGEN
 10
1620
 20
219.2
 30
0
 11
1620
 21
210.9
 31
0
  0
LINE
  5
35E
100
AcDbEntity
  8
200
100
AcDbLine
370
-1
  6
AUSGEZOGEN
 10
1605.8
 20
225
 30
0
 11
1614.1
 21
225
 31
0
  0
LINE
  5
35F
100
AcDbEntity
  8
200
100
AcDbLine
370
-1
  6
AUSGEZOGEN
 10
1600
 20
210.9
 30
0
 11
1600
 21
219.2
 31
0
  0
LINE
  5
360
100
AcDbEntity
  8
200
100
AcDbLine
370
-1
  6
AUSGEZOGEN
 10
1654.1
 20
205
 30
0
 11
1645.9
 21
205
 31
0
  0
LINE
  5
361
100
AcDbEntity
  8
200
100
AcDbLine
370
-1
  6
AUSGEZOGEN
 10
1660
 20
219.2
 30
0
 11
1660
 21
210.9
 31
0
  0
LINE
  5
362
100
AcDbEntity
  8
200
100
AcDbLine
370
-1
  6
AUSGEZOGEN
 10
1645.9
 20
225
 30
0
 11
1654.1
 21
225
 31
0
  0
LINE
  5
363
100
AcDbEntity
  8
200
100
AcDbLine
370
-1
  6
AUSGEZOGEN
 10
1640
 20
210.9
 30
0
 11
1640
 21
219.2
 31
0
  0
LINE
  5
364
100
AcDbEntity
  8
200
100
AcDbLine
370
-1
  6
AUSGEZOGEN
 10
1694.2
 20
205
 30
0
 11
1685.9
 21
205
 31
0
  0
LINE
  5
365
100
AcDbEntity
  8
200
100
AcDbLine
370
-1
  6
AUSGEZOGEN
 10
1700
 20
219.2
 30
0
 11
1700
 21
210.9
 31
0
  0
LINE
  5
366
100
AcDbEntity
  8
200
100
AcDbLine
370
-1
  6
AUSGEZOGEN
 10
1685.9
 20
225
 30
0
 11
1694.2
 21
225
 31
0
  0
LINE
  5
367
100
AcDbEntity
  8
200
100
AcDbLine
370
-1
  6
AUSGEZOGEN
 10
1680
 20
210.9
 30
0
 11
1680
 21
219.2
 31
0
  0
LINE
  5
368
100
AcDbEntity
  8
200
100
AcDbLine
370
-1
  6
AUSGEZOGEN
 10
1734.1
 20
205
 30
0
 11
1725.8
 21
205
 31
0
  0
LINE
  5
369
100
AcDbEntity
  8
200
100
AcDbLine
370
-1
  6
AUSGEZOGEN
 10
1740
 20
219.2
 30
0
 11
1740
 21
210.9
 31
0
  0
LINE
  5
36A
100
AcDbEntity
  8
200
100
AcDbLine
370
-1
  6
AUSGEZOGEN
 10
1725.8
 20
225
 30
0
 11
1734.1
 21
225
 31
0
  0
LINE
  5
36B
100
AcDbEntity
  8
200
100
AcDbLine
370
-1
  6
AUSGEZOGEN
 10
1720
 20
210.9
 30
0
 11
1720
 21
219.2
 31
0
  0
LINE
  5
36C
100
AcDbEntity
  8
200
100
AcDbLine
370
-1
  6
AUSGEZOGEN
 10
1774.2
 20
205
 30
0
 11
1765.9
 21
205
 31
0
  0
LINE
  5
36D
100
AcDbEntity
  8
200
100
AcDbLine
370
-1
  6
AUSGEZOGEN
 10
1780
 20
219.2
 30
0
 11
1780
 21
210.9
 31
0
  0
LINE
  5
36E
100
AcDbEntity
  8
200
100
AcDbLine
370
-1
  6
AUSGEZOGEN
 10
1765.9
 20
225
 30
0
 11
1774.2
 21
225
 31
0
  0
LINE
  5
36F
100
AcDbEntity
  8
200
100
AcDbLine
370
-1
  6
AUSGEZOGEN
 10
1760
 20
210.9
 30
0
 11
1760
 21
219.2
 31
0
  0
LINE
  5
370
100
AcDbEntity
  8
200
100
AcDbLine
370
-1
  6
AUSGEZOGEN
 10
1814.2
 20
205
 30
0
 11
1805.8
 21
205
 31
0
  0
LINE
  5
371
100
AcDbEntity
  8
200
100
AcDbLine
370
-1
  6
AUSGEZOGEN
 10
1820
 20
219.2
 30
0
 11
1820
 21
210.9
 31
0
  0
LINE
  5
372
100
AcDbEntity
  8
200
100
AcDbLine
370
-1
  6
AUSGEZOGEN
 10
1805.8
 20
225
 30
0
 11
1814.2
 21
225
 31
0
  0
LINE
  5
373
100
AcDbEntity
  8
200
100
AcDbLine
370
-1
  6
AUSGEZOGEN
 10
1800
 20
210.9
 30
0
 11
1800
 21
219.2
 31
0
  0
LINE
  5
374
100
AcDbEntity
  8
200
100
AcDbLine
370
-1
  6
AUSGEZOGEN
 10
1854.1
 20
205
 30
0
 11
1845.9
 21
205
 31
0
  0
LINE
  5
375
100
AcDbEntity
  8
200
100
AcDbLine
370
-1
  6
AUSGEZOGEN
 10
1860
 20
219.2
 30
0
 11
1860
 21
210.9
 31
0
  0
LINE
  5
376
100
AcDbEntity
  8
200
100
AcDbLine
370
-1
  6
AUSGEZOGEN
 10
1845.9
 20
225
 30
0
 11
1854.1
 21
225
 31
0
  0
LINE
  5
377
100
AcDbEntity
  8
200
100
AcDbLine
370
-1
  6
AUSGEZOGEN
 10
1840
 20
210.9
 30
0
 11
1840
 21
219.2
 31
0
  0
LINE
  5
378
100
AcDbEntity
  8
200
100
AcDbLine
370
-1
  6
AUSGEZOGEN
 10
1894.2
 20
205
 30
0
 11
1885.9
 21
205
 31
0
  0
LINE
  5
379
100
AcDbEntity
  8
200
100
AcDbLine
370
-1
  6
AUSGEZOGEN
 10
1900
 20
219.2
 30
0
 11
1900
 21
210.9
 31
0
  0
LINE
  5
37A
100
AcDbEntity
  8
200
100
AcDbLine
370
-1
  6
AUSGEZOGEN
 10
1885.9
 20
225
 30
0
 11
1894.2
 21
225
 31
0
  0
LINE
  5
37B
100
AcDbEntity
  8
200
100
AcDbLine
370
-1
  6
AUSGEZOGEN
 10
1880
 20
210.9
 30
0
 11
1880
 21
219.2
 31
0
  0
LINE
  5
37C
100
AcDbEntity
  8
200
100
AcDbLine
370
-1
  6
AUSGEZOGEN
 10
1934.1
 20
205
 30
0
 11
1925.8
 21
205
 31
0
  0
LINE
  5
37D
100
AcDbEntity
  8
200
100
AcDbLine
370
-1
  6
AUSGEZOGEN
 10
1940
 20
219.2
 30
0
 11
1940
 21
210.9
 31
0
  0
LINE
  5
37E
100
AcDbEntity
  8
200
100
AcDbLine
370
-1
  6
AUSGEZOGEN
 10
1925.8
 20
225
 30
0
 11
1934.1
 21
225
 31
0
  0
LINE
  5
37F
100
AcDbEntity
  8
200
100
AcDbLine
370
-1
  6
AUSGEZOGEN
 10
1920
 20
210.9
 30
0
 11
1920
 21
219.2
 31
0
  0
LINE
  5
380
100
AcDbEntity
  8
200
100
AcDbLine
370
-1
  6
AUSGEZOGEN
 10
1974.1
 20
205
 30
0
 11
1965.9
 21
205
 31
0
  0
LINE
  5
381
100
AcDbEntity
  8
200
100
AcDbLine
370
-1
  6
AUSGEZOGEN
 10
1980
 20
219.2
 30
0
 11
1980
 21
210.9
 31
0
  0
LINE
  5
382
100
AcDbEntity
  8
200
100
AcDbLine
370
-1
  6
AUSGEZOGEN
 10
1965.9
 20
225
 30
0
 11
1974.1
 21
225
 31
0
  0
LINE
  5
383
100
AcDbEntity
  8
200
100
AcDbLine
370
-1
  6
AUSGEZOGEN
 10
1960
 20
210.9
 30
0
 11
1960
 21
219.2
 31
0
  0
LINE
  5
384
100
AcDbEntity
  8
200
100
AcDbLine
370
-1
  6
AUSGEZOGEN
 10
2014.2
 20
205
 30
0
 11
2005.9
 21
205
 31
0
  0
LINE
  5
385
100
AcDbEntity
  8
200
100
AcDbLine
370
-1
  6
AUSGEZOGEN
 10
2020
 20
219.2
 30
0
 11
2020
 21
210.9
 31
0
  0
LINE
  5
386
100
AcDbEntity
  8
200
100
AcDbLine
370
-1
  6
AUSGEZOGEN
 10
2005.9
 20
225
 30
0
 11
2014.2
 21
225
 31
0
  0
LINE
  5
387
100
AcDbEntity
  8
200
100
AcDbLine
370
-1
  6
AUSGEZOGEN
 10
2000
 20
210.9
 30
0
 11
2000
 21
219.2
 31
0
  0
LINE
  5
388
100
AcDbEntity
  8
200
100
AcDbLine
370
-1
  6
AUSGEZOGEN
 10
2054.1
 20
205
 30
0
 11
2045.8
 21
205
 31
0
  0
LINE
  5
389
100
AcDbEntity
  8
200
100
AcDbLine
370
-1
  6
AUSGEZOGEN
 10
2060
 20
219.2
 30
0
 11
2060
 21
210.9
 31
0
  0
LINE
  5
38A
100
AcDbEntity
  8
200
100
AcDbLine
370
-1
  6
AUSGEZOGEN
 10
2045.8
 20
225
 30
0
 11
2054.1
 21
225
 31
0
  0
LINE
  5
38B
100
AcDbEntity
  8
200
100
AcDbLine
370
-1
  6
AUSGEZOGEN
 10
2040
 20
210.9
 30
0
 11
2040
 21
219.2
 31
0
  0
LINE
  5
38C
100
AcDbEntity
  8
200
100
AcDbLine
370
-1
  6
AUSGEZOGEN
 10
2094.2
 20
205
 30
0
 11
2085.9
 21
205
 31
0
  0
LINE
  5
38D
100
AcDbEntity
  8
200
100
AcDbLine
370
-1
  6
AUSGEZOGEN
 10
2100
 20
219.2
 30
0
 11
2100
 21
210.9
 31
0
  0
LINE
  5
38E
100
AcDbEntity
  8
200
100
AcDbLine
370
-1
  6
AUSGEZOGEN
 10
2085.9
 20
225
 30
0
 11
2094.2
 21
225
 31
0
  0
LINE
  5
38F
100
AcDbEntity
  8
200
100
AcDbLine
370
-1
  6
AUSGEZOGEN
 10
2080
 20
210.9
 30
0
 11
2080
 21
219.2
 31
0
  0
LINE
  5
390
100
AcDbEntity
  8
200
100
AcDbLine
370
-1
  6
AUSGEZOGEN
 10
2134.1
 20
205
 30
0
 11
2125.8
 21
205
 31
0
  0
LINE
  5
391
100
AcDbEntity
  8
200
100
AcDbLine
370
-1
  6
AUSGEZOGEN
 10
2140
 20
219.2
 30
0
 11
2140
 21
210.9
 31
0
  0
LINE
  5
392
100
AcDbEntity
  8
200
100
AcDbLine
370
-1
  6
AUSGEZOGEN
 10
2125.8
 20
225
 30
0
 11
2134.1
 21
225
 31
0
  0
LINE
  5
393
100
AcDbEntity
  8
200
100
AcDbLine
370
-1
  6
AUSGEZOGEN
 10
2120
 20
210.9
 30
0
 11
2120
 21
219.2
 31
0
  0
LINE
  5
394
100
AcDbEntity
  8
200
100
AcDbLine
370
-1
  6
AUSGEZOGEN
 10
2174.1
 20
205
 30
0
 11
2165.9
 21
205
 31
0
  0
LINE
  5
395
100
AcDbEntity
  8
200
100
AcDbLine
370
-1
  6
AUSGEZOGEN
 10
2180
 20
219.2
 30
0
 11
2180
 21
210.9
 31
0
  0
LINE
  5
396
100
AcDbEntity
  8
200
100
AcDbLine
370
-1
  6
AUSGEZOGEN
 10
2165.9
 20
225
 30
0
 11
2174.1
 21
225
 31
0
  0
LINE
  5
397
100
AcDbEntity
  8
200
100
AcDbLine
370
-1
  6
AUSGEZOGEN
 10
2160
 20
210.9
 30
0
 11
2160
 21
219.2
 31
0
  0
LINE
  5
398
100
AcDbEntity
  8
200
100
AcDbLine
370
-1
  6
AUSGEZOGEN
 10
2214.2
 20
205
 30
0
 11
2205.9
 21
205
 31
0
  0
LINE
  5
399
100
AcDbEntity
  8
200
100
AcDbLine
370
-1
  6
AUSGEZOGEN
 10
2220
 20
219.2
 30
0
 11
2220
 21
210.9
 31
0
  0
LINE
  5
39A
100
AcDbEntity
  8
200
100
AcDbLine
370
-1
  6
AUSGEZOGEN
 10
2205.9
 20
225
 30
0
 11
2214.2
 21
225
 31
0
  0
LINE
  5
39B
100
AcDbEntity
  8
200
100
AcDbLine
370
-1
  6
AUSGEZOGEN
 10
2200
 20
210.9
 30
0
 11
2200
 21
219.2
 31
0
  0
LINE
  5
39C
100
AcDbEntity
  8
200
100
AcDbLine
370
-1
  6
AUSGEZOGEN
 10
1285.8
 20
245
 30
0
 11
1294.2
 21
245
 31
0
  0
LINE
  5
39D
100
AcDbEntity
  8
200
100
AcDbLine
370
-1
  6
AUSGEZOGEN
 10
1300
 20
259.1
 30
0
 11
1300
 21
250.8
 31
0
  0
LINE
  5
39E
100
AcDbEntity
  8
200
100
AcDbLine
370
-1
  6
AUSGEZOGEN
 10
1285.8
 20
265
 30
0
 11
1294.2
 21
265
 31
0
  0
LINE
  5
39F
100
AcDbEntity
  8
200
100
AcDbLine
370
-1
  6
AUSGEZOGEN
 10
1280
 20
250.8
 30
0
 11
1280
 21
259.1
 31
0
  0
LINE
  5
3A0
100
AcDbEntity
  8
200
100
AcDbLine
370
-1
  6
AUSGEZOGEN
 10
1334.1
 20
245
 30
0
 11
1325.8
 21
245
 31
0
  0
LINE
  5
3A1
100
AcDbEntity
  8
200
100
AcDbLine
370
-1
  6
AUSGEZOGEN
 10
1340
 20
259.1
 30
0
 11
1340
 21
250.8
 31
0
  0
LINE
  5
3A2
100
AcDbEntity
  8
200
100
AcDbLine
370
-1
  6
AUSGEZOGEN
 10
1325.8
 20
265
 30
0
 11
1334.1
 21
265
 31
0
  0
LINE
  5
3A3
100
AcDbEntity
  8
200
100
AcDbLine
370
-1
  6
AUSGEZOGEN
 10
1320
 20
250.8
 30
0
 11
1320
 21
259.1
 31
0
  0
LINE
  5
3A4
100
AcDbEntity
  8
200
100
AcDbLine
370
-1
  6
AUSGEZOGEN
 10
1374.2
 20
245
 30
0
 11
1365.9
 21
245
 31
0
  0
LINE
  5
3A5
100
AcDbEntity
  8
200
100
AcDbLine
370
-1
  6
AUSGEZOGEN
 10
1380
 20
259.1
 30
0
 11
1380
 21
250.8
 31
0
  0
LINE
  5
3A6
100
AcDbEntity
  8
200
100
AcDbLine
370
-1
  6
AUSGEZOGEN
 10
1365.9
 20
265
 30
0
 11
1374.2
 21
265
 31
0
  0
LINE
  5
3A7
100
AcDbEntity
  8
200
100
AcDbLine
370
-1
  6
AUSGEZOGEN
 10
1360
 20
250.8
 30
0
 11
1360
 21
259.1
 31
0
  0
LINE
  5
3A8
100
AcDbEntity
  8
200
100
AcDbLine
370
-1
  6
AUSGEZOGEN
 10
1414.1
 20
245
 30
0
 11
1405.8
 21
245
 31
0
  0
LINE
  5
3A9
100
AcDbEntity
  8
200
100
AcDbLine
370
-1
  6
AUSGEZOGEN
 10
1420
 20
259.1
 30
0
 11
1420
 21
250.8
 31
0
  0
LINE
  5
3AA
100
AcDbEntity
  8
200
100
AcDbLine
370
-1
  6
AUSGEZOGEN
 10
1405.8
 20
265
 30
0
 11
1414.1
 21
265
 31
0
  0
LINE
  5
3AB
100
AcDbEntity
  8
200
100
AcDbLine
370
-1
  6
AUSGEZOGEN
 10
1400
 20
250.8
 30
0
 11
1400
 21
259.1
 31
0
  0
LINE
  5
3AC
100
AcDbEntity
  8
200
100
AcDbLine
370
-1
  6
AUSGEZOGEN
 10
1454.1
 20
245
 30
0
 11
1445.9
 21
245
 31
0
  0
LINE
  5
3AD
100
AcDbEntity
  8
200
100
AcDbLine
370
-1
  6
AUSGEZOGEN
 10
1460
 20
259.1
 30
0
 11
1460
 21
250.8
 31
0
  0
LINE
  5
3AE
100
AcDbEntity
  8
200
100
AcDbLine
370
-1
  6
AUSGEZOGEN
 10
1445.9
 20
265
 30
0
 11
1454.1
 21
265
 31
0
  0
LINE
  5
3AF
100
AcDbEntity
  8
200
100
AcDbLine
370
-1
  6
AUSGEZOGEN
 10
1440
 20
250.8
 30
0
 11
1440
 21
259.1
 31
0
  0
LINE
  5
3B0
100
AcDbEntity
  8
200
100
AcDbLine
370
-1
  6
AUSGEZOGEN
 10
1494.2
 20
245
 30
0
 11
1485.9
 21
245
 31
0
  0
LINE
  5
3B1
100
AcDbEntity
  8
200
100
AcDbLine
370
-1
  6
AUSGEZOGEN
 10
1500
 20
259.1
 30
0
 11
1500
 21
250.8
 31
0
  0
LINE
  5
3B2
100
AcDbEntity
  8
200
100
AcDbLine
370
-1
  6
AUSGEZOGEN
 10
1485.9
 20
265
 30
0
 11
1494.2
 21
265
 31
0
  0
LINE
  5
3B3
100
AcDbEntity
  8
200
100
AcDbLine
370
-1
  6
AUSGEZOGEN
 10
1480
 20
250.8
 30
0
 11
1480
 21
259.1
 31
0
  0
LINE
  5
3B4
100
AcDbEntity
  8
200
100
AcDbLine
370
-1
  6
AUSGEZOGEN
 10
1534.1
 20
245
 30
0
 11
1525.8
 21
245
 31
0
  0
LINE
  5
3B5
100
AcDbEntity
  8
200
100
AcDbLine
370
-1
  6
AUSGEZOGEN
 10
1540
 20
259.1
 30
0
 11
1540
 21
250.8
 31
0
  0
LINE
  5
3B6
100
AcDbEntity
  8
200
100
AcDbLine
370
-1
  6
AUSGEZOGEN
 10
1525.8
 20
265
 30
0
 11
1534.1
 21
265
 31
0
  0
LINE
  5
3B7
100
AcDbEntity
  8
200
100
AcDbLine
370
-1
  6
AUSGEZOGEN
 10
1520
 20
250.8
 30
0
 11
1520
 21
259.1
 31
0
  0
LINE
  5
3B8
100
AcDbEntity
  8
200
100
AcDbLine
370
-1
  6
AUSGEZOGEN
 10
1574.2
 20
245
 30
0
 11
1565.9
 21
245
 31
0
  0
LINE
  5
3B9
100
AcDbEntity
  8
200
100
AcDbLine
370
-1
  6
AUSGEZOGEN
 10
1580
 20
259.1
 30
0
 11
1580
 21
250.8
 31
0
  0
LINE
  5
3BA
100
AcDbEntity
  8
200
100
AcDbLine
370
-1
  6
AUSGEZOGEN
 10
1565.9
 20
265
 30
0
 11
1574.2
 21
265
 31
0
  0
LINE
  5
3BB
100
AcDbEntity
  8
200
100
AcDbLine
370
-1
  6
AUSGEZOGEN
 10
1560
 20
250.8
 30
0
 11
1560
 21
259.1
 31
0
  0
LINE
  5
3BC
100
AcDbEntity
  8
200
100
AcDbLine
370
-1
  6
AUSGEZOGEN
 10
1614.1
 20
245
 30
0
 11
1605.8
 21
245
 31
0
  0
LINE
  5
3BD
100
AcDbEntity
  8
200
100
AcDbLine
370
-1
  6
AUSGEZOGEN
 10
1620
 20
259.1
 30
0
 11
1620
 21
250.8
 31
0
  0
LINE
  5
3BE
100
AcDbEntity
  8
200
100
AcDbLine
370
-1
  6
AUSGEZOGEN
 10
1605.8
 20
265
 30
0
 11
1614.1
 21
265
 31
0
  0
LINE
  5
3BF
100
AcDbEntity
  8
200
100
AcDbLine
370
-1
  6
AUSGEZOGEN
 10
1600
 20
250.8
 30
0
 11
1600
 21
259.1
 31
0
  0
LINE
  5
3C0
100
AcDbEntity
  8
200
100
AcDbLine
370
-1
  6
AUSGEZOGEN
 10
1654.1
 20
245
 30
0
 11
1645.9
 21
245
 31
0
  0
LINE
  5
3C1
100
AcDbEntity
  8
200
100
AcDbLine
370
-1
  6
AUSGEZOGEN
 10
1660
 20
259.1
 30
0
 11
1660
 21
250.8
 31
0
  0
LINE
  5
3C2
100
AcDbEntity
  8
200
100
AcDbLine
370
-1
  6
AUSGEZOGEN
 10
1645.9
 20
265
 30
0
 11
1654.1
 21
265
 31
0
  0
LINE
  5
3C3
100
AcDbEntity
  8
200
100
AcDbLine
370
-1
  6
AUSGEZOGEN
 10
1640
 20
250.8
 30
0
 11
1640
 21
259.1
 31
0
  0
LINE
  5
3C4
100
AcDbEntity
  8
200
100
AcDbLine
370
-1
  6
AUSGEZOGEN
 10
1694.2
 20
245
 30
0
 11
1685.9
 21
245
 31
0
  0
LINE
  5
3C5
100
AcDbEntity
  8
200
100
AcDbLine
370
-1
  6
AUSGEZOGEN
 10
1700
 20
259.1
 30
0
 11
1700
 21
250.8
 31
0
  0
LINE
  5
3C6
100
AcDbEntity
  8
200
100
AcDbLine
370
-1
  6
AUSGEZOGEN
 10
1685.9
 20
265
 30
0
 11
1694.2
 21
265
 31
0
  0
LINE
  5
3C7
100
AcDbEntity
  8
200
100
AcDbLine
370
-1
  6
AUSGEZOGEN
 10
1680
 20
250.8
 30
0
 11
1680
 21
259.1
 31
0
  0
LINE
  5
3C8
100
AcDbEntity
  8
200
100
AcDbLine
370
-1
  6
AUSGEZOGEN
 10
1734.1
 20
245
 30
0
 11
1725.8
 21
245
 31
0
  0
LINE
  5
3C9
100
AcDbEntity
  8
200
100
AcDbLine
370
-1
  6
AUSGEZOGEN
 10
1740
 20
259.1
 30
0
 11
1740
 21
250.8
 31
0
  0
LINE
  5
3CA
100
AcDbEntity
  8
200
100
AcDbLine
370
-1
  6
AUSGEZOGEN
 10
1725.8
 20
265
 30
0
 11
1734.1
 21
265
 31
0
  0
LINE
  5
3CB
100
AcDbEntity
  8
200
100
AcDbLine
370
-1
  6
AUSGEZOGEN
 10
1720
 20
250.8
 30
0
 11
1720
 21
259.1
 31
0
  0
LINE
  5
3CC
100
AcDbEntity
  8
200
100
AcDbLine
370
-1
  6
AUSGEZOGEN
 10
1774.2
 20
245
 30
0
 11
1765.9
 21
245
 31
0
  0
LINE
  5
3CD
100
AcDbEntity
  8
200
100
AcDbLine
370
-1
  6
AUSGEZOGEN
 10
1780
 20
259.1
 30
0
 11
1780
 21
250.8
 31
0
  0
LINE
  5
3CE
100
AcDbEntity
  8
200
100
AcDbLine
370
-1
  6
AUSGEZOGEN
 10
1765.9
 20
265
 30
0
 11
1774.2
 21
265
 31
0
  0
LINE
  5
3CF
100
AcDbEntity
  8
200
100
AcDbLine
370
-1
  6
AUSGEZOGEN
 10
1760
 20
250.8
 30
0
 11
1760
 21
259.1
 31
0
  0
LINE
  5
3D0
100
AcDbEntity
  8
200
100
AcDbLine
370
-1
  6
AUSGEZOGEN
 10
1814.2
 20
245
 30
0
 11
1805.8
 21
245
 31
0
  0
LINE
  5
3D1
100
AcDbEntity
  8
200
100
AcDbLine
370
-1
  6
AUSGEZOGEN
 10
1820
 20
259.1
 30
0
 11
1820
 21
250.8
 31
0
  0
LINE
  5
3D2
100
AcDbEntity
  8
200
100
AcDbLine
370
-1
  6
AUSGEZOGEN
 10
1805.8
 20
265
 30
0
 11
1814.2
 21
265
 31
0
  0
LINE
  5
3D3
100
AcDbEntity
  8
200
100
AcDbLine
370
-1
  6
AUSGEZOGEN
 10
1800
 20
250.8
 30
0
 11
1800
 21
259.1
 31
0
  0
LINE
  5
3D4
100
AcDbEntity
  8
200
100
AcDbLine
370
-1
  6
AUSGEZOGEN
 10
1854.1
 20
245
 30
0
 11
1845.9
 21
245
 31
0
  0
LINE
  5
3D5
100
AcDbEntity
  8
200
100
AcDbLine
370
-1
  6
AUSGEZOGEN
 10
1860
 20
259.1
 30
0
 11
1860
 21
250.8
 31
0
  0
LINE
  5
3D6
100
AcDbEntity
  8
200
100
AcDbLine
370
-1
  6
AUSGEZOGEN
 10
1845.9
 20
265
 30
0
 11
1854.1
 21
265
 31
0
  0
LINE
  5
3D7
100
AcDbEntity
  8
200
100
AcDbLine
370
-1
  6
AUSGEZOGEN
 10
1840
 20
250.8
 30
0
 11
1840
 21
259.1
 31
0
  0
LINE
  5
3D8
100
AcDbEntity
  8
200
100
AcDbLine
370
-1
  6
AUSGEZOGEN
 10
1894.2
 20
245
 30
0
 11
1885.9
 21
245
 31
0
  0
LINE
  5
3D9
100
AcDbEntity
  8
200
100
AcDbLine
370
-1
  6
AUSGEZOGEN
 10
1900
 20
259.1
 30
0
 11
1900
 21
250.8
 31
0
  0
LINE
  5
3DA
100
AcDbEntity
  8
200
100
AcDbLine
370
-1
  6
AUSGEZOGEN
 10
1885.9
 20
265
 30
0
 11
1894.2
 21
265
 31
0
  0
LINE
  5
3DB
100
AcDbEntity
  8
200
100
AcDbLine
370
-1
  6
AUSGEZOGEN
 10
1880
 20
250.8
 30
0
 11
1880
 21
259.1
 31
0
  0
LINE
  5
3DC
100
AcDbEntity
  8
200
100
AcDbLine
370
-1
  6
AUSGEZOGEN
 10
1934.1
 20
245
 30
0
 11
1925.8
 21
245
 31
0
  0
LINE
  5
3DD
100
AcDbEntity
  8
200
100
AcDbLine
370
-1
  6
AUSGEZOGEN
 10
1940
 20
259.1
 30
0
 11
1940
 21
250.8
 31
0
  0
LINE
  5
3DE
100
AcDbEntity
  8
200
100
AcDbLine
370
-1
  6
AUSGEZOGEN
 10
1925.8
 20
265
 30
0
 11
1934.1
 21
265
 31
0
  0
LINE
  5
3DF
100
AcDbEntity
  8
200
100
AcDbLine
370
-1
  6
AUSGEZOGEN
 10
1920
 20
250.8
 30
0
 11
1920
 21
259.1
 31
0
  0
LINE
  5
3E0
100
AcDbEntity
  8
200
100
AcDbLine
370
-1
  6
AUSGEZOGEN
 10
1974.1
 20
245
 30
0
 11
1965.9
 21
245
 31
0
  0
LINE
  5
3E1
100
AcDbEntity
  8
200
100
AcDbLine
370
-1
  6
AUSGEZOGEN
 10
1980
 20
259.1
 30
0
 11
1980
 21
250.8
 31
0
  0
LINE
  5
3E2
100
AcDbEntity
  8
200
100
AcDbLine
370
-1
  6
AUSGEZOGEN
 10
1965.9
 20
265
 30
0
 11
1974.1
 21
265
 31
0
  0
LINE
  5
3E3
100
AcDbEntity
  8
200
100
AcDbLine
370
-1
  6
AUSGEZOGEN
 10
1960
 20
250.8
 30
0
 11
1960
 21
259.1
 31
0
  0
LINE
  5
3E4
100
AcDbEntity
  8
200
100
AcDbLine
370
-1
  6
AUSGEZOGEN
 10
2014.2
 20
245
 30
0
 11
2005.9
 21
245
 31
0
  0
LINE
  5
3E5
100
AcDbEntity
  8
200
100
AcDbLine
370
-1
  6
AUSGEZOGEN
 10
2020
 20
259.1
 30
0
 11
2020
 21
250.8
 31
0
  0
LINE
  5
3E6
100
AcDbEntity
  8
200
100
AcDbLine
370
-1
  6
AUSGEZOGEN
 10
2005.9
 20
265
 30
0
 11
2014.2
 21
265
 31
0
  0
LINE
  5
3E7
100
AcDbEntity
  8
200
100
AcDbLine
370
-1
  6
AUSGEZOGEN
 10
2000
 20
250.8
 30
0
 11
2000
 21
259.1
 31
0
  0
LINE
  5
3E8
100
AcDbEntity
  8
200
100
AcDbLine
370
-1
  6
AUSGEZOGEN
 10
2054.1
 20
245
 30
0
 11
2045.8
 21
245
 31
0
  0
LINE
  5
3E9
100
AcDbEntity
  8
200
100
AcDbLine
370
-1
  6
AUSGEZOGEN
 10
2060
 20
259.1
 30
0
 11
2060
 21
250.8
 31
0
  0
LINE
  5
3EA
100
AcDbEntity
  8
200
100
AcDbLine
370
-1
  6
AUSGEZOGEN
 10
2045.8
 20
265
 30
0
 11
2054.1
 21
265
 31
0
  0
LINE
  5
3EB
100
AcDbEntity
  8
200
100
AcDbLine
370
-1
  6
AUSGEZOGEN
 10
2040
 20
250.8
 30
0
 11
2040
 21
259.1
 31
0
  0
LINE
  5
3EC
100
AcDbEntity
  8
200
100
AcDbLine
370
-1
  6
AUSGEZOGEN
 10
2094.2
 20
245
 30
0
 11
2085.9
 21
245
 31
0
  0
LINE
  5
3ED
100
AcDbEntity
  8
200
100
AcDbLine
370
-1
  6
AUSGEZOGEN
 10
2100
 20
259.1
 30
0
 11
2100
 21
250.8
 31
0
  0
LINE
  5
3EE
100
AcDbEntity
  8
200
100
AcDbLine
370
-1
  6
AUSGEZOGEN
 10
2085.9
 20
265
 30
0
 11
2094.2
 21
265
 31
0
  0
LINE
  5
3EF
100
AcDbEntity
  8
200
100
AcDbLine
370
-1
  6
AUSGEZOGEN
 10
2080
 20
250.8
 30
0
 11
2080
 21
259.1
 31
0
  0
LINE
  5
3F0
100
AcDbEntity
  8
200
100
AcDbLine
370
-1
  6
AUSGEZOGEN
 10
2134.1
 20
245
 30
0
 11
2125.8
 21
245
 31
0
  0
LINE
  5
3F1
100
AcDbEntity
  8
200
100
AcDbLine
370
-1
  6
AUSGEZOGEN
 10
2140
 20
259.1
 30
0
 11
2140
 21
250.8
 31
0
  0
LINE
  5
3F2
100
AcDbEntity
  8
200
100
AcDbLine
370
-1
  6
AUSGEZOGEN
 10
2125.8
 20
265
 30
0
 11
2134.1
 21
265
 31
0
  0
LINE
  5
3F3
100
AcDbEntity
  8
200
100
AcDbLine
370
-1
  6
AUSGEZOGEN
 10
2120
 20
250.8
 30
0
 11
2120
 21
259.1
 31
0
  0
LINE
  5
3F4
100
AcDbEntity
  8
200
100
AcDbLine
370
-1
  6
AUSGEZOGEN
 10
2174.1
 20
245
 30
0
 11
2165.9
 21
245
 31
0
  0
LINE
  5
3F5
100
AcDbEntity
  8
200
100
AcDbLine
370
-1
  6
AUSGEZOGEN
 10
2180
 20
259.1
 30
0
 11
2180
 21
250.8
 31
0
  0
LINE
  5
3F6
100
AcDbEntity
  8
200
100
AcDbLine
370
-1
  6
AUSGEZOGEN
 10
2165.9
 20
265
 30
0
 11
2174.1
 21
265
 31
0
  0
LINE
  5
3F7
100
AcDbEntity
  8
200
100
AcDbLine
370
-1
  6
AUSGEZOGEN
 10
2160
 20
250.8
 30
0
 11
2160
 21
259.1
 31
0
  0
LINE
  5
3F8
100
AcDbEntity
  8
200
100
AcDbLine
370
-1
  6
AUSGEZOGEN
 10
2214.2
 20
245
 30
0
 11
2205.9
 21
245
 31
0
  0
LINE
  5
3F9
100
AcDbEntity
  8
200
100
AcDbLine
370
-1
  6
AUSGEZOGEN
 10
2220
 20
259.1
 30
0
 11
2220
 21
250.8
 31
0
  0
LINE
  5
3FA
100
AcDbEntity
  8
200
100
AcDbLine
370
-1
  6
AUSGEZOGEN
 10
2205.9
 20
265
 30
0
 11
2214.2
 21
265
 31
0
  0
LINE
  5
3FB
100
AcDbEntity
  8
200
100
AcDbLine
370
-1
  6
AUSGEZOGEN
 10
2200
 20
250.8
 30
0
 11
2200
 21
259.1
 31
0
  0
LINE
  5
3FC
100
AcDbEntity
  8
200
100
AcDbLine
370
-1
  6
AUSGEZOGEN
 10
1285.8
 20
285
 30
0
 11
1294.2
 21
285
 31
0
  0
LINE
  5
3FD
100
AcDbEntity
  8
200
100
AcDbLine
370
-1
  6
AUSGEZOGEN
 10
1300
 20
299.1
 30
0
 11
1300
 21
290.9
 31
0
  0
LINE
  5
3FE
100
AcDbEntity
  8
200
100
AcDbLine
370
-1
  6
AUSGEZOGEN
 10
1285.8
 20
305
 30
0
 11
1294.2
 21
305
 31
0
  0
LINE
  5
3FF
100
AcDbEntity
  8
200
100
AcDbLine
370
-1
  6
AUSGEZOGEN
 10
1280
 20
290.9
 30
0
 11
1280
 21
299.1
 31
0
  0
LINE
  5
400
100
AcDbEntity
  8
200
100
AcDbLine
370
-1
  6
AUSGEZOGEN
 10
1334.1
 20
285
 30
0
 11
1325.8
 21
285
 31
0
  0
LINE
  5
401
100
AcDbEntity
  8
200
100
AcDbLine
370
-1
  6
AUSGEZOGEN
 10
1340
 20
299.1
 30
0
 11
1340
 21
290.9
 31
0
  0
LINE
  5
402
100
AcDbEntity
  8
200
100
AcDbLine
370
-1
  6
AUSGEZOGEN
 10
1325.8
 20
305
 30
0
 11
1334.1
 21
305
 31
0
  0
LINE
  5
403
100
AcDbEntity
  8
200
100
AcDbLine
370
-1
  6
AUSGEZOGEN
 10
1320
 20
290.9
 30
0
 11
1320
 21
299.1
 31
0
  0
LINE
  5
404
100
AcDbEntity
  8
200
100
AcDbLine
370
-1
  6
AUSGEZOGEN
 10
1374.2
 20
285
 30
0
 11
1365.9
 21
285
 31
0
  0
LINE
  5
405
100
AcDbEntity
  8
200
100
AcDbLine
370
-1
  6
AUSGEZOGEN
 10
1380
 20
299.1
 30
0
 11
1380
 21
290.9
 31
0
  0
LINE
  5
406
100
AcDbEntity
  8
200
100
AcDbLine
370
-1
  6
AUSGEZOGEN
 10
1365.9
 20
305
 30
0
 11
1374.2
 21
305
 31
0
  0
LINE
  5
407
100
AcDbEntity
  8
200
100
AcDbLine
370
-1
  6
AUSGEZOGEN
 10
1360
 20
290.9
 30
0
 11
1360
 21
299.1
 31
0
  0
LINE
  5
408
100
AcDbEntity
  8
200
100
AcDbLine
370
-1
  6
AUSGEZOGEN
 10
1414.1
 20
285
 30
0
 11
1405.8
 21
285
 31
0
  0
LINE
  5
409
100
AcDbEntity
  8
200
100
AcDbLine
370
-1
  6
AUSGEZOGEN
 10
1420
 20
299.1
 30
0
 11
1420
 21
290.9
 31
0
  0
LINE
  5
40A
100
AcDbEntity
  8
200
100
AcDbLine
370
-1
  6
AUSGEZOGEN
 10
1405.8
 20
305
 30
0
 11
1414.1
 21
305
 31
0
  0
LINE
  5
40B
100
AcDbEntity
  8
200
100
AcDbLine
370
-1
  6
AUSGEZOGEN
 10
1400
 20
290.9
 30
0
 11
1400
 21
299.1
 31
0
  0
LINE
  5
40C
100
AcDbEntity
  8
200
100
AcDbLine
370
-1
  6
AUSGEZOGEN
 10
1454.1
 20
285
 30
0
 11
1445.9
 21
285
 31
0
  0
LINE
  5
40D
100
AcDbEntity
  8
200
100
AcDbLine
370
-1
  6
AUSGEZOGEN
 10
1460
 20
299.1
 30
0
 11
1460
 21
290.9
 31
0
  0
LINE
  5
40E
100
AcDbEntity
  8
200
100
AcDbLine
370
-1
  6
AUSGEZOGEN
 10
1445.9
 20
305
 30
0
 11
1454.1
 21
305
 31
0
  0
LINE
  5
40F
100
AcDbEntity
  8
200
100
AcDbLine
370
-1
  6
AUSGEZOGEN
 10
1440
 20
290.9
 30
0
 11
1440
 21
299.1
 31
0
  0
LINE
  5
410
100
AcDbEntity
  8
200
100
AcDbLine
370
-1
  6
AUSGEZOGEN
 10
1494.2
 20
285
 30
0
 11
1485.9
 21
285
 31
0
  0
LINE
  5
411
100
AcDbEntity
  8
200
100
AcDbLine
370
-1
  6
AUSGEZOGEN
 10
1500
 20
299.1
 30
0
 11
1500
 21
290.9
 31
0
  0
LINE
  5
412
100
AcDbEntity
  8
200
100
AcDbLine
370
-1
  6
AUSGEZOGEN
 10
1485.9
 20
305
 30
0
 11
1494.2
 21
305
 31
0
  0
LINE
  5
413
100
AcDbEntity
  8
200
100
AcDbLine
370
-1
  6
AUSGEZOGEN
 10
1480
 20
290.9
 30
0
 11
1480
 21
299.1
 31
0
  0
LINE
  5
414
100
AcDbEntity
  8
200
100
AcDbLine
370
-1
  6
AUSGEZOGEN
 10
1534.1
 20
285
 30
0
 11
1525.8
 21
285
 31
0
  0
LINE
  5
415
100
AcDbEntity
  8
200
100
AcDbLine
370
-1
  6
AUSGEZOGEN
 10
1540
 20
299.1
 30
0
 11
1540
 21
290.9
 31
0
  0
LINE
  5
416
100
AcDbEntity
  8
200
100
AcDbLine
370
-1
  6
AUSGEZOGEN
 10
1525.8
 20
305
 30
0
 11
1534.1
 21
305
 31
0
  0
LINE
  5
417
100
AcDbEntity
  8
200
100
AcDbLine
370
-1
  6
AUSGEZOGEN
 10
1520
 20
290.9
 30
0
 11
1520
 21
299.1
 31
0
  0
LINE
  5
418
100
AcDbEntity
  8
200
100
AcDbLine
370
-1
  6
AUSGEZOGEN
 10
1574.2
 20
285
 30
0
 11
1565.9
 21
285
 31
0
  0
LINE
  5
419
100
AcDbEntity
  8
200
100
AcDbLine
370
-1
  6
AUSGEZOGEN
 10
1580
 20
299.1
 30
0
 11
1580
 21
290.9
 31
0
  0
LINE
  5
41A
100
AcDbEntity
  8
200
100
AcDbLine
370
-1
  6
AUSGEZOGEN
 10
1565.9
 20
305
 30
0
 11
1574.2
 21
305
 31
0
  0
LINE
  5
41B
100
AcDbEntity
  8
200
100
AcDbLine
370
-1
  6
AUSGEZOGEN
 10
1560
 20
290.9
 30
0
 11
1560
 21
299.1
 31
0
  0
LINE
  5
41C
100
AcDbEntity
  8
200
100
AcDbLine
370
-1
  6
AUSGEZOGEN
 10
1614.1
 20
285
 30
0
 11
1605.8
 21
285
 31
0
  0
LINE
  5
41D
100
AcDbEntity
  8
200
100
AcDbLine
370
-1
  6
AUSGEZOGEN
 10
1620
 20
299.1
 30
0
 11
1620
 21
290.9
 31
0
  0
LINE
  5
41E
100
AcDbEntity
  8
200
100
AcDbLine
370
-1
  6
AUSGEZOGEN
 10
1605.8
 20
305
 30
0
 11
1614.1
 21
305
 31
0
  0
LINE
  5
41F
100
AcDbEntity
  8
200
100
AcDbLine
370
-1
  6
AUSGEZOGEN
 10
1600
 20
290.9
 30
0
 11
1600
 21
299.1
 31
0
  0
LINE
  5
420
100
AcDbEntity
  8
200
100
AcDbLine
370
-1
  6
AUSGEZOGEN
 10
1654.1
 20
285
 30
0
 11
1645.9
 21
285
 31
0
  0
LINE
  5
421
100
AcDbEntity
  8
200
100
AcDbLine
370
-1
  6
AUSGEZOGEN
 10
1660
 20
299.1
 30
0
 11
1660
 21
290.9
 31
0
  0
LINE
  5
422
100
AcDbEntity
  8
200
100
AcDbLine
370
-1
  6
AUSGEZOGEN
 10
1645.9
 20
305
 30
0
 11
1654.1
 21
305
 31
0
  0
LINE
  5
423
100
AcDbEntity
  8
200
100
AcDbLine
370
-1
  6
AUSGEZOGEN
 10
1640
 20
290.9
 30
0
 11
1640
 21
299.1
 31
0
  0
LINE
  5
424
100
AcDbEntity
  8
200
100
AcDbLine
370
-1
  6
AUSGEZOGEN
 10
1694.2
 20
285
 30
0
 11
1685.9
 21
285
 31
0
  0
LINE
  5
425
100
AcDbEntity
  8
200
100
AcDbLine
370
-1
  6
AUSGEZOGEN
 10
1700
 20
299.1
 30
0
 11
1700
 21
290.9
 31
0
  0
LINE
  5
426
100
AcDbEntity
  8
200
100
AcDbLine
370
-1
  6
AUSGEZOGEN
 10
1685.9
 20
305
 30
0
 11
1694.2
 21
305
 31
0
  0
LINE
  5
427
100
AcDbEntity
  8
200
100
AcDbLine
370
-1
  6
AUSGEZOGEN
 10
1680
 20
290.9
 30
0
 11
1680
 21
299.1
 31
0
  0
LINE
  5
428
100
AcDbEntity
  8
200
100
AcDbLine
370
-1
  6
AUSGEZOGEN
 10
1734.1
 20
285
 30
0
 11
1725.8
 21
285
 31
0
  0
LINE
  5
429
100
AcDbEntity
  8
200
100
AcDbLine
370
-1
  6
AUSGEZOGEN
 10
1740
 20
299.1
 30
0
 11
1740
 21
290.9
 31
0
  0
LINE
  5
42A
100
AcDbEntity
  8
200
100
AcDbLine
370
-1
  6
AUSGEZOGEN
 10
1725.8
 20
305
 30
0
 11
1734.1
 21
305
 31
0
  0
LINE
  5
42B
100
AcDbEntity
  8
200
100
AcDbLine
370
-1
  6
AUSGEZOGEN
 10
1720
 20
290.9
 30
0
 11
1720
 21
299.1
 31
0
  0
LINE
  5
42C
100
AcDbEntity
  8
200
100
AcDbLine
370
-1
  6
AUSGEZOGEN
 10
1774.2
 20
285
 30
0
 11
1765.9
 21
285
 31
0
  0
LINE
  5
42D
100
AcDbEntity
  8
200
100
AcDbLine
370
-1
  6
AUSGEZOGEN
 10
1780
 20
299.1
 30
0
 11
1780
 21
290.9
 31
0
  0
LINE
  5
42E
100
AcDbEntity
  8
200
100
AcDbLine
370
-1
  6
AUSGEZOGEN
 10
1765.9
 20
305
 30
0
 11
1774.2
 21
305
 31
0
  0
LINE
  5
42F
100
AcDbEntity
  8
200
100
AcDbLine
370
-1
  6
AUSGEZOGEN
 10
1760
 20
290.9
 30
0
 11
1760
 21
299.1
 31
0
  0
LINE
  5
430
100
AcDbEntity
  8
200
100
AcDbLine
370
-1
  6
AUSGEZOGEN
 10
1814.2
 20
285
 30
0
 11
1805.8
 21
285
 31
0
  0
LINE
  5
431
100
AcDbEntity
  8
200
100
AcDbLine
370
-1
  6
AUSGEZOGEN
 10
1820
 20
299.1
 30
0
 11
1820
 21
290.9
 31
0
  0
LINE
  5
432
100
AcDbEntity
  8
200
100
AcDbLine
370
-1
  6
AUSGEZOGEN
 10
1805.8
 20
305
 30
0
 11
1814.2
 21
305
 31
0
  0
LINE
  5
433
100
AcDbEntity
  8
200
100
AcDbLine
370
-1
  6
AUSGEZOGEN
 10
1800
 20
290.9
 30
0
 11
1800
 21
299.1
 31
0
  0
LINE
  5
434
100
AcDbEntity
  8
200
100
AcDbLine
370
-1
  6
AUSGEZOGEN
 10
1854.1
 20
285
 30
0
 11
1845.9
 21
285
 31
0
  0
LINE
  5
435
100
AcDbEntity
  8
200
100
AcDbLine
370
-1
  6
AUSGEZOGEN
 10
1860
 20
299.1
 30
0
 11
1860
 21
290.9
 31
0
  0
LINE
  5
436
100
AcDbEntity
  8
200
100
AcDbLine
370
-1
  6
AUSGEZOGEN
 10
1845.9
 20
305
 30
0
 11
1854.1
 21
305
 31
0
  0
LINE
  5
437
100
AcDbEntity
  8
200
100
AcDbLine
370
-1
  6
AUSGEZOGEN
 10
1840
 20
290.9
 30
0
 11
1840
 21
299.1
 31
0
  0
LINE
  5
438
100
AcDbEntity
  8
200
100
AcDbLine
370
-1
  6
AUSGEZOGEN
 10
1894.2
 20
285
 30
0
 11
1885.9
 21
285
 31
0
  0
LINE
  5
439
100
AcDbEntity
  8
200
100
AcDbLine
370
-1
  6
AUSGEZOGEN
 10
1900
 20
299.1
 30
0
 11
1900
 21
290.9
 31
0
  0
LINE
  5
43A
100
AcDbEntity
  8
200
100
AcDbLine
370
-1
  6
AUSGEZOGEN
 10
1885.9
 20
305
 30
0
 11
1894.2
 21
305
 31
0
  0
LINE
  5
43B
100
AcDbEntity
  8
200
100
AcDbLine
370
-1
  6
AUSGEZOGEN
 10
1880
 20
290.9
 30
0
 11
1880
 21
299.1
 31
0
  0
LINE
  5
43C
100
AcDbEntity
  8
200
100
AcDbLine
370
-1
  6
AUSGEZOGEN
 10
1934.1
 20
285
 30
0
 11
1925.8
 21
285
 31
0
  0
LINE
  5
43D
100
AcDbEntity
  8
200
100
AcDbLine
370
-1
  6
AUSGEZOGEN
 10
1940
 20
299.1
 30
0
 11
1940
 21
290.9
 31
0
  0
LINE
  5
43E
100
AcDbEntity
  8
200
100
AcDbLine
370
-1
  6
AUSGEZOGEN
 10
1925.8
 20
305
 30
0
 11
1934.1
 21
305
 31
0
  0
LINE
  5
43F
100
AcDbEntity
  8
200
100
AcDbLine
370
-1
  6
AUSGEZOGEN
 10
1920
 20
290.9
 30
0
 11
1920
 21
299.1
 31
0
  0
LINE
  5
440
100
AcDbEntity
  8
200
100
AcDbLine
370
-1
  6
AUSGEZOGEN
 10
1974.1
 20
285
 30
0
 11
1965.9
 21
285
 31
0
  0
LINE
  5
441
100
AcDbEntity
  8
200
100
AcDbLine
370
-1
  6
AUSGEZOGEN
 10
1980
 20
299.1
 30
0
 11
1980
 21
290.9
 31
0
  0
LINE
  5
442
100
AcDbEntity
  8
200
100
AcDbLine
370
-1
  6
AUSGEZOGEN
 10
1965.9
 20
305
 30
0
 11
1974.1
 21
305
 31
0
  0
LINE
  5
443
100
AcDbEntity
  8
200
100
AcDbLine
370
-1
  6
AUSGEZOGEN
 10
1960
 20
290.9
 30
0
 11
1960
 21
299.1
 31
0
  0
LINE
  5
444
100
AcDbEntity
  8
200
100
AcDbLine
370
-1
  6
AUSGEZOGEN
 10
2014.2
 20
285
 30
0
 11
2005.9
 21
285
 31
0
  0
LINE
  5
445
100
AcDbEntity
  8
200
100
AcDbLine
370
-1
  6
AUSGEZOGEN
 10
2020
 20
299.1
 30
0
 11
2020
 21
290.9
 31
0
  0
LINE
  5
446
100
AcDbEntity
  8
200
100
AcDbLine
370
-1
  6
AUSGEZOGEN
 10
2005.9
 20
305
 30
0
 11
2014.2
 21
305
 31
0
  0
LINE
  5
447
100
AcDbEntity
  8
200
100
AcDbLine
370
-1
  6
AUSGEZOGEN
 10
2000
 20
290.9
 30
0
 11
2000
 21
299.1
 31
0
  0
LINE
  5
448
100
AcDbEntity
  8
200
100
AcDbLine
370
-1
  6
AUSGEZOGEN
 10
2054.1
 20
285
 30
0
 11
2045.8
 21
285
 31
0
  0
LINE
  5
449
100
AcDbEntity
  8
200
100
AcDbLine
370
-1
  6
AUSGEZOGEN
 10
2060
 20
299.1
 30
0
 11
2060
 21
290.9
 31
0
  0
LINE
  5
44A
100
AcDbEntity
  8
200
100
AcDbLine
370
-1
  6
AUSGEZOGEN
 10
2045.8
 20
305
 30
0
 11
2054.1
 21
305
 31
0
  0
LINE
  5
44B
100
AcDbEntity
  8
200
100
AcDbLine
370
-1
  6
AUSGEZOGEN
 10
2040
 20
290.9
 30
0
 11
2040
 21
299.1
 31
0
  0
LINE
  5
44C
100
AcDbEntity
  8
200
100
AcDbLine
370
-1
  6
AUSGEZOGEN
 10
2094.2
 20
285
 30
0
 11
2085.9
 21
285
 31
0
  0
LINE
  5
44D
100
AcDbEntity
  8
200
100
AcDbLine
370
-1
  6
AUSGEZOGEN
 10
2100
 20
299.1
 30
0
 11
2100
 21
290.9
 31
0
  0
LINE
  5
44E
100
AcDbEntity
  8
200
100
AcDbLine
370
-1
  6
AUSGEZOGEN
 10
2085.9
 20
305
 30
0
 11
2094.2
 21
305
 31
0
  0
LINE
  5
44F
100
AcDbEntity
  8
200
100
AcDbLine
370
-1
  6
AUSGEZOGEN
 10
2080
 20
290.9
 30
0
 11
2080
 21
299.1
 31
0
  0
LINE
  5
450
100
AcDbEntity
  8
200
100
AcDbLine
370
-1
  6
AUSGEZOGEN
 10
2134.1
 20
285
 30
0
 11
2125.8
 21
285
 31
0
  0
LINE
  5
451
100
AcDbEntity
  8
200
100
AcDbLine
370
-1
  6
AUSGEZOGEN
 10
2140
 20
299.1
 30
0
 11
2140
 21
290.9
 31
0
  0
LINE
  5
452
100
AcDbEntity
  8
200
100
AcDbLine
370
-1
  6
AUSGEZOGEN
 10
2125.8
 20
305
 30
0
 11
2134.1
 21
305
 31
0
  0
LINE
  5
453
100
AcDbEntity
  8
200
100
AcDbLine
370
-1
  6
AUSGEZOGEN
 10
2120
 20
290.9
 30
0
 11
2120
 21
299.1
 31
0
  0
LINE
  5
454
100
AcDbEntity
  8
200
100
AcDbLine
370
-1
  6
AUSGEZOGEN
 10
2174.1
 20
285
 30
0
 11
2165.9
 21
285
 31
0
  0
LINE
  5
455
100
AcDbEntity
  8
200
100
AcDbLine
370
-1
  6
AUSGEZOGEN
 10
2180
 20
299.1
 30
0
 11
2180
 21
290.9
 31
0
  0
LINE
  5
456
100
AcDbEntity
  8
200
100
AcDbLine
370
-1
  6
AUSGEZOGEN
 10
2165.9
 20
305
 30
0
 11
2174.1
 21
305
 31
0
  0
LINE
  5
457
100
AcDbEntity
  8
200
100
AcDbLine
370
-1
  6
AUSGEZOGEN
 10
2160
 20
290.9
 30
0
 11
2160
 21
299.1
 31
0
  0
LINE
  5
458
100
AcDbEntity
  8
200
100
AcDbLine
370
-1
  6
AUSGEZOGEN
 10
2214.2
 20
285
 30
0
 11
2205.9
 21
285
 31
0
  0
LINE
  5
459
100
AcDbEntity
  8
200
100
AcDbLine
370
-1
  6
AUSGEZOGEN
 10
2220
 20
299.1
 30
0
 11
2220
 21
290.9
 31
0
  0
LINE
  5
45A
100
AcDbEntity
  8
200
100
AcDbLine
370
-1
  6
AUSGEZOGEN
 10
2205.9
 20
305
 30
0
 11
2214.2
 21
305
 31
0
  0
LINE
  5
45B
100
AcDbEntity
  8
200
100
AcDbLine
370
-1
  6
AUSGEZOGEN
 10
2200
 20
290.9
 30
0
 11
2200
 21
299.1
 31
0
  0
LINE
  5
45C
100
AcDbEntity
  8
200
100
AcDbLine
370
-1
  6
AUSGEZOGEN
 10
1285.8
 20
325
 30
0
 11
1294.2
 21
325
 31
0
  0
LINE
  5
45D
100
AcDbEntity
  8
200
100
AcDbLine
370
-1
  6
AUSGEZOGEN
 10
1300
 20
339.2
 30
0
 11
1300
 21
330.8
 31
0
  0
LINE
  5
45E
100
AcDbEntity
  8
200
100
AcDbLine
370
-1
  6
AUSGEZOGEN
 10
1285.8
 20
345
 30
0
 11
1294.2
 21
345
 31
0
  0
LINE
  5
45F
100
AcDbEntity
  8
200
100
AcDbLine
370
-1
  6
AUSGEZOGEN
 10
1280
 20
330.8
 30
0
 11
1280
 21
339.2
 31
0
  0
LINE
  5
460
100
AcDbEntity
  8
200
100
AcDbLine
370
-1
  6
AUSGEZOGEN
 10
1334.1
 20
325
 30
0
 11
1325.8
 21
325
 31
0
  0
LINE
  5
461
100
AcDbEntity
  8
200
100
AcDbLine
370
-1
  6
AUSGEZOGEN
 10
1340
 20
339.2
 30
0
 11
1340
 21
330.8
 31
0
  0
LINE
  5
462
100
AcDbEntity
  8
200
100
AcDbLine
370
-1
  6
AUSGEZOGEN
 10
1325.8
 20
345
 30
0
 11
1334.1
 21
345
 31
0
  0
LINE
  5
463
100
AcDbEntity
  8
200
100
AcDbLine
370
-1
  6
AUSGEZOGEN
 10
1320
 20
330.8
 30
0
 11
1320
 21
339.2
 31
0
  0
LINE
  5
464
100
AcDbEntity
  8
200
100
AcDbLine
370
-1
  6
AUSGEZOGEN
 10
1374.2
 20
325
 30
0
 11
1365.9
 21
325
 31
0
  0
LINE
  5
465
100
AcDbEntity
  8
200
100
AcDbLine
370
-1
  6
AUSGEZOGEN
 10
1380
 20
339.2
 30
0
 11
1380
 21
330.8
 31
0
  0
LINE
  5
466
100
AcDbEntity
  8
200
100
AcDbLine
370
-1
  6
AUSGEZOGEN
 10
1365.9
 20
345
 30
0
 11
1374.2
 21
345
 31
0
  0
LINE
  5
467
100
AcDbEntity
  8
200
100
AcDbLine
370
-1
  6
AUSGEZOGEN
 10
1360
 20
330.8
 30
0
 11
1360
 21
339.2
 31
0
  0
LINE
  5
468
100
AcDbEntity
  8
200
100
AcDbLine
370
-1
  6
AUSGEZOGEN
 10
1414.1
 20
325
 30
0
 11
1405.8
 21
325
 31
0
  0
LINE
  5
469
100
AcDbEntity
  8
200
100
AcDbLine
370
-1
  6
AUSGEZOGEN
 10
1420
 20
339.2
 30
0
 11
1420
 21
330.8
 31
0
  0
LINE
  5
46A
100
AcDbEntity
  8
200
100
AcDbLine
370
-1
  6
AUSGEZOGEN
 10
1405.8
 20
345
 30
0
 11
1414.1
 21
345
 31
0
  0
LINE
  5
46B
100
AcDbEntity
  8
200
100
AcDbLine
370
-1
  6
AUSGEZOGEN
 10
1400
 20
330.8
 30
0
 11
1400
 21
339.2
 31
0
  0
LINE
  5
46C
100
AcDbEntity
  8
200
100
AcDbLine
370
-1
  6
AUSGEZOGEN
 10
1454.1
 20
325
 30
0
 11
1445.9
 21
325
 31
0
  0
LINE
  5
46D
100
AcDbEntity
  8
200
100
AcDbLine
370
-1
  6
AUSGEZOGEN
 10
1460
 20
339.2
 30
0
 11
1460
 21
330.8
 31
0
  0
LINE
  5
46E
100
AcDbEntity
  8
200
100
AcDbLine
370
-1
  6
AUSGEZOGEN
 10
1445.9
 20
345
 30
0
 11
1454.1
 21
345
 31
0
  0
LINE
  5
46F
100
AcDbEntity
  8
200
100
AcDbLine
370
-1
  6
AUSGEZOGEN
 10
1440
 20
330.8
 30
0
 11
1440
 21
339.2
 31
0
  0
LINE
  5
470
100
AcDbEntity
  8
200
100
AcDbLine
370
-1
  6
AUSGEZOGEN
 10
1494.2
 20
325
 30
0
 11
1485.9
 21
325
 31
0
  0
LINE
  5
471
100
AcDbEntity
  8
200
100
AcDbLine
370
-1
  6
AUSGEZOGEN
 10
1500
 20
339.2
 30
0
 11
1500
 21
330.8
 31
0
  0
LINE
  5
472
100
AcDbEntity
  8
200
100
AcDbLine
370
-1
  6
AUSGEZOGEN
 10
1485.9
 20
345
 30
0
 11
1494.2
 21
345
 31
0
  0
LINE
  5
473
100
AcDbEntity
  8
200
100
AcDbLine
370
-1
  6
AUSGEZOGEN
 10
1480
 20
330.8
 30
0
 11
1480
 21
339.2
 31
0
  0
LINE
  5
474
100
AcDbEntity
  8
200
100
AcDbLine
370
-1
  6
AUSGEZOGEN
 10
1534.1
 20
325
 30
0
 11
1525.8
 21
325
 31
0
  0
LINE
  5
475
100
AcDbEntity
  8
200
100
AcDbLine
370
-1
  6
AUSGEZOGEN
 10
1540
 20
339.2
 30
0
 11
1540
 21
330.8
 31
0
  0
LINE
  5
476
100
AcDbEntity
  8
200
100
AcDbLine
370
-1
  6
AUSGEZOGEN
 10
1525.8
 20
345
 30
0
 11
1534.1
 21
345
 31
0
  0
LINE
  5
477
100
AcDbEntity
  8
200
100
AcDbLine
370
-1
  6
AUSGEZOGEN
 10
1520
 20
330.8
 30
0
 11
1520
 21
339.2
 31
0
  0
LINE
  5
478
100
AcDbEntity
  8
200
100
AcDbLine
370
-1
  6
AUSGEZOGEN
 10
1574.2
 20
325
 30
0
 11
1565.9
 21
325
 31
0
  0
LINE
  5
479
100
AcDbEntity
  8
200
100
AcDbLine
370
-1
  6
AUSGEZOGEN
 10
1580
 20
339.2
 30
0
 11
1580
 21
330.8
 31
0
  0
LINE
  5
47A
100
AcDbEntity
  8
200
100
AcDbLine
370
-1
  6
AUSGEZOGEN
 10
1565.9
 20
345
 30
0
 11
1574.2
 21
345
 31
0
  0
LINE
  5
47B
100
AcDbEntity
  8
200
100
AcDbLine
370
-1
  6
AUSGEZOGEN
 10
1560
 20
330.8
 30
0
 11
1560
 21
339.2
 31
0
  0
LINE
  5
47C
100
AcDbEntity
  8
200
100
AcDbLine
370
-1
  6
AUSGEZOGEN
 10
1614.1
 20
325
 30
0
 11
1605.8
 21
325
 31
0
  0
LINE
  5
47D
100
AcDbEntity
  8
200
100
AcDbLine
370
-1
  6
AUSGEZOGEN
 10
1620
 20
339.2
 30
0
 11
1620
 21
330.8
 31
0
  0
LINE
  5
47E
100
AcDbEntity
  8
200
100
AcDbLine
370
-1
  6
AUSGEZOGEN
 10
1605.8
 20
345
 30
0
 11
1614.1
 21
345
 31
0
  0
LINE
  5
47F
100
AcDbEntity
  8
200
100
AcDbLine
370
-1
  6
AUSGEZOGEN
 10
1600
 20
330.8
 30
0
 11
1600
 21
339.2
 31
0
  0
LINE
  5
480
100
AcDbEntity
  8
200
100
AcDbLine
370
-1
  6
AUSGEZOGEN
 10
1654.1
 20
325
 30
0
 11
1645.9
 21
325
 31
0
  0
LINE
  5
481
100
AcDbEntity
  8
200
100
AcDbLine
370
-1
  6
AUSGEZOGEN
 10
1660
 20
339.2
 30
0
 11
1660
 21
330.8
 31
0
  0
LINE
  5
482
100
AcDbEntity
  8
200
100
AcDbLine
370
-1
  6
AUSGEZOGEN
 10
1645.9
 20
345
 30
0
 11
1654.1
 21
345
 31
0
  0
LINE
  5
483
100
AcDbEntity
  8
200
100
AcDbLine
370
-1
  6
AUSGEZOGEN
 10
1640
 20
330.8
 30
0
 11
1640
 21
339.2
 31
0
  0
LINE
  5
484
100
AcDbEntity
  8
200
100
AcDbLine
370
-1
  6
AUSGEZOGEN
 10
1694.2
 20
325
 30
0
 11
1685.9
 21
325
 31
0
  0
LINE
  5
485
100
AcDbEntity
  8
200
100
AcDbLine
370
-1
  6
AUSGEZOGEN
 10
1700
 20
339.2
 30
0
 11
1700
 21
330.8
 31
0
  0
LINE
  5
486
100
AcDbEntity
  8
200
100
AcDbLine
370
-1
  6
AUSGEZOGEN
 10
1685.9
 20
345
 30
0
 11
1694.2
 21
345
 31
0
  0
LINE
  5
487
100
AcDbEntity
  8
200
100
AcDbLine
370
-1
  6
AUSGEZOGEN
 10
1680
 20
330.8
 30
0
 11
1680
 21
339.2
 31
0
  0
LINE
  5
488
100
AcDbEntity
  8
200
100
AcDbLine
370
-1
  6
AUSGEZOGEN
 10
1734.1
 20
325
 30
0
 11
1725.8
 21
325
 31
0
  0
LINE
  5
489
100
AcDbEntity
  8
200
100
AcDbLine
370
-1
  6
AUSGEZOGEN
 10
1740
 20
339.2
 30
0
 11
1740
 21
330.8
 31
0
  0
LINE
  5
48A
100
AcDbEntity
  8
200
100
AcDbLine
370
-1
  6
AUSGEZOGEN
 10
1725.8
 20
345
 30
0
 11
1734.1
 21
345
 31
0
  0
LINE
  5
48B
100
AcDbEntity
  8
200
100
AcDbLine
370
-1
  6
AUSGEZOGEN
 10
1720
 20
330.8
 30
0
 11
1720
 21
339.2
 31
0
  0
LINE
  5
48C
100
AcDbEntity
  8
200
100
AcDbLine
370
-1
  6
AUSGEZOGEN
 10
1774.2
 20
325
 30
0
 11
1765.9
 21
325
 31
0
  0
LINE
  5
48D
100
AcDbEntity
  8
200
100
AcDbLine
370
-1
  6
AUSGEZOGEN
 10
1780
 20
339.2
 30
0
 11
1780
 21
330.8
 31
0
  0
LINE
  5
48E
100
AcDbEntity
  8
200
100
AcDbLine
370
-1
  6
AUSGEZOGEN
 10
1765.9
 20
345
 30
0
 11
1774.2
 21
345
 31
0
  0
LINE
  5
48F
100
AcDbEntity
  8
200
100
AcDbLine
370
-1
  6
AUSGEZOGEN
 10
1760
 20
330.8
 30
0
 11
1760
 21
339.2
 31
0
  0
LINE
  5
490
100
AcDbEntity
  8
200
100
AcDbLine
370
-1
  6
AUSGEZOGEN
 10
1814.2
 20
325
 30
0
 11
1805.8
 21
325
 31
0
  0
LINE
  5
491
100
AcDbEntity
  8
200
100
AcDbLine
370
-1
  6
AUSGEZOGEN
 10
1820
 20
339.2
 30
0
 11
1820
 21
330.8
 31
0
  0
LINE
  5
492
100
AcDbEntity
  8
200
100
AcDbLine
370
-1
  6
AUSGEZOGEN
 10
1805.8
 20
345
 30
0
 11
1814.2
 21
345
 31
0
  0
LINE
  5
493
100
AcDbEntity
  8
200
100
AcDbLine
370
-1
  6
AUSGEZOGEN
 10
1800
 20
330.8
 30
0
 11
1800
 21
339.2
 31
0
  0
LINE
  5
494
100
AcDbEntity
  8
200
100
AcDbLine
370
-1
  6
AUSGEZOGEN
 10
1854.1
 20
325
 30
0
 11
1845.9
 21
325
 31
0
  0
LINE
  5
495
100
AcDbEntity
  8
200
100
AcDbLine
370
-1
  6
AUSGEZOGEN
 10
1860
 20
339.2
 30
0
 11
1860
 21
330.8
 31
0
  0
LINE
  5
496
100
AcDbEntity
  8
200
100
AcDbLine
370
-1
  6
AUSGEZOGEN
 10
1845.9
 20
345
 30
0
 11
1854.1
 21
345
 31
0
  0
LINE
  5
497
100
AcDbEntity
  8
200
100
AcDbLine
370
-1
  6
AUSGEZOGEN
 10
1840
 20
330.8
 30
0
 11
1840
 21
339.2
 31
0
  0
LINE
  5
498
100
AcDbEntity
  8
200
100
AcDbLine
370
-1
  6
AUSGEZOGEN
 10
1894.2
 20
325
 30
0
 11
1885.9
 21
325
 31
0
  0
LINE
  5
499
100
AcDbEntity
  8
200
100
AcDbLine
370
-1
  6
AUSGEZOGEN
 10
1900
 20
339.2
 30
0
 11
1900
 21
330.8
 31
0
  0
LINE
  5
49A
100
AcDbEntity
  8
200
100
AcDbLine
370
-1
  6
AUSGEZOGEN
 10
1885.9
 20
345
 30
0
 11
1894.2
 21
345
 31
0
  0
LINE
  5
49B
100
AcDbEntity
  8
200
100
AcDbLine
370
-1
  6
AUSGEZOGEN
 10
1880
 20
330.8
 30
0
 11
1880
 21
339.2
 31
0
  0
LINE
  5
49C
100
AcDbEntity
  8
200
100
AcDbLine
370
-1
  6
AUSGEZOGEN
 10
1934.1
 20
325
 30
0
 11
1925.8
 21
325
 31
0
  0
LINE
  5
49D
100
AcDbEntity
  8
200
100
AcDbLine
370
-1
  6
AUSGEZOGEN
 10
1940
 20
339.2
 30
0
 11
1940
 21
330.8
 31
0
  0
LINE
  5
49E
100
AcDbEntity
  8
200
100
AcDbLine
370
-1
  6
AUSGEZOGEN
 10
1925.8
 20
345
 30
0
 11
1934.1
 21
345
 31
0
  0
LINE
  5
49F
100
AcDbEntity
  8
200
100
AcDbLine
370
-1
  6
AUSGEZOGEN
 10
1920
 20
330.8
 30
0
 11
1920
 21
339.2
 31
0
  0
LINE
  5
4A0
100
AcDbEntity
  8
200
100
AcDbLine
370
-1
  6
AUSGEZOGEN
 10
1974.1
 20
325
 30
0
 11
1965.9
 21
325
 31
0
  0
LINE
  5
4A1
100
AcDbEntity
  8
200
100
AcDbLine
370
-1
  6
AUSGEZOGEN
 10
1980
 20
339.2
 30
0
 11
1980
 21
330.8
 31
0
  0
LINE
  5
4A2
100
AcDbEntity
  8
200
100
AcDbLine
370
-1
  6
AUSGEZOGEN
 10
1965.9
 20
345
 30
0
 11
1974.1
 21
345
 31
0
  0
LINE
  5
4A3
100
AcDbEntity
  8
200
100
AcDbLine
370
-1
  6
AUSGEZOGEN
 10
1960
 20
330.8
 30
0
 11
1960
 21
339.2
 31
0
  0
LINE
  5
4A4
100
AcDbEntity
  8
200
100
AcDbLine
370
-1
  6
AUSGEZOGEN
 10
2014.2
 20
325
 30
0
 11
2005.9
 21
325
 31
0
  0
LINE
  5
4A5
100
AcDbEntity
  8
200
100
AcDbLine
370
-1
  6
AUSGEZOGEN
 10
2020
 20
339.2
 30
0
 11
2020
 21
330.8
 31
0
  0
LINE
  5
4A6
100
AcDbEntity
  8
200
100
AcDbLine
370
-1
  6
AUSGEZOGEN
 10
2005.9
 20
345
 30
0
 11
2014.2
 21
345
 31
0
  0
LINE
  5
4A7
100
AcDbEntity
  8
200
100
AcDbLine
370
-1
  6
AUSGEZOGEN
 10
2000
 20
330.8
 30
0
 11
2000
 21
339.2
 31
0
  0
LINE
  5
4A8
100
AcDbEntity
  8
200
100
AcDbLine
370
-1
  6
AUSGEZOGEN
 10
2054.1
 20
325
 30
0
 11
2045.8
 21
325
 31
0
  0
LINE
  5
4A9
100
AcDbEntity
  8
200
100
AcDbLine
370
-1
  6
AUSGEZOGEN
 10
2060
 20
339.2
 30
0
 11
2060
 21
330.8
 31
0
  0
LINE
  5
4AA
100
AcDbEntity
  8
200
100
AcDbLine
370
-1
  6
AUSGEZOGEN
 10
2045.8
 20
345
 30
0
 11
2054.1
 21
345
 31
0
  0
LINE
  5
4AB
100
AcDbEntity
  8
200
100
AcDbLine
370
-1
  6
AUSGEZOGEN
 10
2040
 20
330.8
 30
0
 11
2040
 21
339.2
 31
0
  0
LINE
  5
4AC
100
AcDbEntity
  8
200
100
AcDbLine
370
-1
  6
AUSGEZOGEN
 10
2094.2
 20
325
 30
0
 11
2085.9
 21
325
 31
0
  0
LINE
  5
4AD
100
AcDbEntity
  8
200
100
AcDbLine
370
-1
  6
AUSGEZOGEN
 10
2100
 20
339.2
 30
0
 11
2100
 21
330.8
 31
0
  0
LINE
  5
4AE
100
AcDbEntity
  8
200
100
AcDbLine
370
-1
  6
AUSGEZOGEN
 10
2085.9
 20
345
 30
0
 11
2094.2
 21
345
 31
0
  0
LINE
  5
4AF
100
AcDbEntity
  8
200
100
AcDbLine
370
-1
  6
AUSGEZOGEN
 10
2080
 20
330.8
 30
0
 11
2080
 21
339.2
 31
0
  0
LINE
  5
4B0
100
AcDbEntity
  8
200
100
AcDbLine
370
-1
  6
AUSGEZOGEN
 10
2134.1
 20
325
 30
0
 11
2125.8
 21
325
 31
0
  0
LINE
  5
4B1
100
AcDbEntity
  8
200
100
AcDbLine
370
-1
  6
AUSGEZOGEN
 10
2140
 20
339.2
 30
0
 11
2140
 21
330.8
 31
0
  0
LINE
  5
4B2
100
AcDbEntity
  8
200
100
AcDbLine
370
-1
  6
AUSGEZOGEN
 10
2125.8
 20
345
 30
0
 11
2134.1
 21
345
 31
0
  0
LINE
  5
4B3
100
AcDbEntity
  8
200
100
AcDbLine
370
-1
  6
AUSGEZOGEN
 10
2120
 20
330.8
 30
0
 11
2120
 21
339.2
 31
0
  0
LINE
  5
4B4
100
AcDbEntity
  8
200
100
AcDbLine
370
-1
  6
AUSGEZOGEN
 10
2174.1
 20
325
 30
0
 11
2165.9
 21
325
 31
0
  0
LINE
  5
4B5
100
AcDbEntity
  8
200
100
AcDbLine
370
-1
  6
AUSGEZOGEN
 10
2180
 20
339.2
 30
0
 11
2180
 21
330.8
 31
0
  0
LINE
  5
4B6
100
AcDbEntity
  8
200
100
AcDbLine
370
-1
  6
AUSGEZOGEN
 10
2165.9
 20
345
 30
0
 11
2174.1
 21
345
 31
0
  0
LINE
  5
4B7
100
AcDbEntity
  8
200
100
AcDbLine
370
-1
  6
AUSGEZOGEN
 10
2160
 20
330.8
 30
0
 11
2160
 21
339.2
 31
0
  0
LINE
  5
4B8
100
AcDbEntity
  8
200
100
AcDbLine
370
-1
  6
AUSGEZOGEN
 10
2214.2
 20
325
 30
0
 11
2205.9
 21
325
 31
0
  0
LINE
  5
4B9
100
AcDbEntity
  8
200
100
AcDbLine
370
-1
  6
AUSGEZOGEN
 10
2220
 20
339.2
 30
0
 11
2220
 21
330.8
 31
0
  0
LINE
  5
4BA
100
AcDbEntity
  8
200
100
AcDbLine
370
-1
  6
AUSGEZOGEN
 10
2205.9
 20
345
 30
0
 11
2214.2
 21
345
 31
0
  0
LINE
  5
4BB
100
AcDbEntity
  8
200
100
AcDbLine
370
-1
  6
AUSGEZOGEN
 10
2200
 20
330.8
 30
0
 11
2200
 21
339.2
 31
0
  0
LINE
  5
4BC
100
AcDbEntity
  8
200
100
AcDbLine
370
-1
  6
AUSGEZOGEN
 10
1250
 20
92.3
 30
0
 11
1250
 21
377.7
 31
0
  0
CIRCLE
  5
4BD
100
AcDbEntity
  8
200
100
AcDbCircle
370
-1
  6
AUSGEZOGEN
 10
2492.5
 20
525
 30
0
 40
25
  0
LINE
  5
4BE
100
AcDbEntity
  8
200
100
AcDbLine
370
-1
  6
AUSGEZOGEN
 10
2349.2
 20
136
 30
0
 11
2340
 21
158.1
 31
0
  0
LINE
  5
4BF
100
AcDbEntity
  8
200
100
AcDbLine
370
-1
  6
AUSGEZOGEN
 10
2619
 20
119.2
 30
0
 11
2596.9
 21
110
 31
0
  0
LINE
  5
4C0
100
AcDbEntity
  8
200
100
AcDbLine
370
-1
  6
AUSGEZOGEN
 10
2366
 20
119.2
 30
0
 11
2388.1
 21
110
 31
0
  0
LINE
  5
4C1
100
AcDbEntity
  8
200
100
AcDbLine
370
-1
  6
AUSGEZOGEN
 10
2349.2
 20
589
 30
0
 11
2340
 21
566.9
 31
0
  0
LINE
  5
4C2
100
AcDbEntity
  8
200
100
AcDbLine
370
-1
  6
AUSGEZOGEN
 10
2596.9
 20
615
 30
0
 11
2388.1
 21
615
 31
0
  0
LINE
  5
4C3
100
AcDbEntity
  8
200
100
AcDbLine
370
-1
  6
AUSGEZOGEN
 10
2366
 20
605.9
 30
0
 11
2388.1
 21
615
 31
0
  0
LINE
  5
4C4
100
AcDbEntity
  8
200
100
AcDbLine
370
-1
  6
AUSGEZOGEN
 10
2349.1
 20
589
 30
0
 11
2366
 21
605.9
 31
0
  0
LINE
  5
4C5
100
AcDbEntity
  8
200
100
AcDbLine
370
-1
  6
AUSGEZOGEN
 10
2340
 20
566.9
 30
0
 11
2349.1
 21
589
 31
0
  0
LINE
  5
4C6
100
AcDbEntity
  8
200
100
AcDbLine
370
-1
  6
AUSGEZOGEN
 10
2340
 20
158.1
 30
0
 11
2340
 21
566.9
 31
0
  0
LINE
  5
4C7
100
AcDbEntity
  8
200
100
AcDbLine
370
-1
  6
AUSGEZOGEN
 10
2349.1
 20
136
 30
0
 11
2340
 21
158.1
 31
0
  0
LINE
  5
4C8
100
AcDbEntity
  8
200
100
AcDbLine
370
-1
  6
AUSGEZOGEN
 10
2366
 20
119.1
 30
0
 11
2349.1
 21
136
 31
0
  0
LINE
  5
4C9
100
AcDbEntity
  8
200
100
AcDbLine
370
-1
  6
AUSGEZOGEN
 10
2388.1
 20
110
 30
0
 11
2366
 21
119.1
 31
0
  0
LINE
  5
4CA
100
AcDbEntity
  8
200
100
AcDbLine
370
-1
  6
AUSGEZOGEN
 10
2596.9
 20
110
 30
0
 11
2388.1
 21
110
 31
0
  0
LINE
  5
4CB
100
AcDbEntity
  8
200
100
AcDbLine
370
-1
  6
AUSGEZOGEN
 10
2619
 20
119.1
 30
0
 11
2596.9
 21
110
 31
0
  0
LINE
  5
4CC
100
AcDbEntity
  8
200
100
AcDbLine
370
-1
  6
AUSGEZOGEN
 10
2635.9
 20
136
 30
0
 11
2619
 21
119.1
 31
0
  0
LINE
  5
4CD
100
AcDbEntity
  8
200
100
AcDbLine
370
-1
  6
AUSGEZOGEN
 10
2645
 20
158.1
 30
0
 11
2635.9
 21
136
 31
0
  0
LINE
  5
4CE
100
AcDbEntity
  8
200
100
AcDbLine
370
-1
  6
AUSGEZOGEN
 10
2645
 20
566.9
 30
0
 11
2645
 21
158.1
 31
0
  0
LINE
  5
4CF
100
AcDbEntity
  8
200
100
AcDbLine
370
-1
  6
AUSGEZOGEN
 10
2635.9
 20
589
 30
0
 11
2645
 21
566.9
 31
0
  0
LINE
  5
4D0
100
AcDbEntity
  8
200
100
AcDbLine
370
-1
  6
AUSGEZOGEN
 10
2619
 20
605.9
 30
0
 11
2635.9
 21
589
 31
0
  0
LINE
  5
4D1
100
AcDbEntity
  8
200
100
AcDbLine
370
-1
  6
AUSGEZOGEN
 10
2596.9
 20
615
 30
0
 11
2619
 21
605.9
 31
0
  0
CIRCLE
  5
4D2
100
AcDbEntity
  8
200
100
AcDbCircle
370
-1
  6
AUSGEZOGEN
 10
2847.5
 20
525
 30
0
 40
25
  0
LINE
  5
4D3
100
AcDbEntity
  8
200
100
AcDbLine
370
-1
  6
AUSGEZOGEN
 10
2721
 20
119.2
 30
0
 11
2743
 21
110
 31
0
  0
LINE
  5
4D4
100
AcDbEntity
  8
200
100
AcDbLine
370
-1
  6
AUSGEZOGEN
 10
2974
 20
119.2
 30
0
 11
2951.9
 21
110
 31
0
  0
LINE
  5
4D5
100
AcDbEntity
  8
200
100
AcDbLine
370
-1
  6
AUSGEZOGEN
 10
2743
 20
615
 30
0
 11
2951.9
 21
615
 31
0
  0
LINE
  5
4D6
100
AcDbEntity
  8
200
100
AcDbLine
370
-1
  6
AUSGEZOGEN
 10
2974
 20
605.9
 30
0
 11
2951.9
 21
615
 31
0
  0
LINE
  5
4D7
100
AcDbEntity
  8
200
100
AcDbLine
370
-1
  6
AUSGEZOGEN
 10
2990.9
 20
589
 30
0
 11
2974
 21
605.9
 31
0
  0
LINE
  5
4D8
100
AcDbEntity
  8
200
100
AcDbLine
370
-1
  6
AUSGEZOGEN
 10
3000
 20
566.9
 30
0
 11
2990.9
 21
589
 31
0
  0
LINE
  5
4D9
100
AcDbEntity
  8
200
100
AcDbLine
370
-1
  6
AUSGEZOGEN
 10
3000
 20
158.1
 30
0
 11
3000
 21
566.9
 31
0
  0
LINE
  5
4DA
100
AcDbEntity
  8
200
100
AcDbLine
370
-1
  6
AUSGEZOGEN
 10
2990.9
 20
136
 30
0
 11
3000
 21
158.1
 31
0
  0
LINE
  5
4DB
100
AcDbEntity
  8
200
100
AcDbLine
370
-1
  6
AUSGEZOGEN
 10
2974
 20
119.1
 30
0
 11
2990.9
 21
136
 31
0
  0
LINE
  5
4DC
100
AcDbEntity
  8
200
100
AcDbLine
370
-1
  6
AUSGEZOGEN
 10
2951.9
 20
110
 30
0
 11
2974
 21
119.1
 31
0
  0
LINE
  5
4DD
100
AcDbEntity
  8
200
100
AcDbLine
370
-1
  6
AUSGEZOGEN
 10
2743
 20
110
 30
0
 11
2951.9
 21
110
 31
0
  0
LINE
  5
4DE
100
AcDbEntity
  8
200
100
AcDbLine
370
-1
  6
AUSGEZOGEN
 10
2721
 20
119.1
 30
0
 11
2743
 21
110
 31
0
  0
LINE
  5
4DF
100
AcDbEntity
  8
200
100
AcDbLine
370
-1
  6
AUSGEZOGEN
 10
2704.1
 20
136
 30
0
 11
2721
 21
119.1
 31
0
  0
LINE
  5
4E0
100
AcDbEntity
  8
200
100
AcDbLine
370
-1
  6
AUSGEZOGEN
 10
2695
 20
158.1
 30
0
 11
2704.1
 21
136
 31
0
  0
LINE
  5
4E1
100
AcDbEntity
  8
200
100
AcDbLine
370
-1
  6
AUSGEZOGEN
 10
2695
 20
566.9
 30
0
 11
2695
 21
158.1
 31
0
  0
LINE
  5
4E2
100
AcDbEntity
  8
200
100
AcDbLine
370
-1
  6
AUSGEZOGEN
 10
2704.1
 20
589
 30
0
 11
2695
 21
566.9
 31
0
  0
LINE
  5
4E3
100
AcDbEntity
  8
200
100
AcDbLine
370
-1
  6
AUSGEZOGEN
 10
2721
 20
605.9
 30
0
 11
2704.1
 21
589
 31
0
  0
LINE
  5
4E4
100
AcDbEntity
  8
200
100
AcDbLine
370
-1
  6
AUSGEZOGEN
 10
2743
 20
615
 30
0
 11
2721
 21
605.9
 31
0
  0
CIRCLE
  5
4E5
100
AcDbEntity
  8
200
100
AcDbCircle
370
-1
  6
AUSGEZOGEN
 10
2670
 20
578
 30
0
 40
17
  0
LINE
  5
4E6
100
AcDbEntity
  8
200
100
AcDbLine
370
-1
  6
AUSGEZOGEN
 10
0
 20
750
 30
0
 11
3100
 21
750
 31
0
  0
LINE
  5
4E7
100
AcDbEntity
  8
200
100
AcDbLine
370
-1
  6
AUSGEZOGEN
 10
0
 20
0
 30
0
 11
0
 21
750
 31
0
  0
LINE
  5
4E8
100
AcDbEntity
  8
200
100
AcDbLine
370
-1
  6
AUSGEZOGEN
 10
3100
 20
0
 30
0
 11
0
 21
0
 31
0
  0
LINE
  5
4E9
100
AcDbEntity
  8
200
100
AcDbLine
370
-1
  6
AUSGEZOGEN
 10
3100
 20
750
 30
0
 11
3100
 21
0
 31
0
  0
ATTDEF
  5
4EB
100
AcDbEntity
  8
0
100
AcDbText
370
-1
 10
0
 20
0
 30
0
 40
1
  1

 50
0
 41
1
 51
0
  7
STANDARD
 71
0
 72
0
 11
0
 21
0
 31
0
100
AcDbAttributeDefinition
  3

  2

 70
0
 74
0
1001
AcDbAttr
1070
0
1070
0
  0
ENDBLK
  5
508
100
AcDbEntity
  8
0
100
AcDbBlockEnd
  0
BLOCK
  5
4F1
100
AcDbEntity
  8
420
100
AcDbBlockBegin
  2
INST_BLOCK_00001
 70
2
 10
0
 20
0
 30
0
  3
INST_BLOCK_00001
  1

  0
CIRCLE
  5
20
100
AcDbEntity
  8
420
100
AcDbCircle
370
-1
  6
AUSGEZOGEN
 10
430
 20
550
 30
0
 40
50
  0
LINE
  5
21
100
AcDbEntity
  8
420
100
AcDbLine
370
-1
  6
AUSGEZOGEN
 10
505
 20
550
 30
0
 11
430
 21
550
 31
0
  0
LINE
  5
22
100
AcDbEntity
  8
420
100
AcDbLine
370
-1
  6
AUSGEZOGEN
 10
355
 20
550
 30
0
 11
430
 21
550
 31
0
  0
LINE
  5
23
100
AcDbEntity
  8
420
100
AcDbLine
370
-1
  6
AUSGEZOGEN
 10
430
 20
625
 30
0
 11
430
 21
550
 31
0
  0
LINE
  5
24
100
AcDbEntity
  8
420
100
AcDbLine
370
-1
  6
AUSGEZOGEN
 10
430
 20
475
 30
0
 11
430
 21
550
 31
0
  0
ATTDEF
  5
4F0
100
AcDbEntity
  8
0
100
AcDbText
370
-1
 10
0
 20
0
 30
0
 40
1
  1

 50
0
 41
1
 51
0
  7
STANDARD
 71
0
 72
0
 11
0
 21
0
 31
0
100
AcDbAttributeDefinition
  3

  2

 70
0
 74
0
1001
AcDbAttr
1070
0
1070
0
  0
ENDBLK
  5
509
100
AcDbEntity
  8
0
100
AcDbBlockEnd
  0
ENDSEC
  0
SECTION
  2
ENTITIES
  0
LINE
  5
1C
100
AcDbEntity
  8
420
100
AcDbLine
370
-1
  6
AUSGEZOGEN
 10
430
 20
550
 30
0
 11
3861.5
 21
616.5
 31
0
  0
LINE
  5
1F
100
AcDbEntity
  8
420
100
AcDbLine
370
-1
  6
AUSGEZOGEN
 10
4045.96
 20
616.5
 30
0
 11
3861.5
 21
616.5
 31
0
  0
TEXT
  5
4EA
100
AcDbEntity
  8
420
100
AcDbText
370
-1
 10
3875
 20
630
 30
0
 40
45
  1
A: DN40
 50
0
 41
0.600000023841858
 51
0
  7
STANDARD
 71
0
 72
0
 11
0
 21
0
 31
0
100
AcDbText
 73
0
  0
INSERT
  5
4EF
100
AcDbEntity
  8
200
100
AcDbBlockReference
370
-1
  6
BYLAYER
 66
1
  2
GER_BLOCK_00001
 10
0
 20
0
 30
0
 41
1
 42
1
 43
1
  0
ATTRIB
  5
4EE
100
AcDbEntity
  8
0
100
AcDbText
370
-1
 10
0
 20
0
 30
0
 40
20
  1

 50
0
 41
1
 51
0
  7
STANDARD
 71
0
 72
0
 11
0
 21
0
 31
0
100
AcDbAttribute
  2

 70
0
 74
0
1001
AcDbAttr
1070
0
1070
0
  0
SEQEND
  5
50A
100
AcDbEntity
  8
0
  0
INSERT
  5
4F4
100
AcDbEntity
  8
420
100
AcDbBlockReference
370
-1
  6
BYLAYER
 66
1
  2
INST_BLOCK_00001
 10
0
 20
0
 30
0
 41
1
 42
1
 43
1
  0
ATTRIB
  5
4F3
100
AcDbEntity
  8
0
100
AcDbText
370
-1
 10
0
 20
0
 30
0
 40
20
  1

 50
0
 41
1
 51
0
  7
STANDARD
 71
0
 72
0
 11
0
 21
0
 31
0
100
AcDbAttribute
  2

 70
0
 74
0
1001
AcDbAttr
1070
0
1070
0
  0
SEQEND
  5
50B
100
AcDbEntity
  8
0
  0
ATTDEF
  5
4F5
100
AcDbEntity
  8
550
100
AcDbText
370
-1
 10
10
 20
100
 30
0
 40
30
  1

 50
0
 41
1
 51
0
  7
STANDARD
 71
0
 72
0
 11
0
 21
0
 31
0
100
AcDbAttributeDefinition
  3
KBS-304222
  2
KBS-304222
 70
1
 74
0
1001
AcDbAttr
1070
0
1070
0
  0
TEXT
  5
4F6
100
AcDbEntity
  8
510
100
AcDbText
370
-1
 10
10
 20
-45
 30
0
 40
30
  1

 50
0
 41
1
 51
0
  7
STANDARD
 71
0
 72
0
 11
0
 21
0
 31
0
100
AcDbText
 73
0
  0
ENDSEC
  0
SECTION
  2
OBJECTS
  0
DICTIONARY
  5
50C
100
AcDbDictionary
  3
ACAD_GROUP
350
50D
  3
ACAD_MATERIAL
350
50E
  3
ACAD_WIPEOUT_VARS
350
50F
  3
ACAD_MLINESTYLE
350
510
  3
ACAD_LAYOUT
350
511
  0
DICTIONARY
  5
50D
330
50C
100
AcDbDictionary
  0
DICTIONARY
  5
50E
330
50C
100
AcDbDictionary
  0
WIPEOUTVARIABLES
  5
50F
330
50C
100
AcDbWipeoutVariables
 70
1
  0
DICTIONARY
  5
510
330
50C
100
AcDbDictionary
  3
STANDARD
350
512
  0
MLINESTYLE
  5
512
100
AcDbMlineStyle
  2
STANDARD
 70
0
  3

 62
256
 51
90
 52
90
 71
2
 49
0.5
 62
256
  6
ByLayer
 49
-0.5
 62
256
  6
ByLayer
  0
DICTIONARY
  5
511
100
AcDbDictionary
281
1
  3
Model
350
4F7
  0
LAYOUT
  5
4F7
102
{ACAD_REACTORS
330
511
102
}
330
511
100
AcDbPlotSettings
  1

  2
none_device
  4

  6

 40
0
 41
0
 42
0
 43
0
 44
0
 45
0
 46
0
 47
0
 48
0
 49
0
 70
1712
 72
1
 73
0
 74
5
 75
16
 76
0
 77
0
 78
100
140
0
141
0
142
1
143
1
147
1
148
0
149
0
100
AcDbLayout
  1
Model
 70
1
 71
1
 10
0
 20
0
 11
4045.96
 21
750
 12
0
 22
0
 32
0
 14
0
 24
0
 34
0
 15
4045.96
 25
750
 35
0
146
0
 13
0
 23
0
 33
0
 16
1
 26
0
 36
0
 17
0
 27
1
 37
0
 76
0
330
1E
  0
DICTIONARY
  5
513
100
AcDbDictionary
280
1
  3
XINFO
360
514
  0
XRECORD
  5
514
102
{ACAD_REACTORS
330
513
102
}
330
513
100
AcDbXrecord
280
0
310
8F24010003000900
311
831FB5671C374E24
  0
ENDSEC
  0
EOF
