999
     Created by SWS GmbH, Paderborn, Germany, www.sws-online.de
999
     and  Soft Gold Ltd. www.cadsofttools.com
999

999
SWS-intern Ausgabemassstab:
999
   0.0500
999

999
SWS-intern Koordinatenwerte 1:1:
999
1
999

  0
SECTION
  2
HEADER
  9
$ACADVER
  1
AC1018
  9
$DWGCODEPAGE
  3
ANSI_1252
  9
$CLAYER
  8
0
  9
$CELTYPE
  6
BYLAYER
  9
$CELTSCALE
 40
1
  9
$CELWEIGHT
370
-1
  9
$DIMALT
 70
0
  9
$DIMALTF
 40
1
  9
$DIMPOST
  1

  9
$DIMAPOST
  1

  9
$DIMSCALE
 40
1
  9
$DIMASZ
 40
0.18
  9
$DIMCLRD
 70
0
  9
$DIMCLRE
 70
0
  9
$DIMCLRT
 70
0
  9
$DIMEXE
 40
0.18
  9
$DIMEXO
 40
0.0625
  9
$DIMGAP
 40
0.0625
  9
$DIMLFAC
 40
1
  9
$DIMDEC
 70
4
  9
$DIMTAD
 70
0
  9
$DIMCEN
 40
0.09
  9
$DIMTIH
 70
1
  9
$DIMTIX
 70
0
  9
$DIMTOH
 70
1
  9
$DIMSE1
 70
0
  9
$DIMSE2
 70
0
  9
$DIMSD1
 70
0
  9
$DIMSD2
 70
0
  9
$DIMLWD
 70
-1
  9
$DIMLWE
 70
-1
  9
$DIMSAH
 70
0
  9
$DIMBLK
  1

  9
$DIMBLK1
  1

  9
$DIMBLK2
  1

  9
$DIMLDRBLK
  1

  9
$DIMSTYLE
  2
STANDARD
  9
$DIMTP
 40
0
  9
$DIMTM
 40
0
  9
$DIMTXT
 40
0.18
  9
$DIMLUNIT
 70
2
  9
$DIMDSEP
 70
46
  9
$DIMTXSTY
  7
STANDARD
  9
$TEXTSIZE
 40
0.18
  9
$TEXTSTYLE
  7
STANDARD
  9
$HANDSEED
  5
000000000000027A
  9
$FILLETRAD
 40
0.5
  9
$INSUNITS
 70
4
  9
$LIMMIN
 10
-371.72
 20
-150.625
  9
$LIMMAX
 10
3345.48
 20
1355.625
  9
$FILLMODE
 70
1
  9
$LTSCALE
 40
1
  9
$PSLTSCALE
 70
0
  9
$MEASUREMENT
 70
0
  9
$ATTMODE
 70
1
  9
$PDMODE
 70
0
  9
$PDSIZE
 40
0
  9
$TILEMODE
 70
1
  9
$UCSORG
 10
0
 20
0
 30
0
  9
$UCSXDIR
 10
1
 20
0
 30
0
  9
$UCSYDIR
 10
0
 20
1
 30
0
  9
$INSBASE
 10
0
 20
0
 30
0
  9
$XCLIPFRAME
290
1
  9
$DIMASSOC
280
2
  9
$TDCREATE
 40
2459104.65604679
  9
$TDINDWG
 40
1.38888888888889E-7
  9
$TDUPDATE
 40
2459104.65604693
  0
ENDSEC
  0
SECTION
  2
CLASSES
  0
CLASS
  1
IMAGE
  2
AcDbRasterImage
  3
ISM
 90
2175
 91
1
280
0
281
1
  0
CLASS
  1
IMAGEDEF
  2
AcDbRasterImageDef
  3
ISM
 90
0
 91
1
280
0
281
0
  0
CLASS
  1
WIPEOUT
  2
AcDbWipeout
  3
"WipeOut"
 90
2175
 91
1
280
0
281
1
  0
CLASS
  1
WIPEOUTVARIABLES
  2
AcDbWipeoutVariables
  3
"WipeOut"
 90
0
 91
1
280
0
281
0
  0
CLASS
  1
MPOLYGON
  2
AcDbMPolygon
  3
"AcMPolygonObj15"
 90
3071
 91
1
280
0
281
1
  0
ENDSEC
  0
SECTION
  2
TABLES
  0
TABLE
  2
APPID
  5
25D
100
AcDbSymbolTable
  0
APPID
  5
25E
100
AcDbSymbolTableRecord
100
AcDbRegAppTableRecord
  2
ACAD
 70
0
  0
APPID
  5
12
100
AcDbSymbolTableRecord
100
AcDbRegAppTableRecord
  2
CSTINVENTORY
 70
0
  0
APPID
  5
25F
100
AcDbSymbolTableRecord
100
AcDbRegAppTableRecord
  2
AcDbAttr
 70
0
  0
APPID
  5
260
100
AcDbSymbolTableRecord
100
AcDbRegAppTableRecord
  2
PE_URL
 70
0
  0
ENDTAB
  0
TABLE
  2
BLOCK_RECORD
  5
261
100
AcDbSymbolTable
  0
BLOCK_RECORD
  5
1E
100
AcDbSymbolTableRecord
100
AcDbBlockTableRecord
  2
*MODEL_SPACE
  0
BLOCK_RECORD
  5
262
100
AcDbSymbolTableRecord
100
AcDbBlockTableRecord
  2
*PAPER_SPACE
  0
BLOCK_RECORD
  5
10
100
AcDbSymbolTableRecord
100
AcDbBlockTableRecord
  2
_CLOSEDFILLED
  0
BLOCK_RECORD
  5
252
100
AcDbSymbolTableRecord
100
AcDbBlockTableRecord
  2
GER_BLOCK_00001
  0
BLOCK_RECORD
  5
257
100
AcDbSymbolTableRecord
100
AcDbBlockTableRecord
  2
INST_BLOCK_00001
  0
ENDTAB
  0
TABLE
  2
STYLE
  5
3
100
AcDbSymbolTable
  0
STYLE
  5
A
100
AcDbSymbolTableRecord
100
AcDbTextStyleTableRecord
  2
STANDARD
 70
0
 40
0
 41
1
 50
0
 71
0
 42
30
  3
TXT.SHX
  4

1001
ACAD
1000
txt
1071
0
  0
ENDTAB
  0
TABLE
  2
LTYPE
  5
1
100
AcDbSymbolTable
  0
LTYPE
  5
9
100
AcDbSymbolTableRecord
100
AcDbLinetypeTableRecord
  2
CONTINUOUS
 70
0
  3

 72
65
 73
0
 40
0
  0
LTYPE
  5
7
100
AcDbSymbolTableRecord
100
AcDbLinetypeTableRecord
  2
BYLAYER
 70
0
  3

 72
65
 73
0
 40
0
  0
LTYPE
  5
8
100
AcDbSymbolTableRecord
100
AcDbLinetypeTableRecord
  2
BYBLOCK
 70
0
  3

 72
65
 73
0
 40
0
  0
LTYPE
  5
13
100
AcDbSymbolTableRecord
100
AcDbLinetypeTableRecord
  2
AUSGEZOGEN
 70
0
  3
.
 72
65
 73
1
 40
0
 49
0
 74
0
  0
LTYPE
  5
14
100
AcDbSymbolTableRecord
100
AcDbLinetypeTableRecord
  2
PUNKTIERT
 70
0
  3
. 
 72
65
 73
2
 40
30
 49
0
 74
0
 49
-30
 74
0
  0
LTYPE
  5
15
100
AcDbSymbolTableRecord
100
AcDbLinetypeTableRecord
  2
GESTRICHELT
 70
0
  3
_ 
 72
65
 73
2
 40
80
 49
50
 74
0
 49
-30
 74
0
  0
LTYPE
  5
16
100
AcDbSymbolTableRecord
100
AcDbLinetypeTableRecord
  2
STRICHPUNKT
 70
0
  3
_ . 
 72
65
 73
4
 40
160
 49
100
 74
0
 49
-30
 74
0
 49
0
 74
0
 49
-30
 74
0
  0
LTYPE
  5
17
100
AcDbSymbolTableRecord
100
AcDbLinetypeTableRecord
  2
GETRENNT
 70
0
  3
_ . . 
 72
65
 73
6
 40
190
 49
100
 74
0
 49
-30
 74
0
 49
0
 74
0
 49
-30
 74
0
 49
0
 74
0
 49
-30
 74
0
  0
ENDTAB
  0
TABLE
  2
LAYER
  5
2
100
AcDbSymbolTable
  0
LAYER
  5
E
100
AcDbSymbolTableRecord
100
AcDbLayerTableRecord
  2
0
 70
0
 62
1
420
16711680
  6
AUSGEZOGEN
290
1
370
-3
390
0
  0
LAYER
  5
18
100
AcDbSymbolTableRecord
100
AcDbLayerTableRecord
  2
550
 70
0
 62
2
420
16776960
  6
AUSGEZOGEN
290
1
370
-3
390
0
  0
LAYER
  5
19
100
AcDbSymbolTableRecord
100
AcDbLayerTableRecord
  2
510
 70
0
 62
2
420
16776960
  6
AUSGEZOGEN
290
1
370
-3
390
0
  0
LAYER
  5
1A
100
AcDbSymbolTableRecord
100
AcDbLayerTableRecord
  2
200
 70
0
 62
7
  6
AUSGEZOGEN
290
1
370
-3
390
0
  0
LAYER
  5
1B
100
AcDbSymbolTableRecord
100
AcDbLayerTableRecord
  2
400
 70
0
 62
4
420
65535
  6
AUSGEZOGEN
290
1
370
-3
390
0
  0
ENDTAB
  0
TABLE
  2
VPORT
  5
263
100
AcDbSymbolTable
  0
VPORT
  5
265
100
AcDbSymbolTableRecord
100
AcDbViewportTableRecord
  2
*ACTIVE
 70
0
 10
0
 20
0
 11
1
 21
1
 12
1486.88
 22
602.5
 32
0
 13
0
 23
0
 14
1
 24
1
 15
1
 25
1
 16
0
 26
0
 36
1
 17
0
 27
0
 37
0
 40
1205
 41
2.46785062240664
 42
50
 43
0
 44
0
 50
0
 51
0
 71
0
 72
100
 73
1
 74
1
 75
0
 76
0
 77
0
 78
0
  0
ENDTAB
  0
TABLE
  2
VIEW
  5
266
100
AcDbSymbolTable
  0
ENDTAB
  0
TABLE
  2
UCS
  5
267
100
AcDbSymbolTable
  0
ENDTAB
  0
TABLE
  2
DIMSTYLE
  5
4
100
AcDbSymbolTable
 70
1
100
AcDbDimStyleTable
 71
0
  0
DIMSTYLE
105
B
100
AcDbSymbolTableRecord
100
AcDbDimStyleTableRecord
  2
STANDARD
 70
0
  3

 40
1
 41
0.18
 42
0.0625
 44
0.18
 47
0
 48
0
 73
1
 74
1
 75
0
 76
0
 77
0
140
0.18
141
0.09
144
1
147
0.0625
173
0
174
0
176
0
177
0
178
0
277
2
278
46
281
0
282
0
271
4
340
A
371
-1
372
-1
  0
ENDTAB
  0
ENDSEC
  0
SECTION
  2
BLOCKS
  0
BLOCK
  5
268
100
AcDbEntity
  8
0
100
AcDbBlockBegin
  2
*MODEL_SPACE
 70
0
 10
0
 20
0
  0
ENDBLK
  5
269
100
AcDbEntity
  8
0
100
AcDbBlockEnd
  0
BLOCK
  5
26A
100
AcDbEntity
  8
0
100
AcDbBlockBegin
  2
*PAPER_SPACE
 70
0
 10
0
 20
0
  0
ENDBLK
  5
26B
100
AcDbEntity
  8
0
100
AcDbBlockEnd
  0
BLOCK
  5
F
100
AcDbEntity
  8
0
100
AcDbBlockBegin
  2
_CLOSEDFILLED
 70
0
 10
0
 20
0
 30
0
  3
_CLOSEDFILLED
  1

  0
SOLID
  5
C
100
AcDbEntity
  8
0
100
AcDbTrace
370
-2
 62
0
 10
-1
 20
0.166666666666667
 30
0
 11
0
 21
0
 31
0
 12
-1
 22
0.166666666666667
 32
0
 13
-1
 23
-0.166666666666667
 33
0
  0
LINE
  5
D
100
AcDbEntity
  8
0
100
AcDbLine
370
-2
 62
0
 10
-1
 20
0
 30
0
 11
-2
 21
0
 31
0
  0
ENDBLK
  5
26C
100
AcDbEntity
  8
0
100
AcDbBlockEnd
  0
BLOCK
  5
251
100
AcDbEntity
  8
200
100
AcDbBlockBegin
  2
GER_BLOCK_00001
 70
2
 10
0
 20
0
 30
0
  3
GER_BLOCK_00001
  1

  0
LINE
  5
25
100
AcDbEntity
  8
200
100
AcDbLine
370
-1
  6
AUSGEZOGEN
 10
1926
 20
1199.11
 30
0
 11
46
 21
1199.11
 31
0
  0
LINE
  5
26
100
AcDbEntity
  8
200
100
AcDbLine
370
-1
  6
AUSGEZOGEN
 10
1936
 20
772
 30
0
 11
1936
 21
1205
 31
0
  0
LINE
  5
27
100
AcDbEntity
  8
200
100
AcDbLine
370
-1
  6
AUSGEZOGEN
 10
1926
 20
978.83
 30
0
 11
1936
 21
978.83
 31
0
  0
LINE
  5
28
100
AcDbEntity
  8
200
100
AcDbLine
370
-1
  6
AUSGEZOGEN
 10
46
 20
1155
 30
0
 11
1926
 21
1155
 31
0
  0
LINE
  5
29
100
AcDbEntity
  8
200
100
AcDbLine
370
-1
  6
AUSGEZOGEN
 10
1926
 20
1195
 30
0
 11
46
 21
1195
 31
0
  0
LINE
  5
2A
100
AcDbEntity
  8
200
100
AcDbLine
370
-1
  6
AUSGEZOGEN
 10
36
 20
772
 30
0
 11
36
 21
1205
 31
0
  0
LINE
  5
2B
100
AcDbEntity
  8
200
100
AcDbLine
370
-1
  6
AUSGEZOGEN
 10
1936
 20
1205
 30
0
 11
36
 21
1205
 31
0
  0
LINE
  5
2C
100
AcDbEntity
  8
200
100
AcDbLine
370
-1
  6
AUSGEZOGEN
 10
36
 20
772
 30
0
 11
1936
 21
772
 31
0
  0
LINE
  5
2D
100
AcDbEntity
  8
200
100
AcDbLine
370
-1
  6
AUSGEZOGEN
 10
46
 20
978.83
 30
0
 11
36
 21
978.83
 31
0
  0
LINE
  5
2E
100
AcDbEntity
  8
200
100
AcDbLine
370
-1
  6
AUSGEZOGEN
 10
1926
 20
1033
 30
0
 11
46
 21
1033
 31
0
  0
LINE
  5
2F
100
AcDbEntity
  8
200
100
AcDbLine
370
-1
  6
AUSGEZOGEN
 10
46
 20
1043
 30
0
 11
1926
 21
1043
 31
0
  0
LINE
  5
30
100
AcDbEntity
  8
200
100
AcDbLine
370
-1
  6
AUSGEZOGEN
 10
1926
 20
772
 30
0
 11
1926
 21
1205
 31
0
  0
LINE
  5
31
100
AcDbEntity
  8
200
100
AcDbLine
370
-1
  6
AUSGEZOGEN
 10
46
 20
1205
 30
0
 11
46
 21
772
 31
0
  0
LINE
  5
32
100
AcDbEntity
  8
200
100
AcDbLine
370
-1
  6
AUSGEZOGEN
 10
1937
 20
771
 30
0
 11
35
 21
771
 31
0
  0
LINE
  5
33
100
AcDbEntity
  8
200
100
AcDbLine
370
-1
  6
AUSGEZOGEN
 10
1972
 20
895
 30
0
 11
1937
 21
895
 31
0
  0
LINE
  5
34
100
AcDbEntity
  8
200
100
AcDbLine
370
-1
  6
AUSGEZOGEN
 10
35
 20
936
 30
0
 11
1937
 21
936
 31
0
  0
LINE
  5
35
100
AcDbEntity
  8
200
100
AcDbLine
370
-1
  6
AUSGEZOGEN
 10
1937
 20
675
 30
0
 11
1937
 21
971
 31
0
  0
LINE
  5
36
100
AcDbEntity
  8
200
100
AcDbLine
370
-1
  6
AUSGEZOGEN
 10
1972
 20
971
 30
0
 11
1972
 21
675
 31
0
  0
LINE
  5
37
100
AcDbEntity
  8
200
100
AcDbLine
370
-1
  6
AUSGEZOGEN
 10
0
 20
895
 30
0
 11
35
 21
895
 31
0
  0
LINE
  5
38
100
AcDbEntity
  8
200
100
AcDbLine
370
-1
  6
AUSGEZOGEN
 10
1972
 20
971
 30
0
 11
0
 21
971
 31
0
  0
LINE
  5
39
100
AcDbEntity
  8
200
100
AcDbLine
370
-1
  6
AUSGEZOGEN
 10
35
 20
675
 30
0
 11
35
 21
971
 31
0
  0
LINE
  5
3A
100
AcDbEntity
  8
200
100
AcDbLine
370
-1
  6
AUSGEZOGEN
 10
0
 20
971
 30
0
 11
0
 21
675
 31
0
  0
LINE
  5
3B
100
AcDbEntity
  8
200
100
AcDbLine
370
-1
  6
AUSGEZOGEN
 10
1822
 20
398
 30
0
 11
150
 21
398
 31
0
  0
LINE
  5
3C
100
AcDbEntity
  8
200
100
AcDbLine
370
-1
  6
AUSGEZOGEN
 10
150
 20
675
 30
0
 11
150
 21
398
 31
0
  0
LINE
  5
3D
100
AcDbEntity
  8
200
100
AcDbLine
370
-1
  6
AUSGEZOGEN
 10
1972
 20
675
 30
0
 11
0
 21
675
 31
0
  0
LINE
  5
3E
100
AcDbEntity
  8
200
100
AcDbLine
370
-1
  6
AUSGEZOGEN
 10
1822
 20
398
 30
0
 11
1822
 21
675
 31
0
  0
LINE
  5
3F
100
AcDbEntity
  8
200
100
AcDbLine
370
-1
  6
AUSGEZOGEN
 10
998.06
 20
844.11
 30
0
 11
1048.23
 21
844.11
 31
0
  0
LINE
  5
40
100
AcDbEntity
  8
200
100
AcDbLine
370
-1
  6
AUSGEZOGEN
 10
1048.23
 20
833.08
 30
0
 11
998.06
 21
833.08
 31
0
  0
LINE
  5
41
100
AcDbEntity
  8
200
100
AcDbLine
370
-1
  6
AUSGEZOGEN
 10
1131.42
 20
844.11
 30
0
 11
1081.34
 21
844.11
 31
0
  0
LINE
  5
42
100
AcDbEntity
  8
200
100
AcDbLine
370
-1
  6
AUSGEZOGEN
 10
1081.34
 20
833.08
 30
0
 11
1131.42
 21
833.08
 31
0
  0
LINE
  5
43
100
AcDbEntity
  8
200
100
AcDbLine
370
-1
  6
AUSGEZOGEN
 10
1214.7
 20
844.11
 30
0
 11
1164.57
 21
844.11
 31
0
  0
LINE
  5
44
100
AcDbEntity
  8
200
100
AcDbLine
370
-1
  6
AUSGEZOGEN
 10
1164.57
 20
833.08
 30
0
 11
1214.7
 21
833.08
 31
0
  0
LINE
  5
45
100
AcDbEntity
  8
200
100
AcDbLine
370
-1
  6
AUSGEZOGEN
 10
1297.98
 20
844.11
 30
0
 11
1247.83
 21
844.11
 31
0
  0
LINE
  5
46
100
AcDbEntity
  8
200
100
AcDbLine
370
-1
  6
AUSGEZOGEN
 10
1247.83
 20
833.08
 30
0
 11
1297.98
 21
833.08
 31
0
  0
LINE
  5
47
100
AcDbEntity
  8
200
100
AcDbLine
370
-1
  6
AUSGEZOGEN
 10
1381.23
 20
844.11
 30
0
 11
1331.1
 21
844.11
 31
0
  0
LINE
  5
48
100
AcDbEntity
  8
200
100
AcDbLine
370
-1
  6
AUSGEZOGEN
 10
1331.1
 20
833.08
 30
0
 11
1381.23
 21
833.08
 31
0
  0
LINE
  5
49
100
AcDbEntity
  8
200
100
AcDbLine
370
-1
  6
AUSGEZOGEN
 10
1464.5
 20
844.11
 30
0
 11
1414.36
 21
844.11
 31
0
  0
LINE
  5
4A
100
AcDbEntity
  8
200
100
AcDbLine
370
-1
  6
AUSGEZOGEN
 10
1414.36
 20
833.08
 30
0
 11
1464.5
 21
833.08
 31
0
  0
LINE
  5
4B
100
AcDbEntity
  8
200
100
AcDbLine
370
-1
  6
AUSGEZOGEN
 10
1547.72
 20
844.11
 30
0
 11
1497.58
 21
844.11
 31
0
  0
LINE
  5
4C
100
AcDbEntity
  8
200
100
AcDbLine
370
-1
  6
AUSGEZOGEN
 10
1497.58
 20
833.08
 30
0
 11
1547.72
 21
833.08
 31
0
  0
LINE
  5
4D
100
AcDbEntity
  8
200
100
AcDbLine
370
-1
  6
AUSGEZOGEN
 10
1631
 20
844.11
 30
0
 11
1580.85
 21
844.11
 31
0
  0
LINE
  5
4E
100
AcDbEntity
  8
200
100
AcDbLine
370
-1
  6
AUSGEZOGEN
 10
1580.85
 20
833.08
 30
0
 11
1631
 21
833.08
 31
0
  0
LINE
  5
4F
100
AcDbEntity
  8
200
100
AcDbLine
370
-1
  6
AUSGEZOGEN
 10
1714.25
 20
844.11
 30
0
 11
1664.09
 21
844.11
 31
0
  0
LINE
  5
50
100
AcDbEntity
  8
200
100
AcDbLine
370
-1
  6
AUSGEZOGEN
 10
1664.09
 20
833.08
 30
0
 11
1714.25
 21
833.08
 31
0
  0
LINE
  5
51
100
AcDbEntity
  8
200
100
AcDbLine
370
-1
  6
AUSGEZOGEN
 10
1797.51
 20
844.11
 30
0
 11
1747.38
 21
844.11
 31
0
  0
LINE
  5
52
100
AcDbEntity
  8
200
100
AcDbLine
370
-1
  6
AUSGEZOGEN
 10
1747.38
 20
833.08
 30
0
 11
1797.51
 21
833.08
 31
0
  0
LINE
  5
53
100
AcDbEntity
  8
200
100
AcDbLine
370
-1
  6
AUSGEZOGEN
 10
998.06
 20
827.51
 30
0
 11
1048.23
 21
827.51
 31
0
  0
LINE
  5
54
100
AcDbEntity
  8
200
100
AcDbLine
370
-1
  6
AUSGEZOGEN
 10
1048.23
 20
816.49
 30
0
 11
998.06
 21
816.49
 31
0
  0
LINE
  5
55
100
AcDbEntity
  8
200
100
AcDbLine
370
-1
  6
AUSGEZOGEN
 10
1131.42
 20
827.51
 30
0
 11
1081.34
 21
827.51
 31
0
  0
LINE
  5
56
100
AcDbEntity
  8
200
100
AcDbLine
370
-1
  6
AUSGEZOGEN
 10
1081.34
 20
816.49
 30
0
 11
1131.42
 21
816.49
 31
0
  0
LINE
  5
57
100
AcDbEntity
  8
200
100
AcDbLine
370
-1
  6
AUSGEZOGEN
 10
1214.7
 20
827.51
 30
0
 11
1164.57
 21
827.51
 31
0
  0
LINE
  5
58
100
AcDbEntity
  8
200
100
AcDbLine
370
-1
  6
AUSGEZOGEN
 10
1164.57
 20
816.49
 30
0
 11
1214.7
 21
816.49
 31
0
  0
LINE
  5
59
100
AcDbEntity
  8
200
100
AcDbLine
370
-1
  6
AUSGEZOGEN
 10
1297.98
 20
827.51
 30
0
 11
1247.83
 21
827.51
 31
0
  0
LINE
  5
5A
100
AcDbEntity
  8
200
100
AcDbLine
370
-1
  6
AUSGEZOGEN
 10
1247.83
 20
816.49
 30
0
 11
1297.98
 21
816.49
 31
0
  0
LINE
  5
5B
100
AcDbEntity
  8
200
100
AcDbLine
370
-1
  6
AUSGEZOGEN
 10
1381.23
 20
827.51
 30
0
 11
1331.1
 21
827.51
 31
0
  0
LINE
  5
5C
100
AcDbEntity
  8
200
100
AcDbLine
370
-1
  6
AUSGEZOGEN
 10
1331.1
 20
816.49
 30
0
 11
1381.23
 21
816.49
 31
0
  0
LINE
  5
5D
100
AcDbEntity
  8
200
100
AcDbLine
370
-1
  6
AUSGEZOGEN
 10
1464.5
 20
827.51
 30
0
 11
1414.36
 21
827.51
 31
0
  0
LINE
  5
5E
100
AcDbEntity
  8
200
100
AcDbLine
370
-1
  6
AUSGEZOGEN
 10
1414.36
 20
816.49
 30
0
 11
1464.5
 21
816.49
 31
0
  0
LINE
  5
5F
100
AcDbEntity
  8
200
100
AcDbLine
370
-1
  6
AUSGEZOGEN
 10
1547.72
 20
827.51
 30
0
 11
1497.58
 21
827.51
 31
0
  0
LINE
  5
60
100
AcDbEntity
  8
200
100
AcDbLine
370
-1
  6
AUSGEZOGEN
 10
1497.58
 20
816.49
 30
0
 11
1547.72
 21
816.49
 31
0
  0
LINE
  5
61
100
AcDbEntity
  8
200
100
AcDbLine
370
-1
  6
AUSGEZOGEN
 10
1631
 20
827.51
 30
0
 11
1580.85
 21
827.51
 31
0
  0
LINE
  5
62
100
AcDbEntity
  8
200
100
AcDbLine
370
-1
  6
AUSGEZOGEN
 10
1580.85
 20
816.49
 30
0
 11
1631
 21
816.49
 31
0
  0
LINE
  5
63
100
AcDbEntity
  8
200
100
AcDbLine
370
-1
  6
AUSGEZOGEN
 10
1714.25
 20
827.51
 30
0
 11
1664.09
 21
827.51
 31
0
  0
LINE
  5
64
100
AcDbEntity
  8
200
100
AcDbLine
370
-1
  6
AUSGEZOGEN
 10
1664.09
 20
816.49
 30
0
 11
1714.25
 21
816.49
 31
0
  0
LINE
  5
65
100
AcDbEntity
  8
200
100
AcDbLine
370
-1
  6
AUSGEZOGEN
 10
1797.51
 20
827.51
 30
0
 11
1747.38
 21
827.51
 31
0
  0
LINE
  5
66
100
AcDbEntity
  8
200
100
AcDbLine
370
-1
  6
AUSGEZOGEN
 10
1747.38
 20
816.49
 30
0
 11
1797.51
 21
816.49
 31
0
  0
LINE
  5
67
100
AcDbEntity
  8
200
100
AcDbLine
370
-1
  6
AUSGEZOGEN
 10
998.06
 20
810.91
 30
0
 11
1048.23
 21
810.91
 31
0
  0
LINE
  5
68
100
AcDbEntity
  8
200
100
AcDbLine
370
-1
  6
AUSGEZOGEN
 10
1048.23
 20
799.89
 30
0
 11
998.06
 21
799.89
 31
0
  0
LINE
  5
69
100
AcDbEntity
  8
200
100
AcDbLine
370
-1
  6
AUSGEZOGEN
 10
1131.42
 20
810.91
 30
0
 11
1081.34
 21
810.91
 31
0
  0
LINE
  5
6A
100
AcDbEntity
  8
200
100
AcDbLine
370
-1
  6
AUSGEZOGEN
 10
1081.34
 20
799.89
 30
0
 11
1131.42
 21
799.89
 31
0
  0
LINE
  5
6B
100
AcDbEntity
  8
200
100
AcDbLine
370
-1
  6
AUSGEZOGEN
 10
1214.7
 20
810.91
 30
0
 11
1164.57
 21
810.91
 31
0
  0
LINE
  5
6C
100
AcDbEntity
  8
200
100
AcDbLine
370
-1
  6
AUSGEZOGEN
 10
1164.57
 20
799.89
 30
0
 11
1214.7
 21
799.89
 31
0
  0
LINE
  5
6D
100
AcDbEntity
  8
200
100
AcDbLine
370
-1
  6
AUSGEZOGEN
 10
1297.98
 20
810.91
 30
0
 11
1247.83
 21
810.91
 31
0
  0
LINE
  5
6E
100
AcDbEntity
  8
200
100
AcDbLine
370
-1
  6
AUSGEZOGEN
 10
1247.83
 20
799.89
 30
0
 11
1297.98
 21
799.89
 31
0
  0
LINE
  5
6F
100
AcDbEntity
  8
200
100
AcDbLine
370
-1
  6
AUSGEZOGEN
 10
1381.23
 20
810.91
 30
0
 11
1331.1
 21
810.91
 31
0
  0
LINE
  5
70
100
AcDbEntity
  8
200
100
AcDbLine
370
-1
  6
AUSGEZOGEN
 10
1331.1
 20
799.89
 30
0
 11
1381.23
 21
799.89
 31
0
  0
LINE
  5
71
100
AcDbEntity
  8
200
100
AcDbLine
370
-1
  6
AUSGEZOGEN
 10
1464.5
 20
810.91
 30
0
 11
1414.36
 21
810.91
 31
0
  0
LINE
  5
72
100
AcDbEntity
  8
200
100
AcDbLine
370
-1
  6
AUSGEZOGEN
 10
1414.36
 20
799.89
 30
0
 11
1464.5
 21
799.89
 31
0
  0
LINE
  5
73
100
AcDbEntity
  8
200
100
AcDbLine
370
-1
  6
AUSGEZOGEN
 10
1547.72
 20
810.91
 30
0
 11
1497.58
 21
810.91
 31
0
  0
LINE
  5
74
100
AcDbEntity
  8
200
100
AcDbLine
370
-1
  6
AUSGEZOGEN
 10
1497.58
 20
799.89
 30
0
 11
1547.72
 21
799.89
 31
0
  0
LINE
  5
75
100
AcDbEntity
  8
200
100
AcDbLine
370
-1
  6
AUSGEZOGEN
 10
1631
 20
810.91
 30
0
 11
1580.85
 21
810.91
 31
0
  0
LINE
  5
76
100
AcDbEntity
  8
200
100
AcDbLine
370
-1
  6
AUSGEZOGEN
 10
1580.85
 20
799.89
 30
0
 11
1631
 21
799.89
 31
0
  0
LINE
  5
77
100
AcDbEntity
  8
200
100
AcDbLine
370
-1
  6
AUSGEZOGEN
 10
1714.25
 20
810.91
 30
0
 11
1664.09
 21
810.91
 31
0
  0
LINE
  5
78
100
AcDbEntity
  8
200
100
AcDbLine
370
-1
  6
AUSGEZOGEN
 10
1664.09
 20
799.89
 30
0
 11
1714.25
 21
799.89
 31
0
  0
LINE
  5
79
100
AcDbEntity
  8
200
100
AcDbLine
370
-1
  6
AUSGEZOGEN
 10
1797.51
 20
810.91
 30
0
 11
1747.38
 21
810.91
 31
0
  0
LINE
  5
7A
100
AcDbEntity
  8
200
100
AcDbLine
370
-1
  6
AUSGEZOGEN
 10
1747.38
 20
799.89
 30
0
 11
1797.51
 21
799.89
 31
0
  0
LINE
  5
7B
100
AcDbEntity
  8
200
100
AcDbLine
370
-1
  6
AUSGEZOGEN
 10
998.06
 20
794.31
 30
0
 11
1048.23
 21
794.31
 31
0
  0
LINE
  5
7C
100
AcDbEntity
  8
200
100
AcDbLine
370
-1
  6
AUSGEZOGEN
 10
1048.23
 20
783.29
 30
0
 11
998.06
 21
783.29
 31
0
  0
LINE
  5
7D
100
AcDbEntity
  8
200
100
AcDbLine
370
-1
  6
AUSGEZOGEN
 10
1131.42
 20
794.31
 30
0
 11
1081.34
 21
794.31
 31
0
  0
LINE
  5
7E
100
AcDbEntity
  8
200
100
AcDbLine
370
-1
  6
AUSGEZOGEN
 10
1081.34
 20
783.29
 30
0
 11
1131.42
 21
783.29
 31
0
  0
LINE
  5
7F
100
AcDbEntity
  8
200
100
AcDbLine
370
-1
  6
AUSGEZOGEN
 10
1214.7
 20
794.31
 30
0
 11
1164.57
 21
794.31
 31
0
  0
LINE
  5
80
100
AcDbEntity
  8
200
100
AcDbLine
370
-1
  6
AUSGEZOGEN
 10
1164.57
 20
783.29
 30
0
 11
1214.7
 21
783.29
 31
0
  0
LINE
  5
81
100
AcDbEntity
  8
200
100
AcDbLine
370
-1
  6
AUSGEZOGEN
 10
1297.98
 20
794.31
 30
0
 11
1247.83
 21
794.31
 31
0
  0
LINE
  5
82
100
AcDbEntity
  8
200
100
AcDbLine
370
-1
  6
AUSGEZOGEN
 10
1247.83
 20
783.29
 30
0
 11
1297.98
 21
783.29
 31
0
  0
LINE
  5
83
100
AcDbEntity
  8
200
100
AcDbLine
370
-1
  6
AUSGEZOGEN
 10
1381.23
 20
794.31
 30
0
 11
1331.1
 21
794.31
 31
0
  0
LINE
  5
84
100
AcDbEntity
  8
200
100
AcDbLine
370
-1
  6
AUSGEZOGEN
 10
1331.1
 20
783.29
 30
0
 11
1381.23
 21
783.29
 31
0
  0
LINE
  5
85
100
AcDbEntity
  8
200
100
AcDbLine
370
-1
  6
AUSGEZOGEN
 10
1464.5
 20
794.31
 30
0
 11
1414.36
 21
794.31
 31
0
  0
LINE
  5
86
100
AcDbEntity
  8
200
100
AcDbLine
370
-1
  6
AUSGEZOGEN
 10
1414.36
 20
783.29
 30
0
 11
1464.5
 21
783.29
 31
0
  0
LINE
  5
87
100
AcDbEntity
  8
200
100
AcDbLine
370
-1
  6
AUSGEZOGEN
 10
1547.72
 20
794.31
 30
0
 11
1497.58
 21
794.31
 31
0
  0
LINE
  5
88
100
AcDbEntity
  8
200
100
AcDbLine
370
-1
  6
AUSGEZOGEN
 10
1497.58
 20
783.29
 30
0
 11
1547.72
 21
783.29
 31
0
  0
LINE
  5
89
100
AcDbEntity
  8
200
100
AcDbLine
370
-1
  6
AUSGEZOGEN
 10
1631
 20
794.31
 30
0
 11
1580.85
 21
794.31
 31
0
  0
LINE
  5
8A
100
AcDbEntity
  8
200
100
AcDbLine
370
-1
  6
AUSGEZOGEN
 10
1580.85
 20
783.29
 30
0
 11
1631
 21
783.29
 31
0
  0
LINE
  5
8B
100
AcDbEntity
  8
200
100
AcDbLine
370
-1
  6
AUSGEZOGEN
 10
1714.25
 20
794.31
 30
0
 11
1664.09
 21
794.31
 31
0
  0
LINE
  5
8C
100
AcDbEntity
  8
200
100
AcDbLine
370
-1
  6
AUSGEZOGEN
 10
1664.09
 20
783.29
 30
0
 11
1714.25
 21
783.29
 31
0
  0
LINE
  5
8D
100
AcDbEntity
  8
200
100
AcDbLine
370
-1
  6
AUSGEZOGEN
 10
1797.51
 20
794.31
 30
0
 11
1747.38
 21
794.31
 31
0
  0
LINE
  5
8E
100
AcDbEntity
  8
200
100
AcDbLine
370
-1
  6
AUSGEZOGEN
 10
1747.38
 20
783.29
 30
0
 11
1797.51
 21
783.29
 31
0
  0
LINE
  5
8F
100
AcDbEntity
  8
200
100
AcDbLine
370
-1
  6
AUSGEZOGEN
 10
1880.74
 20
783.29
 30
0
 11
1830.61
 21
783.29
 31
0
  0
LINE
  5
90
100
AcDbEntity
  8
200
100
AcDbLine
370
-1
  6
AUSGEZOGEN
 10
1830.61
 20
794.31
 30
0
 11
1880.74
 21
794.31
 31
0
  0
LINE
  5
91
100
AcDbEntity
  8
200
100
AcDbLine
370
-1
  6
AUSGEZOGEN
 10
1889.07
 20
788.8
 30
0
 11
1880.74
 21
794.31
 31
0
  0
LINE
  5
92
100
AcDbEntity
  8
200
100
AcDbLine
370
-1
  6
AUSGEZOGEN
 10
1822.27
 20
788.8
 30
0
 11
1830.61
 21
794.31
 31
0
  0
LINE
  5
93
100
AcDbEntity
  8
200
100
AcDbLine
370
-1
  6
AUSGEZOGEN
 10
1797.51
 20
794.31
 30
0
 11
1805.84
 21
788.8
 31
0
  0
LINE
  5
94
100
AcDbEntity
  8
200
100
AcDbLine
370
-1
  6
AUSGEZOGEN
 10
1739.01
 20
788.8
 30
0
 11
1747.38
 21
794.31
 31
0
  0
LINE
  5
95
100
AcDbEntity
  8
200
100
AcDbLine
370
-1
  6
AUSGEZOGEN
 10
1714.25
 20
794.31
 30
0
 11
1722.59
 21
788.8
 31
0
  0
LINE
  5
96
100
AcDbEntity
  8
200
100
AcDbLine
370
-1
  6
AUSGEZOGEN
 10
1655.74
 20
788.8
 30
0
 11
1664.09
 21
794.31
 31
0
  0
LINE
  5
97
100
AcDbEntity
  8
200
100
AcDbLine
370
-1
  6
AUSGEZOGEN
 10
1631
 20
794.31
 30
0
 11
1639.33
 21
788.8
 31
0
  0
LINE
  5
98
100
AcDbEntity
  8
200
100
AcDbLine
370
-1
  6
AUSGEZOGEN
 10
1572.53
 20
788.8
 30
0
 11
1580.85
 21
794.31
 31
0
  0
LINE
  5
99
100
AcDbEntity
  8
200
100
AcDbLine
370
-1
  6
AUSGEZOGEN
 10
1547.72
 20
794.31
 30
0
 11
1556.06
 21
788.8
 31
0
  0
LINE
  5
9A
100
AcDbEntity
  8
200
100
AcDbLine
370
-1
  6
AUSGEZOGEN
 10
1489.26
 20
788.8
 30
0
 11
1497.58
 21
794.31
 31
0
  0
LINE
  5
9B
100
AcDbEntity
  8
200
100
AcDbLine
370
-1
  6
AUSGEZOGEN
 10
1464.5
 20
794.31
 30
0
 11
1472.8
 21
788.8
 31
0
  0
LINE
  5
9C
100
AcDbEntity
  8
200
100
AcDbLine
370
-1
  6
AUSGEZOGEN
 10
1405.99
 20
788.8
 30
0
 11
1414.36
 21
794.31
 31
0
  0
LINE
  5
9D
100
AcDbEntity
  8
200
100
AcDbLine
370
-1
  6
AUSGEZOGEN
 10
1381.23
 20
794.31
 30
0
 11
1389.57
 21
788.8
 31
0
  0
LINE
  5
9E
100
AcDbEntity
  8
200
100
AcDbLine
370
-1
  6
AUSGEZOGEN
 10
1322.72
 20
788.8
 30
0
 11
1331.1
 21
794.31
 31
0
  0
LINE
  5
9F
100
AcDbEntity
  8
200
100
AcDbLine
370
-1
  6
AUSGEZOGEN
 10
1297.98
 20
794.31
 30
0
 11
1306.31
 21
788.8
 31
0
  0
LINE
  5
A0
100
AcDbEntity
  8
200
100
AcDbLine
370
-1
  6
AUSGEZOGEN
 10
1239.47
 20
788.8
 30
0
 11
1247.83
 21
794.31
 31
0
  0
LINE
  5
A1
100
AcDbEntity
  8
200
100
AcDbLine
370
-1
  6
AUSGEZOGEN
 10
1214.7
 20
794.31
 30
0
 11
1223.08
 21
788.8
 31
0
  0
LINE
  5
A2
100
AcDbEntity
  8
200
100
AcDbLine
370
-1
  6
AUSGEZOGEN
 10
1156.25
 20
788.8
 30
0
 11
1164.57
 21
794.31
 31
0
  0
LINE
  5
A3
100
AcDbEntity
  8
200
100
AcDbLine
370
-1
  6
AUSGEZOGEN
 10
1131.42
 20
794.31
 30
0
 11
1139.79
 21
788.8
 31
0
  0
LINE
  5
A4
100
AcDbEntity
  8
200
100
AcDbLine
370
-1
  6
AUSGEZOGEN
 10
1072.97
 20
788.8
 30
0
 11
1081.34
 21
794.31
 31
0
  0
LINE
  5
A5
100
AcDbEntity
  8
200
100
AcDbLine
370
-1
  6
AUSGEZOGEN
 10
1048.23
 20
794.31
 30
0
 11
1056.55
 21
788.8
 31
0
  0
LINE
  5
A6
100
AcDbEntity
  8
200
100
AcDbLine
370
-1
  6
AUSGEZOGEN
 10
989.72
 20
788.8
 30
0
 11
998.06
 21
794.31
 31
0
  0
LINE
  5
A7
100
AcDbEntity
  8
200
100
AcDbLine
370
-1
  6
AUSGEZOGEN
 10
1889.07
 20
788.8
 30
0
 11
1880.74
 21
783.29
 31
0
  0
LINE
  5
A8
100
AcDbEntity
  8
200
100
AcDbLine
370
-1
  6
AUSGEZOGEN
 10
1822.27
 20
788.8
 30
0
 11
1830.61
 21
783.29
 31
0
  0
LINE
  5
A9
100
AcDbEntity
  8
200
100
AcDbLine
370
-1
  6
AUSGEZOGEN
 10
1797.51
 20
783.29
 30
0
 11
1805.84
 21
788.8
 31
0
  0
LINE
  5
AA
100
AcDbEntity
  8
200
100
AcDbLine
370
-1
  6
AUSGEZOGEN
 10
1739.01
 20
788.8
 30
0
 11
1747.38
 21
783.29
 31
0
  0
LINE
  5
AB
100
AcDbEntity
  8
200
100
AcDbLine
370
-1
  6
AUSGEZOGEN
 10
1714.25
 20
783.29
 30
0
 11
1722.59
 21
788.8
 31
0
  0
LINE
  5
AC
100
AcDbEntity
  8
200
100
AcDbLine
370
-1
  6
AUSGEZOGEN
 10
1655.74
 20
788.8
 30
0
 11
1664.09
 21
783.29
 31
0
  0
LINE
  5
AD
100
AcDbEntity
  8
200
100
AcDbLine
370
-1
  6
AUSGEZOGEN
 10
1631
 20
783.29
 30
0
 11
1639.33
 21
788.8
 31
0
  0
LINE
  5
AE
100
AcDbEntity
  8
200
100
AcDbLine
370
-1
  6
AUSGEZOGEN
 10
1572.53
 20
788.8
 30
0
 11
1580.85
 21
783.29
 31
0
  0
LINE
  5
AF
100
AcDbEntity
  8
200
100
AcDbLine
370
-1
  6
AUSGEZOGEN
 10
1547.72
 20
783.29
 30
0
 11
1556.06
 21
788.8
 31
0
  0
LINE
  5
B0
100
AcDbEntity
  8
200
100
AcDbLine
370
-1
  6
AUSGEZOGEN
 10
1489.26
 20
788.8
 30
0
 11
1497.58
 21
783.29
 31
0
  0
LINE
  5
B1
100
AcDbEntity
  8
200
100
AcDbLine
370
-1
  6
AUSGEZOGEN
 10
1464.5
 20
783.29
 30
0
 11
1472.8
 21
788.8
 31
0
  0
LINE
  5
B2
100
AcDbEntity
  8
200
100
AcDbLine
370
-1
  6
AUSGEZOGEN
 10
1405.99
 20
788.8
 30
0
 11
1414.36
 21
783.29
 31
0
  0
LINE
  5
B3
100
AcDbEntity
  8
200
100
AcDbLine
370
-1
  6
AUSGEZOGEN
 10
1381.23
 20
783.29
 30
0
 11
1389.57
 21
788.8
 31
0
  0
LINE
  5
B4
100
AcDbEntity
  8
200
100
AcDbLine
370
-1
  6
AUSGEZOGEN
 10
1322.72
 20
788.8
 30
0
 11
1331.1
 21
783.29
 31
0
  0
LINE
  5
B5
100
AcDbEntity
  8
200
100
AcDbLine
370
-1
  6
AUSGEZOGEN
 10
1297.98
 20
783.29
 30
0
 11
1306.31
 21
788.8
 31
0
  0
LINE
  5
B6
100
AcDbEntity
  8
200
100
AcDbLine
370
-1
  6
AUSGEZOGEN
 10
1239.47
 20
788.8
 30
0
 11
1247.83
 21
783.29
 31
0
  0
LINE
  5
B7
100
AcDbEntity
  8
200
100
AcDbLine
370
-1
  6
AUSGEZOGEN
 10
1214.7
 20
783.29
 30
0
 11
1223.08
 21
788.8
 31
0
  0
LINE
  5
B8
100
AcDbEntity
  8
200
100
AcDbLine
370
-1
  6
AUSGEZOGEN
 10
1156.25
 20
788.8
 30
0
 11
1164.57
 21
783.29
 31
0
  0
LINE
  5
B9
100
AcDbEntity
  8
200
100
AcDbLine
370
-1
  6
AUSGEZOGEN
 10
1131.42
 20
783.29
 30
0
 11
1139.79
 21
788.8
 31
0
  0
LINE
  5
BA
100
AcDbEntity
  8
200
100
AcDbLine
370
-1
  6
AUSGEZOGEN
 10
1072.97
 20
788.8
 30
0
 11
1081.34
 21
783.29
 31
0
  0
LINE
  5
BB
100
AcDbEntity
  8
200
100
AcDbLine
370
-1
  6
AUSGEZOGEN
 10
1048.23
 20
783.29
 30
0
 11
1056.55
 21
788.8
 31
0
  0
LINE
  5
BC
100
AcDbEntity
  8
200
100
AcDbLine
370
-1
  6
AUSGEZOGEN
 10
989.72
 20
788.8
 30
0
 11
998.06
 21
783.29
 31
0
  0
LINE
  5
BD
100
AcDbEntity
  8
200
100
AcDbLine
370
-1
  6
AUSGEZOGEN
 10
1880.74
 20
799.89
 30
0
 11
1830.61
 21
799.89
 31
0
  0
LINE
  5
BE
100
AcDbEntity
  8
200
100
AcDbLine
370
-1
  6
AUSGEZOGEN
 10
1830.61
 20
810.91
 30
0
 11
1880.74
 21
810.91
 31
0
  0
LINE
  5
BF
100
AcDbEntity
  8
200
100
AcDbLine
370
-1
  6
AUSGEZOGEN
 10
1889.07
 20
805.4
 30
0
 11
1880.74
 21
810.91
 31
0
  0
LINE
  5
C0
100
AcDbEntity
  8
200
100
AcDbLine
370
-1
  6
AUSGEZOGEN
 10
1822.27
 20
805.4
 30
0
 11
1830.61
 21
810.91
 31
0
  0
LINE
  5
C1
100
AcDbEntity
  8
200
100
AcDbLine
370
-1
  6
AUSGEZOGEN
 10
1797.51
 20
810.91
 30
0
 11
1805.84
 21
805.4
 31
0
  0
LINE
  5
C2
100
AcDbEntity
  8
200
100
AcDbLine
370
-1
  6
AUSGEZOGEN
 10
1739.01
 20
805.4
 30
0
 11
1747.38
 21
810.91
 31
0
  0
LINE
  5
C3
100
AcDbEntity
  8
200
100
AcDbLine
370
-1
  6
AUSGEZOGEN
 10
1714.25
 20
810.91
 30
0
 11
1722.59
 21
805.4
 31
0
  0
LINE
  5
C4
100
AcDbEntity
  8
200
100
AcDbLine
370
-1
  6
AUSGEZOGEN
 10
1655.74
 20
805.4
 30
0
 11
1664.09
 21
810.91
 31
0
  0
LINE
  5
C5
100
AcDbEntity
  8
200
100
AcDbLine
370
-1
  6
AUSGEZOGEN
 10
1631
 20
810.91
 30
0
 11
1639.33
 21
805.4
 31
0
  0
LINE
  5
C6
100
AcDbEntity
  8
200
100
AcDbLine
370
-1
  6
AUSGEZOGEN
 10
1572.53
 20
805.4
 30
0
 11
1580.85
 21
810.91
 31
0
  0
LINE
  5
C7
100
AcDbEntity
  8
200
100
AcDbLine
370
-1
  6
AUSGEZOGEN
 10
1547.72
 20
810.91
 30
0
 11
1556.06
 21
805.4
 31
0
  0
LINE
  5
C8
100
AcDbEntity
  8
200
100
AcDbLine
370
-1
  6
AUSGEZOGEN
 10
1489.26
 20
805.4
 30
0
 11
1497.58
 21
810.91
 31
0
  0
LINE
  5
C9
100
AcDbEntity
  8
200
100
AcDbLine
370
-1
  6
AUSGEZOGEN
 10
1464.5
 20
810.91
 30
0
 11
1472.8
 21
805.4
 31
0
  0
LINE
  5
CA
100
AcDbEntity
  8
200
100
AcDbLine
370
-1
  6
AUSGEZOGEN
 10
1405.99
 20
805.4
 30
0
 11
1414.36
 21
810.91
 31
0
  0
LINE
  5
CB
100
AcDbEntity
  8
200
100
AcDbLine
370
-1
  6
AUSGEZOGEN
 10
1381.23
 20
810.91
 30
0
 11
1389.57
 21
805.4
 31
0
  0
LINE
  5
CC
100
AcDbEntity
  8
200
100
AcDbLine
370
-1
  6
AUSGEZOGEN
 10
1322.72
 20
805.4
 30
0
 11
1331.1
 21
810.91
 31
0
  0
LINE
  5
CD
100
AcDbEntity
  8
200
100
AcDbLine
370
-1
  6
AUSGEZOGEN
 10
1297.98
 20
810.91
 30
0
 11
1306.31
 21
805.4
 31
0
  0
LINE
  5
CE
100
AcDbEntity
  8
200
100
AcDbLine
370
-1
  6
AUSGEZOGEN
 10
1239.47
 20
805.4
 30
0
 11
1247.83
 21
810.91
 31
0
  0
LINE
  5
CF
100
AcDbEntity
  8
200
100
AcDbLine
370
-1
  6
AUSGEZOGEN
 10
1214.7
 20
810.91
 30
0
 11
1223.08
 21
805.4
 31
0
  0
LINE
  5
D0
100
AcDbEntity
  8
200
100
AcDbLine
370
-1
  6
AUSGEZOGEN
 10
1156.25
 20
805.4
 30
0
 11
1164.57
 21
810.91
 31
0
  0
LINE
  5
D1
100
AcDbEntity
  8
200
100
AcDbLine
370
-1
  6
AUSGEZOGEN
 10
1131.42
 20
810.91
 30
0
 11
1139.79
 21
805.4
 31
0
  0
LINE
  5
D2
100
AcDbEntity
  8
200
100
AcDbLine
370
-1
  6
AUSGEZOGEN
 10
1072.97
 20
805.4
 30
0
 11
1081.34
 21
810.91
 31
0
  0
LINE
  5
D3
100
AcDbEntity
  8
200
100
AcDbLine
370
-1
  6
AUSGEZOGEN
 10
1048.23
 20
810.91
 30
0
 11
1056.55
 21
805.4
 31
0
  0
LINE
  5
D4
100
AcDbEntity
  8
200
100
AcDbLine
370
-1
  6
AUSGEZOGEN
 10
989.72
 20
805.4
 30
0
 11
998.06
 21
810.91
 31
0
  0
LINE
  5
D5
100
AcDbEntity
  8
200
100
AcDbLine
370
-1
  6
AUSGEZOGEN
 10
1889.07
 20
805.4
 30
0
 11
1880.74
 21
799.89
 31
0
  0
LINE
  5
D6
100
AcDbEntity
  8
200
100
AcDbLine
370
-1
  6
AUSGEZOGEN
 10
1822.27
 20
805.4
 30
0
 11
1830.61
 21
799.89
 31
0
  0
LINE
  5
D7
100
AcDbEntity
  8
200
100
AcDbLine
370
-1
  6
AUSGEZOGEN
 10
1797.51
 20
799.89
 30
0
 11
1805.84
 21
805.4
 31
0
  0
LINE
  5
D8
100
AcDbEntity
  8
200
100
AcDbLine
370
-1
  6
AUSGEZOGEN
 10
1739.01
 20
805.4
 30
0
 11
1747.38
 21
799.89
 31
0
  0
LINE
  5
D9
100
AcDbEntity
  8
200
100
AcDbLine
370
-1
  6
AUSGEZOGEN
 10
1714.25
 20
799.89
 30
0
 11
1722.59
 21
805.4
 31
0
  0
LINE
  5
DA
100
AcDbEntity
  8
200
100
AcDbLine
370
-1
  6
AUSGEZOGEN
 10
1655.74
 20
805.4
 30
0
 11
1664.09
 21
799.89
 31
0
  0
LINE
  5
DB
100
AcDbEntity
  8
200
100
AcDbLine
370
-1
  6
AUSGEZOGEN
 10
1631
 20
799.89
 30
0
 11
1639.33
 21
805.4
 31
0
  0
LINE
  5
DC
100
AcDbEntity
  8
200
100
AcDbLine
370
-1
  6
AUSGEZOGEN
 10
1572.53
 20
805.4
 30
0
 11
1580.85
 21
799.89
 31
0
  0
LINE
  5
DD
100
AcDbEntity
  8
200
100
AcDbLine
370
-1
  6
AUSGEZOGEN
 10
1547.72
 20
799.89
 30
0
 11
1556.06
 21
805.4
 31
0
  0
LINE
  5
DE
100
AcDbEntity
  8
200
100
AcDbLine
370
-1
  6
AUSGEZOGEN
 10
1489.26
 20
805.4
 30
0
 11
1497.58
 21
799.89
 31
0
  0
LINE
  5
DF
100
AcDbEntity
  8
200
100
AcDbLine
370
-1
  6
AUSGEZOGEN
 10
1464.5
 20
799.89
 30
0
 11
1472.8
 21
805.4
 31
0
  0
LINE
  5
E0
100
AcDbEntity
  8
200
100
AcDbLine
370
-1
  6
AUSGEZOGEN
 10
1405.99
 20
805.4
 30
0
 11
1414.36
 21
799.89
 31
0
  0
LINE
  5
E1
100
AcDbEntity
  8
200
100
AcDbLine
370
-1
  6
AUSGEZOGEN
 10
1381.23
 20
799.89
 30
0
 11
1389.57
 21
805.4
 31
0
  0
LINE
  5
E2
100
AcDbEntity
  8
200
100
AcDbLine
370
-1
  6
AUSGEZOGEN
 10
1322.72
 20
805.4
 30
0
 11
1331.1
 21
799.89
 31
0
  0
LINE
  5
E3
100
AcDbEntity
  8
200
100
AcDbLine
370
-1
  6
AUSGEZOGEN
 10
1297.98
 20
799.89
 30
0
 11
1306.31
 21
805.4
 31
0
  0
LINE
  5
E4
100
AcDbEntity
  8
200
100
AcDbLine
370
-1
  6
AUSGEZOGEN
 10
1239.47
 20
805.4
 30
0
 11
1247.83
 21
799.89
 31
0
  0
LINE
  5
E5
100
AcDbEntity
  8
200
100
AcDbLine
370
-1
  6
AUSGEZOGEN
 10
1214.7
 20
799.89
 30
0
 11
1223.08
 21
805.4
 31
0
  0
LINE
  5
E6
100
AcDbEntity
  8
200
100
AcDbLine
370
-1
  6
AUSGEZOGEN
 10
1156.25
 20
805.4
 30
0
 11
1164.57
 21
799.89
 31
0
  0
LINE
  5
E7
100
AcDbEntity
  8
200
100
AcDbLine
370
-1
  6
AUSGEZOGEN
 10
1131.42
 20
799.89
 30
0
 11
1139.79
 21
805.4
 31
0
  0
LINE
  5
E8
100
AcDbEntity
  8
200
100
AcDbLine
370
-1
  6
AUSGEZOGEN
 10
1072.97
 20
805.4
 30
0
 11
1081.34
 21
799.89
 31
0
  0
LINE
  5
E9
100
AcDbEntity
  8
200
100
AcDbLine
370
-1
  6
AUSGEZOGEN
 10
1048.23
 20
799.89
 30
0
 11
1056.55
 21
805.4
 31
0
  0
LINE
  5
EA
100
AcDbEntity
  8
200
100
AcDbLine
370
-1
  6
AUSGEZOGEN
 10
989.72
 20
805.4
 30
0
 11
998.06
 21
799.89
 31
0
  0
LINE
  5
EB
100
AcDbEntity
  8
200
100
AcDbLine
370
-1
  6
AUSGEZOGEN
 10
1880.74
 20
816.49
 30
0
 11
1830.61
 21
816.49
 31
0
  0
LINE
  5
EC
100
AcDbEntity
  8
200
100
AcDbLine
370
-1
  6
AUSGEZOGEN
 10
1830.61
 20
827.51
 30
0
 11
1880.74
 21
827.51
 31
0
  0
LINE
  5
ED
100
AcDbEntity
  8
200
100
AcDbLine
370
-1
  6
AUSGEZOGEN
 10
1889.07
 20
821.99
 30
0
 11
1880.74
 21
827.51
 31
0
  0
LINE
  5
EE
100
AcDbEntity
  8
200
100
AcDbLine
370
-1
  6
AUSGEZOGEN
 10
1822.27
 20
821.99
 30
0
 11
1830.61
 21
827.51
 31
0
  0
LINE
  5
EF
100
AcDbEntity
  8
200
100
AcDbLine
370
-1
  6
AUSGEZOGEN
 10
1797.51
 20
827.51
 30
0
 11
1805.84
 21
821.99
 31
0
  0
LINE
  5
F0
100
AcDbEntity
  8
200
100
AcDbLine
370
-1
  6
AUSGEZOGEN
 10
1739.01
 20
821.99
 30
0
 11
1747.38
 21
827.51
 31
0
  0
LINE
  5
F1
100
AcDbEntity
  8
200
100
AcDbLine
370
-1
  6
AUSGEZOGEN
 10
1714.25
 20
827.51
 30
0
 11
1722.59
 21
821.99
 31
0
  0
LINE
  5
F2
100
AcDbEntity
  8
200
100
AcDbLine
370
-1
  6
AUSGEZOGEN
 10
1655.74
 20
821.99
 30
0
 11
1664.09
 21
827.51
 31
0
  0
LINE
  5
F3
100
AcDbEntity
  8
200
100
AcDbLine
370
-1
  6
AUSGEZOGEN
 10
1631
 20
827.51
 30
0
 11
1639.33
 21
821.99
 31
0
  0
LINE
  5
F4
100
AcDbEntity
  8
200
100
AcDbLine
370
-1
  6
AUSGEZOGEN
 10
1572.53
 20
821.99
 30
0
 11
1580.85
 21
827.51
 31
0
  0
LINE
  5
F5
100
AcDbEntity
  8
200
100
AcDbLine
370
-1
  6
AUSGEZOGEN
 10
1547.72
 20
827.51
 30
0
 11
1556.06
 21
821.99
 31
0
  0
LINE
  5
F6
100
AcDbEntity
  8
200
100
AcDbLine
370
-1
  6
AUSGEZOGEN
 10
1489.26
 20
821.99
 30
0
 11
1497.58
 21
827.51
 31
0
  0
LINE
  5
F7
100
AcDbEntity
  8
200
100
AcDbLine
370
-1
  6
AUSGEZOGEN
 10
1464.5
 20
827.51
 30
0
 11
1472.8
 21
821.99
 31
0
  0
LINE
  5
F8
100
AcDbEntity
  8
200
100
AcDbLine
370
-1
  6
AUSGEZOGEN
 10
1405.99
 20
821.99
 30
0
 11
1414.36
 21
827.51
 31
0
  0
LINE
  5
F9
100
AcDbEntity
  8
200
100
AcDbLine
370
-1
  6
AUSGEZOGEN
 10
1381.23
 20
827.51
 30
0
 11
1389.57
 21
821.99
 31
0
  0
LINE
  5
FA
100
AcDbEntity
  8
200
100
AcDbLine
370
-1
  6
AUSGEZOGEN
 10
1322.72
 20
821.99
 30
0
 11
1331.1
 21
827.51
 31
0
  0
LINE
  5
FB
100
AcDbEntity
  8
200
100
AcDbLine
370
-1
  6
AUSGEZOGEN
 10
1297.98
 20
827.51
 30
0
 11
1306.31
 21
821.99
 31
0
  0
LINE
  5
FC
100
AcDbEntity
  8
200
100
AcDbLine
370
-1
  6
AUSGEZOGEN
 10
1239.47
 20
821.99
 30
0
 11
1247.83
 21
827.51
 31
0
  0
LINE
  5
FD
100
AcDbEntity
  8
200
100
AcDbLine
370
-1
  6
AUSGEZOGEN
 10
1214.7
 20
827.51
 30
0
 11
1223.08
 21
821.99
 31
0
  0
LINE
  5
FE
100
AcDbEntity
  8
200
100
AcDbLine
370
-1
  6
AUSGEZOGEN
 10
1156.25
 20
821.99
 30
0
 11
1164.57
 21
827.51
 31
0
  0
LINE
  5
FF
100
AcDbEntity
  8
200
100
AcDbLine
370
-1
  6
AUSGEZOGEN
 10
1131.42
 20
827.51
 30
0
 11
1139.79
 21
821.99
 31
0
  0
LINE
  5
100
100
AcDbEntity
  8
200
100
AcDbLine
370
-1
  6
AUSGEZOGEN
 10
1072.97
 20
821.99
 30
0
 11
1081.34
 21
827.51
 31
0
  0
LINE
  5
101
100
AcDbEntity
  8
200
100
AcDbLine
370
-1
  6
AUSGEZOGEN
 10
1048.23
 20
827.51
 30
0
 11
1056.55
 21
821.99
 31
0
  0
LINE
  5
102
100
AcDbEntity
  8
200
100
AcDbLine
370
-1
  6
AUSGEZOGEN
 10
989.72
 20
821.99
 30
0
 11
998.06
 21
827.51
 31
0
  0
LINE
  5
103
100
AcDbEntity
  8
200
100
AcDbLine
370
-1
  6
AUSGEZOGEN
 10
1889.07
 20
821.99
 30
0
 11
1880.74
 21
816.49
 31
0
  0
LINE
  5
104
100
AcDbEntity
  8
200
100
AcDbLine
370
-1
  6
AUSGEZOGEN
 10
1822.27
 20
821.99
 30
0
 11
1830.61
 21
816.49
 31
0
  0
LINE
  5
105
100
AcDbEntity
  8
200
100
AcDbLine
370
-1
  6
AUSGEZOGEN
 10
1797.51
 20
816.49
 30
0
 11
1805.84
 21
821.99
 31
0
  0
LINE
  5
106
100
AcDbEntity
  8
200
100
AcDbLine
370
-1
  6
AUSGEZOGEN
 10
1739.01
 20
821.99
 30
0
 11
1747.38
 21
816.49
 31
0
  0
LINE
  5
107
100
AcDbEntity
  8
200
100
AcDbLine
370
-1
  6
AUSGEZOGEN
 10
1714.25
 20
816.49
 30
0
 11
1722.59
 21
821.99
 31
0
  0
LINE
  5
108
100
AcDbEntity
  8
200
100
AcDbLine
370
-1
  6
AUSGEZOGEN
 10
1655.74
 20
821.99
 30
0
 11
1664.09
 21
816.49
 31
0
  0
LINE
  5
109
100
AcDbEntity
  8
200
100
AcDbLine
370
-1
  6
AUSGEZOGEN
 10
1631
 20
816.49
 30
0
 11
1639.33
 21
821.99
 31
0
  0
LINE
  5
10A
100
AcDbEntity
  8
200
100
AcDbLine
370
-1
  6
AUSGEZOGEN
 10
1572.53
 20
821.99
 30
0
 11
1580.85
 21
816.49
 31
0
  0
LINE
  5
10B
100
AcDbEntity
  8
200
100
AcDbLine
370
-1
  6
AUSGEZOGEN
 10
1547.72
 20
816.49
 30
0
 11
1556.06
 21
821.99
 31
0
  0
LINE
  5
10C
100
AcDbEntity
  8
200
100
AcDbLine
370
-1
  6
AUSGEZOGEN
 10
1489.26
 20
821.99
 30
0
 11
1497.58
 21
816.49
 31
0
  0
LINE
  5
10D
100
AcDbEntity
  8
200
100
AcDbLine
370
-1
  6
AUSGEZOGEN
 10
1464.5
 20
816.49
 30
0
 11
1472.8
 21
821.99
 31
0
  0
LINE
  5
10E
100
AcDbEntity
  8
200
100
AcDbLine
370
-1
  6
AUSGEZOGEN
 10
1405.99
 20
821.99
 30
0
 11
1414.36
 21
816.49
 31
0
  0
LINE
  5
10F
100
AcDbEntity
  8
200
100
AcDbLine
370
-1
  6
AUSGEZOGEN
 10
1381.23
 20
816.49
 30
0
 11
1389.57
 21
821.99
 31
0
  0
LINE
  5
110
100
AcDbEntity
  8
200
100
AcDbLine
370
-1
  6
AUSGEZOGEN
 10
1322.72
 20
821.99
 30
0
 11
1331.1
 21
816.49
 31
0
  0
LINE
  5
111
100
AcDbEntity
  8
200
100
AcDbLine
370
-1
  6
AUSGEZOGEN
 10
1297.98
 20
816.49
 30
0
 11
1306.31
 21
821.99
 31
0
  0
LINE
  5
112
100
AcDbEntity
  8
200
100
AcDbLine
370
-1
  6
AUSGEZOGEN
 10
1239.47
 20
821.99
 30
0
 11
1247.83
 21
816.49
 31
0
  0
LINE
  5
113
100
AcDbEntity
  8
200
100
AcDbLine
370
-1
  6
AUSGEZOGEN
 10
1214.7
 20
816.49
 30
0
 11
1223.08
 21
821.99
 31
0
  0
LINE
  5
114
100
AcDbEntity
  8
200
100
AcDbLine
370
-1
  6
AUSGEZOGEN
 10
1156.25
 20
821.99
 30
0
 11
1164.57
 21
816.49
 31
0
  0
LINE
  5
115
100
AcDbEntity
  8
200
100
AcDbLine
370
-1
  6
AUSGEZOGEN
 10
1131.42
 20
816.49
 30
0
 11
1139.79
 21
821.99
 31
0
  0
LINE
  5
116
100
AcDbEntity
  8
200
100
AcDbLine
370
-1
  6
AUSGEZOGEN
 10
1072.97
 20
821.99
 30
0
 11
1081.34
 21
816.49
 31
0
  0
LINE
  5
117
100
AcDbEntity
  8
200
100
AcDbLine
370
-1
  6
AUSGEZOGEN
 10
1048.23
 20
816.49
 30
0
 11
1056.55
 21
821.99
 31
0
  0
LINE
  5
118
100
AcDbEntity
  8
200
100
AcDbLine
370
-1
  6
AUSGEZOGEN
 10
989.72
 20
821.99
 30
0
 11
998.06
 21
816.49
 31
0
  0
LINE
  5
119
100
AcDbEntity
  8
200
100
AcDbLine
370
-1
  6
AUSGEZOGEN
 10
1880.74
 20
833.08
 30
0
 11
1830.61
 21
833.08
 31
0
  0
LINE
  5
11A
100
AcDbEntity
  8
200
100
AcDbLine
370
-1
  6
AUSGEZOGEN
 10
1830.61
 20
844.11
 30
0
 11
1880.74
 21
844.11
 31
0
  0
LINE
  5
11B
100
AcDbEntity
  8
200
100
AcDbLine
370
-1
  6
AUSGEZOGEN
 10
1889.07
 20
838.6
 30
0
 11
1880.74
 21
844.11
 31
0
  0
LINE
  5
11C
100
AcDbEntity
  8
200
100
AcDbLine
370
-1
  6
AUSGEZOGEN
 10
1822.27
 20
838.6
 30
0
 11
1830.61
 21
844.11
 31
0
  0
LINE
  5
11D
100
AcDbEntity
  8
200
100
AcDbLine
370
-1
  6
AUSGEZOGEN
 10
1797.51
 20
844.11
 30
0
 11
1805.84
 21
838.6
 31
0
  0
LINE
  5
11E
100
AcDbEntity
  8
200
100
AcDbLine
370
-1
  6
AUSGEZOGEN
 10
1739.01
 20
838.6
 30
0
 11
1747.38
 21
844.11
 31
0
  0
LINE
  5
11F
100
AcDbEntity
  8
200
100
AcDbLine
370
-1
  6
AUSGEZOGEN
 10
1714.25
 20
844.11
 30
0
 11
1722.59
 21
838.6
 31
0
  0
LINE
  5
120
100
AcDbEntity
  8
200
100
AcDbLine
370
-1
  6
AUSGEZOGEN
 10
1655.74
 20
838.6
 30
0
 11
1664.09
 21
844.11
 31
0
  0
LINE
  5
121
100
AcDbEntity
  8
200
100
AcDbLine
370
-1
  6
AUSGEZOGEN
 10
1631
 20
844.11
 30
0
 11
1639.33
 21
838.6
 31
0
  0
LINE
  5
122
100
AcDbEntity
  8
200
100
AcDbLine
370
-1
  6
AUSGEZOGEN
 10
1572.53
 20
838.6
 30
0
 11
1580.85
 21
844.11
 31
0
  0
LINE
  5
123
100
AcDbEntity
  8
200
100
AcDbLine
370
-1
  6
AUSGEZOGEN
 10
1547.72
 20
844.11
 30
0
 11
1556.06
 21
838.6
 31
0
  0
LINE
  5
124
100
AcDbEntity
  8
200
100
AcDbLine
370
-1
  6
AUSGEZOGEN
 10
1489.26
 20
838.6
 30
0
 11
1497.58
 21
844.11
 31
0
  0
LINE
  5
125
100
AcDbEntity
  8
200
100
AcDbLine
370
-1
  6
AUSGEZOGEN
 10
1464.5
 20
844.11
 30
0
 11
1472.8
 21
838.6
 31
0
  0
LINE
  5
126
100
AcDbEntity
  8
200
100
AcDbLine
370
-1
  6
AUSGEZOGEN
 10
1405.99
 20
838.6
 30
0
 11
1414.36
 21
844.11
 31
0
  0
LINE
  5
127
100
AcDbEntity
  8
200
100
AcDbLine
370
-1
  6
AUSGEZOGEN
 10
1381.23
 20
844.11
 30
0
 11
1389.57
 21
838.6
 31
0
  0
LINE
  5
128
100
AcDbEntity
  8
200
100
AcDbLine
370
-1
  6
AUSGEZOGEN
 10
1322.72
 20
838.6
 30
0
 11
1331.1
 21
844.11
 31
0
  0
LINE
  5
129
100
AcDbEntity
  8
200
100
AcDbLine
370
-1
  6
AUSGEZOGEN
 10
1297.98
 20
844.11
 30
0
 11
1306.31
 21
838.6
 31
0
  0
LINE
  5
12A
100
AcDbEntity
  8
200
100
AcDbLine
370
-1
  6
AUSGEZOGEN
 10
1239.47
 20
838.6
 30
0
 11
1247.83
 21
844.11
 31
0
  0
LINE
  5
12B
100
AcDbEntity
  8
200
100
AcDbLine
370
-1
  6
AUSGEZOGEN
 10
1214.7
 20
844.11
 30
0
 11
1223.08
 21
838.6
 31
0
  0
LINE
  5
12C
100
AcDbEntity
  8
200
100
AcDbLine
370
-1
  6
AUSGEZOGEN
 10
1156.25
 20
838.6
 30
0
 11
1164.57
 21
844.11
 31
0
  0
LINE
  5
12D
100
AcDbEntity
  8
200
100
AcDbLine
370
-1
  6
AUSGEZOGEN
 10
1131.42
 20
844.11
 30
0
 11
1139.79
 21
838.6
 31
0
  0
LINE
  5
12E
100
AcDbEntity
  8
200
100
AcDbLine
370
-1
  6
AUSGEZOGEN
 10
1072.97
 20
838.6
 30
0
 11
1081.34
 21
844.11
 31
0
  0
LINE
  5
12F
100
AcDbEntity
  8
200
100
AcDbLine
370
-1
  6
AUSGEZOGEN
 10
1048.23
 20
844.11
 30
0
 11
1056.55
 21
838.6
 31
0
  0
LINE
  5
130
100
AcDbEntity
  8
200
100
AcDbLine
370
-1
  6
AUSGEZOGEN
 10
989.72
 20
838.6
 30
0
 11
998.06
 21
844.11
 31
0
  0
LINE
  5
131
100
AcDbEntity
  8
200
100
AcDbLine
370
-1
  6
AUSGEZOGEN
 10
1889.07
 20
838.6
 30
0
 11
1880.74
 21
833.08
 31
0
  0
LINE
  5
132
100
AcDbEntity
  8
200
100
AcDbLine
370
-1
  6
AUSGEZOGEN
 10
1822.27
 20
838.6
 30
0
 11
1830.61
 21
833.08
 31
0
  0
LINE
  5
133
100
AcDbEntity
  8
200
100
AcDbLine
370
-1
  6
AUSGEZOGEN
 10
1797.51
 20
833.08
 30
0
 11
1805.84
 21
838.6
 31
0
  0
LINE
  5
134
100
AcDbEntity
  8
200
100
AcDbLine
370
-1
  6
AUSGEZOGEN
 10
1739.01
 20
838.6
 30
0
 11
1747.38
 21
833.08
 31
0
  0
LINE
  5
135
100
AcDbEntity
  8
200
100
AcDbLine
370
-1
  6
AUSGEZOGEN
 10
1714.25
 20
833.08
 30
0
 11
1722.59
 21
838.6
 31
0
  0
LINE
  5
136
100
AcDbEntity
  8
200
100
AcDbLine
370
-1
  6
AUSGEZOGEN
 10
1655.74
 20
838.6
 30
0
 11
1664.09
 21
833.08
 31
0
  0
LINE
  5
137
100
AcDbEntity
  8
200
100
AcDbLine
370
-1
  6
AUSGEZOGEN
 10
1631
 20
833.08
 30
0
 11
1639.33
 21
838.6
 31
0
  0
LINE
  5
138
100
AcDbEntity
  8
200
100
AcDbLine
370
-1
  6
AUSGEZOGEN
 10
1572.53
 20
838.6
 30
0
 11
1580.85
 21
833.08
 31
0
  0
LINE
  5
139
100
AcDbEntity
  8
200
100
AcDbLine
370
-1
  6
AUSGEZOGEN
 10
1547.72
 20
833.08
 30
0
 11
1556.06
 21
838.6
 31
0
  0
LINE
  5
13A
100
AcDbEntity
  8
200
100
AcDbLine
370
-1
  6
AUSGEZOGEN
 10
1489.26
 20
838.6
 30
0
 11
1497.58
 21
833.08
 31
0
  0
LINE
  5
13B
100
AcDbEntity
  8
200
100
AcDbLine
370
-1
  6
AUSGEZOGEN
 10
1464.5
 20
833.08
 30
0
 11
1472.8
 21
838.6
 31
0
  0
LINE
  5
13C
100
AcDbEntity
  8
200
100
AcDbLine
370
-1
  6
AUSGEZOGEN
 10
1405.99
 20
838.6
 30
0
 11
1414.36
 21
833.08
 31
0
  0
LINE
  5
13D
100
AcDbEntity
  8
200
100
AcDbLine
370
-1
  6
AUSGEZOGEN
 10
1381.23
 20
833.08
 30
0
 11
1389.57
 21
838.6
 31
0
  0
LINE
  5
13E
100
AcDbEntity
  8
200
100
AcDbLine
370
-1
  6
AUSGEZOGEN
 10
1322.72
 20
838.6
 30
0
 11
1331.1
 21
833.08
 31
0
  0
LINE
  5
13F
100
AcDbEntity
  8
200
100
AcDbLine
370
-1
  6
AUSGEZOGEN
 10
1297.98
 20
833.08
 30
0
 11
1306.31
 21
838.6
 31
0
  0
LINE
  5
140
100
AcDbEntity
  8
200
100
AcDbLine
370
-1
  6
AUSGEZOGEN
 10
1239.47
 20
838.6
 30
0
 11
1247.83
 21
833.08
 31
0
  0
LINE
  5
141
100
AcDbEntity
  8
200
100
AcDbLine
370
-1
  6
AUSGEZOGEN
 10
1214.7
 20
833.08
 30
0
 11
1223.08
 21
838.6
 31
0
  0
LINE
  5
142
100
AcDbEntity
  8
200
100
AcDbLine
370
-1
  6
AUSGEZOGEN
 10
1156.25
 20
838.6
 30
0
 11
1164.57
 21
833.08
 31
0
  0
LINE
  5
143
100
AcDbEntity
  8
200
100
AcDbLine
370
-1
  6
AUSGEZOGEN
 10
1131.42
 20
833.08
 30
0
 11
1139.79
 21
838.6
 31
0
  0
LINE
  5
144
100
AcDbEntity
  8
200
100
AcDbLine
370
-1
  6
AUSGEZOGEN
 10
1072.97
 20
838.6
 30
0
 11
1081.34
 21
833.08
 31
0
  0
LINE
  5
145
100
AcDbEntity
  8
200
100
AcDbLine
370
-1
  6
AUSGEZOGEN
 10
1048.23
 20
833.08
 30
0
 11
1056.55
 21
838.6
 31
0
  0
LINE
  5
146
100
AcDbEntity
  8
200
100
AcDbLine
370
-1
  6
AUSGEZOGEN
 10
989.72
 20
838.6
 30
0
 11
998.06
 21
833.08
 31
0
  0
LINE
  5
147
100
AcDbEntity
  8
200
100
AcDbLine
370
-1
  6
AUSGEZOGEN
 10
88.34
 20
844.11
 30
0
 11
138.51
 21
844.11
 31
0
  0
LINE
  5
148
100
AcDbEntity
  8
200
100
AcDbLine
370
-1
  6
AUSGEZOGEN
 10
138.51
 20
833.08
 30
0
 11
88.34
 21
833.08
 31
0
  0
LINE
  5
149
100
AcDbEntity
  8
200
100
AcDbLine
370
-1
  6
AUSGEZOGEN
 10
221.7
 20
844.11
 30
0
 11
171.63
 21
844.11
 31
0
  0
LINE
  5
14A
100
AcDbEntity
  8
200
100
AcDbLine
370
-1
  6
AUSGEZOGEN
 10
171.63
 20
833.08
 30
0
 11
221.7
 21
833.08
 31
0
  0
LINE
  5
14B
100
AcDbEntity
  8
200
100
AcDbLine
370
-1
  6
AUSGEZOGEN
 10
304.99
 20
844.11
 30
0
 11
254.85
 21
844.11
 31
0
  0
LINE
  5
14C
100
AcDbEntity
  8
200
100
AcDbLine
370
-1
  6
AUSGEZOGEN
 10
254.85
 20
833.08
 30
0
 11
304.99
 21
833.08
 31
0
  0
LINE
  5
14D
100
AcDbEntity
  8
200
100
AcDbLine
370
-1
  6
AUSGEZOGEN
 10
388.26
 20
844.11
 30
0
 11
338.12
 21
844.11
 31
0
  0
LINE
  5
14E
100
AcDbEntity
  8
200
100
AcDbLine
370
-1
  6
AUSGEZOGEN
 10
338.12
 20
833.08
 30
0
 11
388.26
 21
833.08
 31
0
  0
LINE
  5
14F
100
AcDbEntity
  8
200
100
AcDbLine
370
-1
  6
AUSGEZOGEN
 10
471.52
 20
844.11
 30
0
 11
421.38
 21
844.11
 31
0
  0
LINE
  5
150
100
AcDbEntity
  8
200
100
AcDbLine
370
-1
  6
AUSGEZOGEN
 10
421.38
 20
833.08
 30
0
 11
471.52
 21
833.08
 31
0
  0
LINE
  5
151
100
AcDbEntity
  8
200
100
AcDbLine
370
-1
  6
AUSGEZOGEN
 10
554.78
 20
844.11
 30
0
 11
504.65
 21
844.11
 31
0
  0
LINE
  5
152
100
AcDbEntity
  8
200
100
AcDbLine
370
-1
  6
AUSGEZOGEN
 10
504.65
 20
833.08
 30
0
 11
554.78
 21
833.08
 31
0
  0
LINE
  5
153
100
AcDbEntity
  8
200
100
AcDbLine
370
-1
  6
AUSGEZOGEN
 10
638
 20
844.11
 30
0
 11
587.87
 21
844.11
 31
0
  0
LINE
  5
154
100
AcDbEntity
  8
200
100
AcDbLine
370
-1
  6
AUSGEZOGEN
 10
587.87
 20
833.08
 30
0
 11
638
 21
833.08
 31
0
  0
LINE
  5
155
100
AcDbEntity
  8
200
100
AcDbLine
370
-1
  6
AUSGEZOGEN
 10
721.28
 20
844.11
 30
0
 11
671.13
 21
844.11
 31
0
  0
LINE
  5
156
100
AcDbEntity
  8
200
100
AcDbLine
370
-1
  6
AUSGEZOGEN
 10
671.13
 20
833.08
 30
0
 11
721.28
 21
833.08
 31
0
  0
LINE
  5
157
100
AcDbEntity
  8
200
100
AcDbLine
370
-1
  6
AUSGEZOGEN
 10
804.53
 20
844.11
 30
0
 11
754.38
 21
844.11
 31
0
  0
LINE
  5
158
100
AcDbEntity
  8
200
100
AcDbLine
370
-1
  6
AUSGEZOGEN
 10
754.38
 20
833.08
 30
0
 11
804.53
 21
833.08
 31
0
  0
LINE
  5
159
100
AcDbEntity
  8
200
100
AcDbLine
370
-1
  6
AUSGEZOGEN
 10
887.8
 20
844.11
 30
0
 11
837.66
 21
844.11
 31
0
  0
LINE
  5
15A
100
AcDbEntity
  8
200
100
AcDbLine
370
-1
  6
AUSGEZOGEN
 10
837.66
 20
833.08
 30
0
 11
887.8
 21
833.08
 31
0
  0
LINE
  5
15B
100
AcDbEntity
  8
200
100
AcDbLine
370
-1
  6
AUSGEZOGEN
 10
88.34
 20
827.51
 30
0
 11
138.51
 21
827.51
 31
0
  0
LINE
  5
15C
100
AcDbEntity
  8
200
100
AcDbLine
370
-1
  6
AUSGEZOGEN
 10
138.51
 20
816.49
 30
0
 11
88.34
 21
816.49
 31
0
  0
LINE
  5
15D
100
AcDbEntity
  8
200
100
AcDbLine
370
-1
  6
AUSGEZOGEN
 10
221.7
 20
827.51
 30
0
 11
171.63
 21
827.51
 31
0
  0
LINE
  5
15E
100
AcDbEntity
  8
200
100
AcDbLine
370
-1
  6
AUSGEZOGEN
 10
171.63
 20
816.49
 30
0
 11
221.7
 21
816.49
 31
0
  0
LINE
  5
15F
100
AcDbEntity
  8
200
100
AcDbLine
370
-1
  6
AUSGEZOGEN
 10
304.99
 20
827.51
 30
0
 11
254.85
 21
827.51
 31
0
  0
LINE
  5
160
100
AcDbEntity
  8
200
100
AcDbLine
370
-1
  6
AUSGEZOGEN
 10
254.85
 20
816.49
 30
0
 11
304.99
 21
816.49
 31
0
  0
LINE
  5
161
100
AcDbEntity
  8
200
100
AcDbLine
370
-1
  6
AUSGEZOGEN
 10
388.26
 20
827.51
 30
0
 11
338.12
 21
827.51
 31
0
  0
LINE
  5
162
100
AcDbEntity
  8
200
100
AcDbLine
370
-1
  6
AUSGEZOGEN
 10
338.12
 20
816.49
 30
0
 11
388.26
 21
816.49
 31
0
  0
LINE
  5
163
100
AcDbEntity
  8
200
100
AcDbLine
370
-1
  6
AUSGEZOGEN
 10
471.52
 20
827.51
 30
0
 11
421.38
 21
827.51
 31
0
  0
LINE
  5
164
100
AcDbEntity
  8
200
100
AcDbLine
370
-1
  6
AUSGEZOGEN
 10
421.38
 20
816.49
 30
0
 11
471.52
 21
816.49
 31
0
  0
LINE
  5
165
100
AcDbEntity
  8
200
100
AcDbLine
370
-1
  6
AUSGEZOGEN
 10
554.78
 20
827.51
 30
0
 11
504.65
 21
827.51
 31
0
  0
LINE
  5
166
100
AcDbEntity
  8
200
100
AcDbLine
370
-1
  6
AUSGEZOGEN
 10
504.65
 20
816.49
 30
0
 11
554.78
 21
816.49
 31
0
  0
LINE
  5
167
100
AcDbEntity
  8
200
100
AcDbLine
370
-1
  6
AUSGEZOGEN
 10
638
 20
827.51
 30
0
 11
587.87
 21
827.51
 31
0
  0
LINE
  5
168
100
AcDbEntity
  8
200
100
AcDbLine
370
-1
  6
AUSGEZOGEN
 10
587.87
 20
816.49
 30
0
 11
638
 21
816.49
 31
0
  0
LINE
  5
169
100
AcDbEntity
  8
200
100
AcDbLine
370
-1
  6
AUSGEZOGEN
 10
721.28
 20
827.51
 30
0
 11
671.13
 21
827.51
 31
0
  0
LINE
  5
16A
100
AcDbEntity
  8
200
100
AcDbLine
370
-1
  6
AUSGEZOGEN
 10
671.13
 20
816.49
 30
0
 11
721.28
 21
816.49
 31
0
  0
LINE
  5
16B
100
AcDbEntity
  8
200
100
AcDbLine
370
-1
  6
AUSGEZOGEN
 10
804.53
 20
827.51
 30
0
 11
754.38
 21
827.51
 31
0
  0
LINE
  5
16C
100
AcDbEntity
  8
200
100
AcDbLine
370
-1
  6
AUSGEZOGEN
 10
754.38
 20
816.49
 30
0
 11
804.53
 21
816.49
 31
0
  0
LINE
  5
16D
100
AcDbEntity
  8
200
100
AcDbLine
370
-1
  6
AUSGEZOGEN
 10
887.8
 20
827.51
 30
0
 11
837.66
 21
827.51
 31
0
  0
LINE
  5
16E
100
AcDbEntity
  8
200
100
AcDbLine
370
-1
  6
AUSGEZOGEN
 10
837.66
 20
816.49
 30
0
 11
887.8
 21
816.49
 31
0
  0
LINE
  5
16F
100
AcDbEntity
  8
200
100
AcDbLine
370
-1
  6
AUSGEZOGEN
 10
88.34
 20
810.91
 30
0
 11
138.51
 21
810.91
 31
0
  0
LINE
  5
170
100
AcDbEntity
  8
200
100
AcDbLine
370
-1
  6
AUSGEZOGEN
 10
138.51
 20
799.89
 30
0
 11
88.34
 21
799.89
 31
0
  0
LINE
  5
171
100
AcDbEntity
  8
200
100
AcDbLine
370
-1
  6
AUSGEZOGEN
 10
221.7
 20
810.91
 30
0
 11
171.63
 21
810.91
 31
0
  0
LINE
  5
172
100
AcDbEntity
  8
200
100
AcDbLine
370
-1
  6
AUSGEZOGEN
 10
171.63
 20
799.89
 30
0
 11
221.7
 21
799.89
 31
0
  0
LINE
  5
173
100
AcDbEntity
  8
200
100
AcDbLine
370
-1
  6
AUSGEZOGEN
 10
304.99
 20
810.91
 30
0
 11
254.85
 21
810.91
 31
0
  0
LINE
  5
174
100
AcDbEntity
  8
200
100
AcDbLine
370
-1
  6
AUSGEZOGEN
 10
254.85
 20
799.89
 30
0
 11
304.99
 21
799.89
 31
0
  0
LINE
  5
175
100
AcDbEntity
  8
200
100
AcDbLine
370
-1
  6
AUSGEZOGEN
 10
388.26
 20
810.91
 30
0
 11
338.12
 21
810.91
 31
0
  0
LINE
  5
176
100
AcDbEntity
  8
200
100
AcDbLine
370
-1
  6
AUSGEZOGEN
 10
338.12
 20
799.89
 30
0
 11
388.26
 21
799.89
 31
0
  0
LINE
  5
177
100
AcDbEntity
  8
200
100
AcDbLine
370
-1
  6
AUSGEZOGEN
 10
471.52
 20
810.91
 30
0
 11
421.38
 21
810.91
 31
0
  0
LINE
  5
178
100
AcDbEntity
  8
200
100
AcDbLine
370
-1
  6
AUSGEZOGEN
 10
421.38
 20
799.89
 30
0
 11
471.52
 21
799.89
 31
0
  0
LINE
  5
179
100
AcDbEntity
  8
200
100
AcDbLine
370
-1
  6
AUSGEZOGEN
 10
554.78
 20
810.91
 30
0
 11
504.65
 21
810.91
 31
0
  0
LINE
  5
17A
100
AcDbEntity
  8
200
100
AcDbLine
370
-1
  6
AUSGEZOGEN
 10
504.65
 20
799.89
 30
0
 11
554.78
 21
799.89
 31
0
  0
LINE
  5
17B
100
AcDbEntity
  8
200
100
AcDbLine
370
-1
  6
AUSGEZOGEN
 10
638
 20
810.91
 30
0
 11
587.87
 21
810.91
 31
0
  0
LINE
  5
17C
100
AcDbEntity
  8
200
100
AcDbLine
370
-1
  6
AUSGEZOGEN
 10
587.87
 20
799.89
 30
0
 11
638
 21
799.89
 31
0
  0
LINE
  5
17D
100
AcDbEntity
  8
200
100
AcDbLine
370
-1
  6
AUSGEZOGEN
 10
721.28
 20
810.91
 30
0
 11
671.13
 21
810.91
 31
0
  0
LINE
  5
17E
100
AcDbEntity
  8
200
100
AcDbLine
370
-1
  6
AUSGEZOGEN
 10
671.13
 20
799.89
 30
0
 11
721.28
 21
799.89
 31
0
  0
LINE
  5
17F
100
AcDbEntity
  8
200
100
AcDbLine
370
-1
  6
AUSGEZOGEN
 10
804.53
 20
810.91
 30
0
 11
754.38
 21
810.91
 31
0
  0
LINE
  5
180
100
AcDbEntity
  8
200
100
AcDbLine
370
-1
  6
AUSGEZOGEN
 10
754.38
 20
799.89
 30
0
 11
804.53
 21
799.89
 31
0
  0
LINE
  5
181
100
AcDbEntity
  8
200
100
AcDbLine
370
-1
  6
AUSGEZOGEN
 10
887.8
 20
810.91
 30
0
 11
837.66
 21
810.91
 31
0
  0
LINE
  5
182
100
AcDbEntity
  8
200
100
AcDbLine
370
-1
  6
AUSGEZOGEN
 10
837.66
 20
799.89
 30
0
 11
887.8
 21
799.89
 31
0
  0
LINE
  5
183
100
AcDbEntity
  8
200
100
AcDbLine
370
-1
  6
AUSGEZOGEN
 10
88.34
 20
794.31
 30
0
 11
138.51
 21
794.31
 31
0
  0
LINE
  5
184
100
AcDbEntity
  8
200
100
AcDbLine
370
-1
  6
AUSGEZOGEN
 10
138.51
 20
783.29
 30
0
 11
88.34
 21
783.29
 31
0
  0
LINE
  5
185
100
AcDbEntity
  8
200
100
AcDbLine
370
-1
  6
AUSGEZOGEN
 10
221.7
 20
794.31
 30
0
 11
171.63
 21
794.31
 31
0
  0
LINE
  5
186
100
AcDbEntity
  8
200
100
AcDbLine
370
-1
  6
AUSGEZOGEN
 10
171.63
 20
783.29
 30
0
 11
221.7
 21
783.29
 31
0
  0
LINE
  5
187
100
AcDbEntity
  8
200
100
AcDbLine
370
-1
  6
AUSGEZOGEN
 10
304.99
 20
794.31
 30
0
 11
254.85
 21
794.31
 31
0
  0
LINE
  5
188
100
AcDbEntity
  8
200
100
AcDbLine
370
-1
  6
AUSGEZOGEN
 10
254.85
 20
783.29
 30
0
 11
304.99
 21
783.29
 31
0
  0
LINE
  5
189
100
AcDbEntity
  8
200
100
AcDbLine
370
-1
  6
AUSGEZOGEN
 10
388.26
 20
794.31
 30
0
 11
338.12
 21
794.31
 31
0
  0
LINE
  5
18A
100
AcDbEntity
  8
200
100
AcDbLine
370
-1
  6
AUSGEZOGEN
 10
338.12
 20
783.29
 30
0
 11
388.26
 21
783.29
 31
0
  0
LINE
  5
18B
100
AcDbEntity
  8
200
100
AcDbLine
370
-1
  6
AUSGEZOGEN
 10
471.52
 20
794.31
 30
0
 11
421.38
 21
794.31
 31
0
  0
LINE
  5
18C
100
AcDbEntity
  8
200
100
AcDbLine
370
-1
  6
AUSGEZOGEN
 10
421.38
 20
783.29
 30
0
 11
471.52
 21
783.29
 31
0
  0
LINE
  5
18D
100
AcDbEntity
  8
200
100
AcDbLine
370
-1
  6
AUSGEZOGEN
 10
554.78
 20
794.31
 30
0
 11
504.65
 21
794.31
 31
0
  0
LINE
  5
18E
100
AcDbEntity
  8
200
100
AcDbLine
370
-1
  6
AUSGEZOGEN
 10
504.65
 20
783.29
 30
0
 11
554.78
 21
783.29
 31
0
  0
LINE
  5
18F
100
AcDbEntity
  8
200
100
AcDbLine
370
-1
  6
AUSGEZOGEN
 10
638
 20
794.31
 30
0
 11
587.87
 21
794.31
 31
0
  0
LINE
  5
190
100
AcDbEntity
  8
200
100
AcDbLine
370
-1
  6
AUSGEZOGEN
 10
587.87
 20
783.29
 30
0
 11
638
 21
783.29
 31
0
  0
LINE
  5
191
100
AcDbEntity
  8
200
100
AcDbLine
370
-1
  6
AUSGEZOGEN
 10
721.28
 20
794.31
 30
0
 11
671.13
 21
794.31
 31
0
  0
LINE
  5
192
100
AcDbEntity
  8
200
100
AcDbLine
370
-1
  6
AUSGEZOGEN
 10
671.13
 20
783.29
 30
0
 11
721.28
 21
783.29
 31
0
  0
LINE
  5
193
100
AcDbEntity
  8
200
100
AcDbLine
370
-1
  6
AUSGEZOGEN
 10
804.53
 20
794.31
 30
0
 11
754.38
 21
794.31
 31
0
  0
LINE
  5
194
100
AcDbEntity
  8
200
100
AcDbLine
370
-1
  6
AUSGEZOGEN
 10
754.38
 20
783.29
 30
0
 11
804.53
 21
783.29
 31
0
  0
LINE
  5
195
100
AcDbEntity
  8
200
100
AcDbLine
370
-1
  6
AUSGEZOGEN
 10
887.8
 20
794.31
 30
0
 11
837.66
 21
794.31
 31
0
  0
LINE
  5
196
100
AcDbEntity
  8
200
100
AcDbLine
370
-1
  6
AUSGEZOGEN
 10
837.66
 20
783.29
 30
0
 11
887.8
 21
783.29
 31
0
  0
LINE
  5
197
100
AcDbEntity
  8
200
100
AcDbLine
370
-1
  6
AUSGEZOGEN
 10
971.02
 20
783.29
 30
0
 11
920.9
 21
783.29
 31
0
  0
LINE
  5
198
100
AcDbEntity
  8
200
100
AcDbLine
370
-1
  6
AUSGEZOGEN
 10
920.9
 20
794.31
 30
0
 11
971.02
 21
794.31
 31
0
  0
LINE
  5
199
100
AcDbEntity
  8
200
100
AcDbLine
370
-1
  6
AUSGEZOGEN
 10
979.35
 20
788.8
 30
0
 11
971.02
 21
794.31
 31
0
  0
LINE
  5
19A
100
AcDbEntity
  8
200
100
AcDbLine
370
-1
  6
AUSGEZOGEN
 10
912.55
 20
788.8
 30
0
 11
920.9
 21
794.31
 31
0
  0
LINE
  5
19B
100
AcDbEntity
  8
200
100
AcDbLine
370
-1
  6
AUSGEZOGEN
 10
887.8
 20
794.31
 30
0
 11
896.12
 21
788.8
 31
0
  0
LINE
  5
19C
100
AcDbEntity
  8
200
100
AcDbLine
370
-1
  6
AUSGEZOGEN
 10
829.3
 20
788.8
 30
0
 11
837.66
 21
794.31
 31
0
  0
LINE
  5
19D
100
AcDbEntity
  8
200
100
AcDbLine
370
-1
  6
AUSGEZOGEN
 10
804.53
 20
794.31
 30
0
 11
812.88
 21
788.8
 31
0
  0
LINE
  5
19E
100
AcDbEntity
  8
200
100
AcDbLine
370
-1
  6
AUSGEZOGEN
 10
746.02
 20
788.8
 30
0
 11
754.38
 21
794.31
 31
0
  0
LINE
  5
19F
100
AcDbEntity
  8
200
100
AcDbLine
370
-1
  6
AUSGEZOGEN
 10
721.28
 20
794.31
 30
0
 11
729.61
 21
788.8
 31
0
  0
LINE
  5
1A0
100
AcDbEntity
  8
200
100
AcDbLine
370
-1
  6
AUSGEZOGEN
 10
662.81
 20
788.8
 30
0
 11
671.13
 21
794.31
 31
0
  0
LINE
  5
1A1
100
AcDbEntity
  8
200
100
AcDbLine
370
-1
  6
AUSGEZOGEN
 10
638
 20
794.31
 30
0
 11
646.35
 21
788.8
 31
0
  0
LINE
  5
1A2
100
AcDbEntity
  8
200
100
AcDbLine
370
-1
  6
AUSGEZOGEN
 10
579.55
 20
788.8
 30
0
 11
587.87
 21
794.31
 31
0
  0
LINE
  5
1A3
100
AcDbEntity
  8
200
100
AcDbLine
370
-1
  6
AUSGEZOGEN
 10
554.78
 20
794.31
 30
0
 11
563.08
 21
788.8
 31
0
  0
LINE
  5
1A4
100
AcDbEntity
  8
200
100
AcDbLine
370
-1
  6
AUSGEZOGEN
 10
496.27
 20
788.8
 30
0
 11
504.65
 21
794.31
 31
0
  0
LINE
  5
1A5
100
AcDbEntity
  8
200
100
AcDbLine
370
-1
  6
AUSGEZOGEN
 10
471.52
 20
794.31
 30
0
 11
479.85
 21
788.8
 31
0
  0
LINE
  5
1A6
100
AcDbEntity
  8
200
100
AcDbLine
370
-1
  6
AUSGEZOGEN
 10
413.01
 20
788.8
 30
0
 11
421.38
 21
794.31
 31
0
  0
LINE
  5
1A7
100
AcDbEntity
  8
200
100
AcDbLine
370
-1
  6
AUSGEZOGEN
 10
388.26
 20
794.31
 30
0
 11
396.6
 21
788.8
 31
0
  0
LINE
  5
1A8
100
AcDbEntity
  8
200
100
AcDbLine
370
-1
  6
AUSGEZOGEN
 10
329.75
 20
788.8
 30
0
 11
338.12
 21
794.31
 31
0
  0
LINE
  5
1A9
100
AcDbEntity
  8
200
100
AcDbLine
370
-1
  6
AUSGEZOGEN
 10
304.99
 20
794.31
 30
0
 11
313.36
 21
788.8
 31
0
  0
LINE
  5
1AA
100
AcDbEntity
  8
200
100
AcDbLine
370
-1
  6
AUSGEZOGEN
 10
246.53
 20
788.8
 30
0
 11
254.85
 21
794.31
 31
0
  0
LINE
  5
1AB
100
AcDbEntity
  8
200
100
AcDbLine
370
-1
  6
AUSGEZOGEN
 10
221.7
 20
794.31
 30
0
 11
230.08
 21
788.8
 31
0
  0
LINE
  5
1AC
100
AcDbEntity
  8
200
100
AcDbLine
370
-1
  6
AUSGEZOGEN
 10
163.25
 20
788.8
 30
0
 11
171.63
 21
794.31
 31
0
  0
LINE
  5
1AD
100
AcDbEntity
  8
200
100
AcDbLine
370
-1
  6
AUSGEZOGEN
 10
138.51
 20
794.31
 30
0
 11
146.83
 21
788.8
 31
0
  0
LINE
  5
1AE
100
AcDbEntity
  8
200
100
AcDbLine
370
-1
  6
AUSGEZOGEN
 10
80
 20
788.8
 30
0
 11
88.34
 21
794.31
 31
0
  0
LINE
  5
1AF
100
AcDbEntity
  8
200
100
AcDbLine
370
-1
  6
AUSGEZOGEN
 10
979.35
 20
788.8
 30
0
 11
971.02
 21
783.29
 31
0
  0
LINE
  5
1B0
100
AcDbEntity
  8
200
100
AcDbLine
370
-1
  6
AUSGEZOGEN
 10
912.55
 20
788.8
 30
0
 11
920.9
 21
783.29
 31
0
  0
LINE
  5
1B1
100
AcDbEntity
  8
200
100
AcDbLine
370
-1
  6
AUSGEZOGEN
 10
887.8
 20
783.29
 30
0
 11
896.12
 21
788.8
 31
0
  0
LINE
  5
1B2
100
AcDbEntity
  8
200
100
AcDbLine
370
-1
  6
AUSGEZOGEN
 10
829.3
 20
788.8
 30
0
 11
837.66
 21
783.29
 31
0
  0
LINE
  5
1B3
100
AcDbEntity
  8
200
100
AcDbLine
370
-1
  6
AUSGEZOGEN
 10
804.53
 20
783.29
 30
0
 11
812.88
 21
788.8
 31
0
  0
LINE
  5
1B4
100
AcDbEntity
  8
200
100
AcDbLine
370
-1
  6
AUSGEZOGEN
 10
746.02
 20
788.8
 30
0
 11
754.38
 21
783.29
 31
0
  0
LINE
  5
1B5
100
AcDbEntity
  8
200
100
AcDbLine
370
-1
  6
AUSGEZOGEN
 10
721.28
 20
783.29
 30
0
 11
729.61
 21
788.8
 31
0
  0
LINE
  5
1B6
100
AcDbEntity
  8
200
100
AcDbLine
370
-1
  6
AUSGEZOGEN
 10
662.81
 20
788.8
 30
0
 11
671.13
 21
783.29
 31
0
  0
LINE
  5
1B7
100
AcDbEntity
  8
200
100
AcDbLine
370
-1
  6
AUSGEZOGEN
 10
638
 20
783.29
 30
0
 11
646.35
 21
788.8
 31
0
  0
LINE
  5
1B8
100
AcDbEntity
  8
200
100
AcDbLine
370
-1
  6
AUSGEZOGEN
 10
579.55
 20
788.8
 30
0
 11
587.87
 21
783.29
 31
0
  0
LINE
  5
1B9
100
AcDbEntity
  8
200
100
AcDbLine
370
-1
  6
AUSGEZOGEN
 10
554.78
 20
783.29
 30
0
 11
563.08
 21
788.8
 31
0
  0
LINE
  5
1BA
100
AcDbEntity
  8
200
100
AcDbLine
370
-1
  6
AUSGEZOGEN
 10
496.27
 20
788.8
 30
0
 11
504.65
 21
783.29
 31
0
  0
LINE
  5
1BB
100
AcDbEntity
  8
200
100
AcDbLine
370
-1
  6
AUSGEZOGEN
 10
471.52
 20
783.29
 30
0
 11
479.85
 21
788.8
 31
0
  0
LINE
  5
1BC
100
AcDbEntity
  8
200
100
AcDbLine
370
-1
  6
AUSGEZOGEN
 10
413.01
 20
788.8
 30
0
 11
421.38
 21
783.29
 31
0
  0
LINE
  5
1BD
100
AcDbEntity
  8
200
100
AcDbLine
370
-1
  6
AUSGEZOGEN
 10
388.26
 20
783.29
 30
0
 11
396.6
 21
788.8
 31
0
  0
LINE
  5
1BE
100
AcDbEntity
  8
200
100
AcDbLine
370
-1
  6
AUSGEZOGEN
 10
329.75
 20
788.8
 30
0
 11
338.12
 21
783.29
 31
0
  0
LINE
  5
1BF
100
AcDbEntity
  8
200
100
AcDbLine
370
-1
  6
AUSGEZOGEN
 10
304.99
 20
783.29
 30
0
 11
313.36
 21
788.8
 31
0
  0
LINE
  5
1C0
100
AcDbEntity
  8
200
100
AcDbLine
370
-1
  6
AUSGEZOGEN
 10
246.53
 20
788.8
 30
0
 11
254.85
 21
783.29
 31
0
  0
LINE
  5
1C1
100
AcDbEntity
  8
200
100
AcDbLine
370
-1
  6
AUSGEZOGEN
 10
221.7
 20
783.29
 30
0
 11
230.08
 21
788.8
 31
0
  0
LINE
  5
1C2
100
AcDbEntity
  8
200
100
AcDbLine
370
-1
  6
AUSGEZOGEN
 10
163.25
 20
788.8
 30
0
 11
171.63
 21
783.29
 31
0
  0
LINE
  5
1C3
100
AcDbEntity
  8
200
100
AcDbLine
370
-1
  6
AUSGEZOGEN
 10
138.51
 20
783.29
 30
0
 11
146.83
 21
788.8
 31
0
  0
LINE
  5
1C4
100
AcDbEntity
  8
200
100
AcDbLine
370
-1
  6
AUSGEZOGEN
 10
80
 20
788.8
 30
0
 11
88.34
 21
783.29
 31
0
  0
LINE
  5
1C5
100
AcDbEntity
  8
200
100
AcDbLine
370
-1
  6
AUSGEZOGEN
 10
971.02
 20
799.89
 30
0
 11
920.9
 21
799.89
 31
0
  0
LINE
  5
1C6
100
AcDbEntity
  8
200
100
AcDbLine
370
-1
  6
AUSGEZOGEN
 10
920.9
 20
810.91
 30
0
 11
971.02
 21
810.91
 31
0
  0
LINE
  5
1C7
100
AcDbEntity
  8
200
100
AcDbLine
370
-1
  6
AUSGEZOGEN
 10
979.35
 20
805.4
 30
0
 11
971.02
 21
810.91
 31
0
  0
LINE
  5
1C8
100
AcDbEntity
  8
200
100
AcDbLine
370
-1
  6
AUSGEZOGEN
 10
912.55
 20
805.4
 30
0
 11
920.9
 21
810.91
 31
0
  0
LINE
  5
1C9
100
AcDbEntity
  8
200
100
AcDbLine
370
-1
  6
AUSGEZOGEN
 10
887.8
 20
810.91
 30
0
 11
896.12
 21
805.4
 31
0
  0
LINE
  5
1CA
100
AcDbEntity
  8
200
100
AcDbLine
370
-1
  6
AUSGEZOGEN
 10
829.3
 20
805.4
 30
0
 11
837.66
 21
810.91
 31
0
  0
LINE
  5
1CB
100
AcDbEntity
  8
200
100
AcDbLine
370
-1
  6
AUSGEZOGEN
 10
804.53
 20
810.91
 30
0
 11
812.88
 21
805.4
 31
0
  0
LINE
  5
1CC
100
AcDbEntity
  8
200
100
AcDbLine
370
-1
  6
AUSGEZOGEN
 10
746.02
 20
805.4
 30
0
 11
754.38
 21
810.91
 31
0
  0
LINE
  5
1CD
100
AcDbEntity
  8
200
100
AcDbLine
370
-1
  6
AUSGEZOGEN
 10
721.28
 20
810.91
 30
0
 11
729.61
 21
805.4
 31
0
  0
LINE
  5
1CE
100
AcDbEntity
  8
200
100
AcDbLine
370
-1
  6
AUSGEZOGEN
 10
662.81
 20
805.4
 30
0
 11
671.13
 21
810.91
 31
0
  0
LINE
  5
1CF
100
AcDbEntity
  8
200
100
AcDbLine
370
-1
  6
AUSGEZOGEN
 10
638
 20
810.91
 30
0
 11
646.35
 21
805.4
 31
0
  0
LINE
  5
1D0
100
AcDbEntity
  8
200
100
AcDbLine
370
-1
  6
AUSGEZOGEN
 10
579.55
 20
805.4
 30
0
 11
587.87
 21
810.91
 31
0
  0
LINE
  5
1D1
100
AcDbEntity
  8
200
100
AcDbLine
370
-1
  6
AUSGEZOGEN
 10
554.78
 20
810.91
 30
0
 11
563.08
 21
805.4
 31
0
  0
LINE
  5
1D2
100
AcDbEntity
  8
200
100
AcDbLine
370
-1
  6
AUSGEZOGEN
 10
496.27
 20
805.4
 30
0
 11
504.65
 21
810.91
 31
0
  0
LINE
  5
1D3
100
AcDbEntity
  8
200
100
AcDbLine
370
-1
  6
AUSGEZOGEN
 10
471.52
 20
810.91
 30
0
 11
479.85
 21
805.4
 31
0
  0
LINE
  5
1D4
100
AcDbEntity
  8
200
100
AcDbLine
370
-1
  6
AUSGEZOGEN
 10
413.01
 20
805.4
 30
0
 11
421.38
 21
810.91
 31
0
  0
LINE
  5
1D5
100
AcDbEntity
  8
200
100
AcDbLine
370
-1
  6
AUSGEZOGEN
 10
388.26
 20
810.91
 30
0
 11
396.6
 21
805.4
 31
0
  0
LINE
  5
1D6
100
AcDbEntity
  8
200
100
AcDbLine
370
-1
  6
AUSGEZOGEN
 10
329.75
 20
805.4
 30
0
 11
338.12
 21
810.91
 31
0
  0
LINE
  5
1D7
100
AcDbEntity
  8
200
100
AcDbLine
370
-1
  6
AUSGEZOGEN
 10
304.99
 20
810.91
 30
0
 11
313.36
 21
805.4
 31
0
  0
LINE
  5
1D8
100
AcDbEntity
  8
200
100
AcDbLine
370
-1
  6
AUSGEZOGEN
 10
246.53
 20
805.4
 30
0
 11
254.85
 21
810.91
 31
0
  0
LINE
  5
1D9
100
AcDbEntity
  8
200
100
AcDbLine
370
-1
  6
AUSGEZOGEN
 10
221.7
 20
810.91
 30
0
 11
230.08
 21
805.4
 31
0
  0
LINE
  5
1DA
100
AcDbEntity
  8
200
100
AcDbLine
370
-1
  6
AUSGEZOGEN
 10
163.25
 20
805.4
 30
0
 11
171.63
 21
810.91
 31
0
  0
LINE
  5
1DB
100
AcDbEntity
  8
200
100
AcDbLine
370
-1
  6
AUSGEZOGEN
 10
138.51
 20
810.91
 30
0
 11
146.83
 21
805.4
 31
0
  0
LINE
  5
1DC
100
AcDbEntity
  8
200
100
AcDbLine
370
-1
  6
AUSGEZOGEN
 10
80
 20
805.4
 30
0
 11
88.34
 21
810.91
 31
0
  0
LINE
  5
1DD
100
AcDbEntity
  8
200
100
AcDbLine
370
-1
  6
AUSGEZOGEN
 10
979.35
 20
805.4
 30
0
 11
971.02
 21
799.89
 31
0
  0
LINE
  5
1DE
100
AcDbEntity
  8
200
100
AcDbLine
370
-1
  6
AUSGEZOGEN
 10
912.55
 20
805.4
 30
0
 11
920.9
 21
799.89
 31
0
  0
LINE
  5
1DF
100
AcDbEntity
  8
200
100
AcDbLine
370
-1
  6
AUSGEZOGEN
 10
887.8
 20
799.89
 30
0
 11
896.12
 21
805.4
 31
0
  0
LINE
  5
1E0
100
AcDbEntity
  8
200
100
AcDbLine
370
-1
  6
AUSGEZOGEN
 10
829.3
 20
805.4
 30
0
 11
837.66
 21
799.89
 31
0
  0
LINE
  5
1E1
100
AcDbEntity
  8
200
100
AcDbLine
370
-1
  6
AUSGEZOGEN
 10
804.53
 20
799.89
 30
0
 11
812.88
 21
805.4
 31
0
  0
LINE
  5
1E2
100
AcDbEntity
  8
200
100
AcDbLine
370
-1
  6
AUSGEZOGEN
 10
746.02
 20
805.4
 30
0
 11
754.38
 21
799.89
 31
0
  0
LINE
  5
1E3
100
AcDbEntity
  8
200
100
AcDbLine
370
-1
  6
AUSGEZOGEN
 10
721.28
 20
799.89
 30
0
 11
729.61
 21
805.4
 31
0
  0
LINE
  5
1E4
100
AcDbEntity
  8
200
100
AcDbLine
370
-1
  6
AUSGEZOGEN
 10
662.81
 20
805.4
 30
0
 11
671.13
 21
799.89
 31
0
  0
LINE
  5
1E5
100
AcDbEntity
  8
200
100
AcDbLine
370
-1
  6
AUSGEZOGEN
 10
638
 20
799.89
 30
0
 11
646.35
 21
805.4
 31
0
  0
LINE
  5
1E6
100
AcDbEntity
  8
200
100
AcDbLine
370
-1
  6
AUSGEZOGEN
 10
579.55
 20
805.4
 30
0
 11
587.87
 21
799.89
 31
0
  0
LINE
  5
1E7
100
AcDbEntity
  8
200
100
AcDbLine
370
-1
  6
AUSGEZOGEN
 10
554.78
 20
799.89
 30
0
 11
563.08
 21
805.4
 31
0
  0
LINE
  5
1E8
100
AcDbEntity
  8
200
100
AcDbLine
370
-1
  6
AUSGEZOGEN
 10
496.27
 20
805.4
 30
0
 11
504.65
 21
799.89
 31
0
  0
LINE
  5
1E9
100
AcDbEntity
  8
200
100
AcDbLine
370
-1
  6
AUSGEZOGEN
 10
471.52
 20
799.89
 30
0
 11
479.85
 21
805.4
 31
0
  0
LINE
  5
1EA
100
AcDbEntity
  8
200
100
AcDbLine
370
-1
  6
AUSGEZOGEN
 10
413.01
 20
805.4
 30
0
 11
421.38
 21
799.89
 31
0
  0
LINE
  5
1EB
100
AcDbEntity
  8
200
100
AcDbLine
370
-1
  6
AUSGEZOGEN
 10
388.26
 20
799.89
 30
0
 11
396.6
 21
805.4
 31
0
  0
LINE
  5
1EC
100
AcDbEntity
  8
200
100
AcDbLine
370
-1
  6
AUSGEZOGEN
 10
329.75
 20
805.4
 30
0
 11
338.12
 21
799.89
 31
0
  0
LINE
  5
1ED
100
AcDbEntity
  8
200
100
AcDbLine
370
-1
  6
AUSGEZOGEN
 10
304.99
 20
799.89
 30
0
 11
313.36
 21
805.4
 31
0
  0
LINE
  5
1EE
100
AcDbEntity
  8
200
100
AcDbLine
370
-1
  6
AUSGEZOGEN
 10
246.53
 20
805.4
 30
0
 11
254.85
 21
799.89
 31
0
  0
LINE
  5
1EF
100
AcDbEntity
  8
200
100
AcDbLine
370
-1
  6
AUSGEZOGEN
 10
221.7
 20
799.89
 30
0
 11
230.08
 21
805.4
 31
0
  0
LINE
  5
1F0
100
AcDbEntity
  8
200
100
AcDbLine
370
-1
  6
AUSGEZOGEN
 10
163.25
 20
805.4
 30
0
 11
171.63
 21
799.89
 31
0
  0
LINE
  5
1F1
100
AcDbEntity
  8
200
100
AcDbLine
370
-1
  6
AUSGEZOGEN
 10
138.51
 20
799.89
 30
0
 11
146.83
 21
805.4
 31
0
  0
LINE
  5
1F2
100
AcDbEntity
  8
200
100
AcDbLine
370
-1
  6
AUSGEZOGEN
 10
80
 20
805.4
 30
0
 11
88.34
 21
799.89
 31
0
  0
LINE
  5
1F3
100
AcDbEntity
  8
200
100
AcDbLine
370
-1
  6
AUSGEZOGEN
 10
971.02
 20
816.49
 30
0
 11
920.9
 21
816.49
 31
0
  0
LINE
  5
1F4
100
AcDbEntity
  8
200
100
AcDbLine
370
-1
  6
AUSGEZOGEN
 10
920.9
 20
827.51
 30
0
 11
971.02
 21
827.51
 31
0
  0
LINE
  5
1F5
100
AcDbEntity
  8
200
100
AcDbLine
370
-1
  6
AUSGEZOGEN
 10
979.35
 20
821.99
 30
0
 11
971.02
 21
827.51
 31
0
  0
LINE
  5
1F6
100
AcDbEntity
  8
200
100
AcDbLine
370
-1
  6
AUSGEZOGEN
 10
912.55
 20
821.99
 30
0
 11
920.9
 21
827.51
 31
0
  0
LINE
  5
1F7
100
AcDbEntity
  8
200
100
AcDbLine
370
-1
  6
AUSGEZOGEN
 10
887.8
 20
827.51
 30
0
 11
896.12
 21
821.99
 31
0
  0
LINE
  5
1F8
100
AcDbEntity
  8
200
100
AcDbLine
370
-1
  6
AUSGEZOGEN
 10
829.3
 20
821.99
 30
0
 11
837.66
 21
827.51
 31
0
  0
LINE
  5
1F9
100
AcDbEntity
  8
200
100
AcDbLine
370
-1
  6
AUSGEZOGEN
 10
804.53
 20
827.51
 30
0
 11
812.88
 21
821.99
 31
0
  0
LINE
  5
1FA
100
AcDbEntity
  8
200
100
AcDbLine
370
-1
  6
AUSGEZOGEN
 10
746.02
 20
821.99
 30
0
 11
754.38
 21
827.51
 31
0
  0
LINE
  5
1FB
100
AcDbEntity
  8
200
100
AcDbLine
370
-1
  6
AUSGEZOGEN
 10
721.28
 20
827.51
 30
0
 11
729.61
 21
821.99
 31
0
  0
LINE
  5
1FC
100
AcDbEntity
  8
200
100
AcDbLine
370
-1
  6
AUSGEZOGEN
 10
662.81
 20
821.99
 30
0
 11
671.13
 21
827.51
 31
0
  0
LINE
  5
1FD
100
AcDbEntity
  8
200
100
AcDbLine
370
-1
  6
AUSGEZOGEN
 10
638
 20
827.51
 30
0
 11
646.35
 21
821.99
 31
0
  0
LINE
  5
1FE
100
AcDbEntity
  8
200
100
AcDbLine
370
-1
  6
AUSGEZOGEN
 10
579.55
 20
821.99
 30
0
 11
587.87
 21
827.51
 31
0
  0
LINE
  5
1FF
100
AcDbEntity
  8
200
100
AcDbLine
370
-1
  6
AUSGEZOGEN
 10
554.78
 20
827.51
 30
0
 11
563.08
 21
821.99
 31
0
  0
LINE
  5
200
100
AcDbEntity
  8
200
100
AcDbLine
370
-1
  6
AUSGEZOGEN
 10
496.27
 20
821.99
 30
0
 11
504.65
 21
827.51
 31
0
  0
LINE
  5
201
100
AcDbEntity
  8
200
100
AcDbLine
370
-1
  6
AUSGEZOGEN
 10
471.52
 20
827.51
 30
0
 11
479.85
 21
821.99
 31
0
  0
LINE
  5
202
100
AcDbEntity
  8
200
100
AcDbLine
370
-1
  6
AUSGEZOGEN
 10
413.01
 20
821.99
 30
0
 11
421.38
 21
827.51
 31
0
  0
LINE
  5
203
100
AcDbEntity
  8
200
100
AcDbLine
370
-1
  6
AUSGEZOGEN
 10
388.26
 20
827.51
 30
0
 11
396.6
 21
821.99
 31
0
  0
LINE
  5
204
100
AcDbEntity
  8
200
100
AcDbLine
370
-1
  6
AUSGEZOGEN
 10
329.75
 20
821.99
 30
0
 11
338.12
 21
827.51
 31
0
  0
LINE
  5
205
100
AcDbEntity
  8
200
100
AcDbLine
370
-1
  6
AUSGEZOGEN
 10
304.99
 20
827.51
 30
0
 11
313.36
 21
821.99
 31
0
  0
LINE
  5
206
100
AcDbEntity
  8
200
100
AcDbLine
370
-1
  6
AUSGEZOGEN
 10
246.53
 20
821.99
 30
0
 11
254.85
 21
827.51
 31
0
  0
LINE
  5
207
100
AcDbEntity
  8
200
100
AcDbLine
370
-1
  6
AUSGEZOGEN
 10
221.7
 20
827.51
 30
0
 11
230.08
 21
821.99
 31
0
  0
LINE
  5
208
100
AcDbEntity
  8
200
100
AcDbLine
370
-1
  6
AUSGEZOGEN
 10
163.25
 20
821.99
 30
0
 11
171.63
 21
827.51
 31
0
  0
LINE
  5
209
100
AcDbEntity
  8
200
100
AcDbLine
370
-1
  6
AUSGEZOGEN
 10
138.51
 20
827.51
 30
0
 11
146.83
 21
821.99
 31
0
  0
LINE
  5
20A
100
AcDbEntity
  8
200
100
AcDbLine
370
-1
  6
AUSGEZOGEN
 10
80
 20
821.99
 30
0
 11
88.34
 21
827.51
 31
0
  0
LINE
  5
20B
100
AcDbEntity
  8
200
100
AcDbLine
370
-1
  6
AUSGEZOGEN
 10
979.35
 20
821.99
 30
0
 11
971.02
 21
816.49
 31
0
  0
LINE
  5
20C
100
AcDbEntity
  8
200
100
AcDbLine
370
-1
  6
AUSGEZOGEN
 10
912.55
 20
821.99
 30
0
 11
920.9
 21
816.49
 31
0
  0
LINE
  5
20D
100
AcDbEntity
  8
200
100
AcDbLine
370
-1
  6
AUSGEZOGEN
 10
887.8
 20
816.49
 30
0
 11
896.12
 21
821.99
 31
0
  0
LINE
  5
20E
100
AcDbEntity
  8
200
100
AcDbLine
370
-1
  6
AUSGEZOGEN
 10
829.3
 20
821.99
 30
0
 11
837.66
 21
816.49
 31
0
  0
LINE
  5
20F
100
AcDbEntity
  8
200
100
AcDbLine
370
-1
  6
AUSGEZOGEN
 10
804.53
 20
816.49
 30
0
 11
812.88
 21
821.99
 31
0
  0
LINE
  5
210
100
AcDbEntity
  8
200
100
AcDbLine
370
-1
  6
AUSGEZOGEN
 10
746.02
 20
821.99
 30
0
 11
754.38
 21
816.49
 31
0
  0
LINE
  5
211
100
AcDbEntity
  8
200
100
AcDbLine
370
-1
  6
AUSGEZOGEN
 10
721.28
 20
816.49
 30
0
 11
729.61
 21
821.99
 31
0
  0
LINE
  5
212
100
AcDbEntity
  8
200
100
AcDbLine
370
-1
  6
AUSGEZOGEN
 10
662.81
 20
821.99
 30
0
 11
671.13
 21
816.49
 31
0
  0
LINE
  5
213
100
AcDbEntity
  8
200
100
AcDbLine
370
-1
  6
AUSGEZOGEN
 10
638
 20
816.49
 30
0
 11
646.35
 21
821.99
 31
0
  0
LINE
  5
214
100
AcDbEntity
  8
200
100
AcDbLine
370
-1
  6
AUSGEZOGEN
 10
579.55
 20
821.99
 30
0
 11
587.87
 21
816.49
 31
0
  0
LINE
  5
215
100
AcDbEntity
  8
200
100
AcDbLine
370
-1
  6
AUSGEZOGEN
 10
554.78
 20
816.49
 30
0
 11
563.08
 21
821.99
 31
0
  0
LINE
  5
216
100
AcDbEntity
  8
200
100
AcDbLine
370
-1
  6
AUSGEZOGEN
 10
496.27
 20
821.99
 30
0
 11
504.65
 21
816.49
 31
0
  0
LINE
  5
217
100
AcDbEntity
  8
200
100
AcDbLine
370
-1
  6
AUSGEZOGEN
 10
471.52
 20
816.49
 30
0
 11
479.85
 21
821.99
 31
0
  0
LINE
  5
218
100
AcDbEntity
  8
200
100
AcDbLine
370
-1
  6
AUSGEZOGEN
 10
413.01
 20
821.99
 30
0
 11
421.38
 21
816.49
 31
0
  0
LINE
  5
219
100
AcDbEntity
  8
200
100
AcDbLine
370
-1
  6
AUSGEZOGEN
 10
388.26
 20
816.49
 30
0
 11
396.6
 21
821.99
 31
0
  0
LINE
  5
21A
100
AcDbEntity
  8
200
100
AcDbLine
370
-1
  6
AUSGEZOGEN
 10
329.75
 20
821.99
 30
0
 11
338.12
 21
816.49
 31
0
  0
LINE
  5
21B
100
AcDbEntity
  8
200
100
AcDbLine
370
-1
  6
AUSGEZOGEN
 10
304.99
 20
816.49
 30
0
 11
313.36
 21
821.99
 31
0
  0
LINE
  5
21C
100
AcDbEntity
  8
200
100
AcDbLine
370
-1
  6
AUSGEZOGEN
 10
246.53
 20
821.99
 30
0
 11
254.85
 21
816.49
 31
0
  0
LINE
  5
21D
100
AcDbEntity
  8
200
100
AcDbLine
370
-1
  6
AUSGEZOGEN
 10
221.7
 20
816.49
 30
0
 11
230.08
 21
821.99
 31
0
  0
LINE
  5
21E
100
AcDbEntity
  8
200
100
AcDbLine
370
-1
  6
AUSGEZOGEN
 10
163.25
 20
821.99
 30
0
 11
171.63
 21
816.49
 31
0
  0
LINE
  5
21F
100
AcDbEntity
  8
200
100
AcDbLine
370
-1
  6
AUSGEZOGEN
 10
138.51
 20
816.49
 30
0
 11
146.83
 21
821.99
 31
0
  0
LINE
  5
220
100
AcDbEntity
  8
200
100
AcDbLine
370
-1
  6
AUSGEZOGEN
 10
80
 20
821.99
 30
0
 11
88.34
 21
816.49
 31
0
  0
LINE
  5
221
100
AcDbEntity
  8
200
100
AcDbLine
370
-1
  6
AUSGEZOGEN
 10
971.02
 20
833.08
 30
0
 11
920.9
 21
833.08
 31
0
  0
LINE
  5
222
100
AcDbEntity
  8
200
100
AcDbLine
370
-1
  6
AUSGEZOGEN
 10
920.9
 20
844.11
 30
0
 11
971.02
 21
844.11
 31
0
  0
LINE
  5
223
100
AcDbEntity
  8
200
100
AcDbLine
370
-1
  6
AUSGEZOGEN
 10
979.35
 20
838.6
 30
0
 11
971.02
 21
844.11
 31
0
  0
LINE
  5
224
100
AcDbEntity
  8
200
100
AcDbLine
370
-1
  6
AUSGEZOGEN
 10
912.55
 20
838.6
 30
0
 11
920.9
 21
844.11
 31
0
  0
LINE
  5
225
100
AcDbEntity
  8
200
100
AcDbLine
370
-1
  6
AUSGEZOGEN
 10
887.8
 20
844.11
 30
0
 11
896.12
 21
838.6
 31
0
  0
LINE
  5
226
100
AcDbEntity
  8
200
100
AcDbLine
370
-1
  6
AUSGEZOGEN
 10
829.3
 20
838.6
 30
0
 11
837.66
 21
844.11
 31
0
  0
LINE
  5
227
100
AcDbEntity
  8
200
100
AcDbLine
370
-1
  6
AUSGEZOGEN
 10
804.53
 20
844.11
 30
0
 11
812.88
 21
838.6
 31
0
  0
LINE
  5
228
100
AcDbEntity
  8
200
100
AcDbLine
370
-1
  6
AUSGEZOGEN
 10
746.02
 20
838.6
 30
0
 11
754.38
 21
844.11
 31
0
  0
LINE
  5
229
100
AcDbEntity
  8
200
100
AcDbLine
370
-1
  6
AUSGEZOGEN
 10
721.28
 20
844.11
 30
0
 11
729.61
 21
838.6
 31
0
  0
LINE
  5
22A
100
AcDbEntity
  8
200
100
AcDbLine
370
-1
  6
AUSGEZOGEN
 10
662.81
 20
838.6
 30
0
 11
671.13
 21
844.11
 31
0
  0
LINE
  5
22B
100
AcDbEntity
  8
200
100
AcDbLine
370
-1
  6
AUSGEZOGEN
 10
638
 20
844.11
 30
0
 11
646.35
 21
838.6
 31
0
  0
LINE
  5
22C
100
AcDbEntity
  8
200
100
AcDbLine
370
-1
  6
AUSGEZOGEN
 10
579.55
 20
838.6
 30
0
 11
587.87
 21
844.11
 31
0
  0
LINE
  5
22D
100
AcDbEntity
  8
200
100
AcDbLine
370
-1
  6
AUSGEZOGEN
 10
554.78
 20
844.11
 30
0
 11
563.08
 21
838.6
 31
0
  0
LINE
  5
22E
100
AcDbEntity
  8
200
100
AcDbLine
370
-1
  6
AUSGEZOGEN
 10
496.27
 20
838.6
 30
0
 11
504.65
 21
844.11
 31
0
  0
LINE
  5
22F
100
AcDbEntity
  8
200
100
AcDbLine
370
-1
  6
AUSGEZOGEN
 10
471.52
 20
844.11
 30
0
 11
479.85
 21
838.6
 31
0
  0
LINE
  5
230
100
AcDbEntity
  8
200
100
AcDbLine
370
-1
  6
AUSGEZOGEN
 10
413.01
 20
838.6
 30
0
 11
421.38
 21
844.11
 31
0
  0
LINE
  5
231
100
AcDbEntity
  8
200
100
AcDbLine
370
-1
  6
AUSGEZOGEN
 10
388.26
 20
844.11
 30
0
 11
396.6
 21
838.6
 31
0
  0
LINE
  5
232
100
AcDbEntity
  8
200
100
AcDbLine
370
-1
  6
AUSGEZOGEN
 10
329.75
 20
838.6
 30
0
 11
338.12
 21
844.11
 31
0
  0
LINE
  5
233
100
AcDbEntity
  8
200
100
AcDbLine
370
-1
  6
AUSGEZOGEN
 10
304.99
 20
844.11
 30
0
 11
313.36
 21
838.6
 31
0
  0
LINE
  5
234
100
AcDbEntity
  8
200
100
AcDbLine
370
-1
  6
AUSGEZOGEN
 10
246.53
 20
838.6
 30
0
 11
254.85
 21
844.11
 31
0
  0
LINE
  5
235
100
AcDbEntity
  8
200
100
AcDbLine
370
-1
  6
AUSGEZOGEN
 10
221.7
 20
844.11
 30
0
 11
230.08
 21
838.6
 31
0
  0
LINE
  5
236
100
AcDbEntity
  8
200
100
AcDbLine
370
-1
  6
AUSGEZOGEN
 10
163.25
 20
838.6
 30
0
 11
171.63
 21
844.11
 31
0
  0
LINE
  5
237
100
AcDbEntity
  8
200
100
AcDbLine
370
-1
  6
AUSGEZOGEN
 10
138.51
 20
844.11
 30
0
 11
146.83
 21
838.6
 31
0
  0
LINE
  5
238
100
AcDbEntity
  8
200
100
AcDbLine
370
-1
  6
AUSGEZOGEN
 10
80
 20
838.6
 30
0
 11
88.34
 21
844.11
 31
0
  0
LINE
  5
239
100
AcDbEntity
  8
200
100
AcDbLine
370
-1
  6
AUSGEZOGEN
 10
979.35
 20
838.6
 30
0
 11
971.02
 21
833.08
 31
0
  0
LINE
  5
23A
100
AcDbEntity
  8
200
100
AcDbLine
370
-1
  6
AUSGEZOGEN
 10
912.55
 20
838.6
 30
0
 11
920.9
 21
833.08
 31
0
  0
LINE
  5
23B
100
AcDbEntity
  8
200
100
AcDbLine
370
-1
  6
AUSGEZOGEN
 10
887.8
 20
833.08
 30
0
 11
896.12
 21
838.6
 31
0
  0
LINE
  5
23C
100
AcDbEntity
  8
200
100
AcDbLine
370
-1
  6
AUSGEZOGEN
 10
829.3
 20
838.6
 30
0
 11
837.66
 21
833.08
 31
0
  0
LINE
  5
23D
100
AcDbEntity
  8
200
100
AcDbLine
370
-1
  6
AUSGEZOGEN
 10
804.53
 20
833.08
 30
0
 11
812.88
 21
838.6
 31
0
  0
LINE
  5
23E
100
AcDbEntity
  8
200
100
AcDbLine
370
-1
  6
AUSGEZOGEN
 10
746.02
 20
838.6
 30
0
 11
754.38
 21
833.08
 31
0
  0
LINE
  5
23F
100
AcDbEntity
  8
200
100
AcDbLine
370
-1
  6
AUSGEZOGEN
 10
721.28
 20
833.08
 30
0
 11
729.61
 21
838.6
 31
0
  0
LINE
  5
240
100
AcDbEntity
  8
200
100
AcDbLine
370
-1
  6
AUSGEZOGEN
 10
662.81
 20
838.6
 30
0
 11
671.13
 21
833.08
 31
0
  0
LINE
  5
241
100
AcDbEntity
  8
200
100
AcDbLine
370
-1
  6
AUSGEZOGEN
 10
638
 20
833.08
 30
0
 11
646.35
 21
838.6
 31
0
  0
LINE
  5
242
100
AcDbEntity
  8
200
100
AcDbLine
370
-1
  6
AUSGEZOGEN
 10
579.55
 20
838.6
 30
0
 11
587.87
 21
833.08
 31
0
  0
LINE
  5
243
100
AcDbEntity
  8
200
100
AcDbLine
370
-1
  6
AUSGEZOGEN
 10
554.78
 20
833.08
 30
0
 11
563.08
 21
838.6
 31
0
  0
LINE
  5
244
100
AcDbEntity
  8
200
100
AcDbLine
370
-1
  6
AUSGEZOGEN
 10
496.27
 20
838.6
 30
0
 11
504.65
 21
833.08
 31
0
  0
LINE
  5
245
100
AcDbEntity
  8
200
100
AcDbLine
370
-1
  6
AUSGEZOGEN
 10
471.52
 20
833.08
 30
0
 11
479.85
 21
838.6
 31
0
  0
LINE
  5
246
100
AcDbEntity
  8
200
100
AcDbLine
370
-1
  6
AUSGEZOGEN
 10
413.01
 20
838.6
 30
0
 11
421.38
 21
833.08
 31
0
  0
LINE
  5
247
100
AcDbEntity
  8
200
100
AcDbLine
370
-1
  6
AUSGEZOGEN
 10
388.26
 20
833.08
 30
0
 11
396.6
 21
838.6
 31
0
  0
LINE
  5
248
100
AcDbEntity
  8
200
100
AcDbLine
370
-1
  6
AUSGEZOGEN
 10
329.75
 20
838.6
 30
0
 11
338.12
 21
833.08
 31
0
  0
LINE
  5
249
100
AcDbEntity
  8
200
100
AcDbLine
370
-1
  6
AUSGEZOGEN
 10
304.99
 20
833.08
 30
0
 11
313.36
 21
838.6
 31
0
  0
LINE
  5
24A
100
AcDbEntity
  8
200
100
AcDbLine
370
-1
  6
AUSGEZOGEN
 10
246.53
 20
838.6
 30
0
 11
254.85
 21
833.08
 31
0
  0
LINE
  5
24B
100
AcDbEntity
  8
200
100
AcDbLine
370
-1
  6
AUSGEZOGEN
 10
221.7
 20
833.08
 30
0
 11
230.08
 21
838.6
 31
0
  0
LINE
  5
24C
100
AcDbEntity
  8
200
100
AcDbLine
370
-1
  6
AUSGEZOGEN
 10
163.25
 20
838.6
 30
0
 11
171.63
 21
833.08
 31
0
  0
LINE
  5
24D
100
AcDbEntity
  8
200
100
AcDbLine
370
-1
  6
AUSGEZOGEN
 10
138.51
 20
833.08
 30
0
 11
146.83
 21
838.6
 31
0
  0
LINE
  5
24E
100
AcDbEntity
  8
200
100
AcDbLine
370
-1
  6
AUSGEZOGEN
 10
80
 20
838.6
 30
0
 11
88.34
 21
833.08
 31
0
  0
ATTDEF
  5
250
100
AcDbEntity
  8
0
100
AcDbText
370
-1
 10
0
 20
0
 30
0
 40
1
  1

 50
0
 41
1
 51
0
  7
STANDARD
 71
0
 72
0
 11
0
 21
0
 31
0
100
AcDbAttributeDefinition
  3

  2

 70
0
 74
0
1001
AcDbAttr
1070
0
1070
0
  0
ENDBLK
  5
26D
100
AcDbEntity
  8
0
100
AcDbBlockEnd
  0
BLOCK
  5
256
100
AcDbEntity
  8
400
100
AcDbBlockBegin
  2
INST_BLOCK_00001
 70
2
 10
0
 20
0
 30
0
  3
INST_BLOCK_00001
  1

  0
CIRCLE
  5
20
100
AcDbEntity
  8
400
100
AcDbCircle
370
-1
  6
AUSGEZOGEN
 10
986
 20
75
 30
0
 40
50
  0
LINE
  5
21
100
AcDbEntity
  8
400
100
AcDbLine
370
-1
  6
AUSGEZOGEN
 10
911
 20
75
 30
0
 11
986
 21
75
 31
0
  0
LINE
  5
22
100
AcDbEntity
  8
400
100
AcDbLine
370
-1
  6
AUSGEZOGEN
 10
1061
 20
75
 30
0
 11
986
 21
75
 31
0
  0
LINE
  5
23
100
AcDbEntity
  8
400
100
AcDbLine
370
-1
  6
AUSGEZOGEN
 10
986
 20
0
 30
0
 11
986
 21
75
 31
0
  0
LINE
  5
24
100
AcDbEntity
  8
400
100
AcDbLine
370
-1
  6
AUSGEZOGEN
 10
986
 20
150
 30
0
 11
986
 21
75
 31
0
  0
ATTDEF
  5
255
100
AcDbEntity
  8
0
100
AcDbText
370
-1
 10
0
 20
0
 30
0
 40
1
  1

 50
0
 41
1
 51
0
  7
STANDARD
 71
0
 72
0
 11
0
 21
0
 31
0
100
AcDbAttributeDefinition
  3

  2

 70
0
 74
0
1001
AcDbAttr
1070
0
1070
0
  0
ENDBLK
  5
26E
100
AcDbEntity
  8
0
100
AcDbBlockEnd
  0
ENDSEC
  0
SECTION
  2
ENTITIES
  0
LINE
  5
1C
100
AcDbEntity
  8
400
100
AcDbLine
370
-1
  6
AUSGEZOGEN
 10
986
 20
75
 30
0
 11
2451.5
 21
1071.5
 31
0
  0
LINE
  5
1F
100
AcDbEntity
  8
400
100
AcDbLine
370
-1
  6
AUSGEZOGEN
 10
2973.76
 20
1071.5
 30
0
 11
2451.5
 21
1071.5
 31
0
  0
TEXT
  5
24F
100
AcDbEntity
  8
400
100
AcDbText
370
-1
 10
2465
 20
1085
 30
0
 40
45
  1
EZ: 230V 50Hz 0,18kW
 50
0
 41
0.600000023841858
 51
0
  7
STANDARD
 71
0
 72
0
 11
0
 21
0
 31
0
100
AcDbText
 73
0
  0
INSERT
  5
254
100
AcDbEntity
  8
200
100
AcDbBlockReference
370
-1
  6
BYLAYER
 66
1
  2
GER_BLOCK_00001
 10
0
 20
0
 30
0
 41
1
 42
1
 43
1
  0
ATTRIB
  5
253
100
AcDbEntity
  8
0
100
AcDbText
370
-1
 10
0
 20
0
 30
0
 40
20
  1

 50
0
 41
1
 51
0
  7
STANDARD
 71
0
 72
0
 11
0
 21
0
 31
0
100
AcDbAttribute
  2

 70
0
 74
0
1001
AcDbAttr
1070
0
1070
0
  0
SEQEND
  5
26F
100
AcDbEntity
  8
0
  0
INSERT
  5
259
100
AcDbEntity
  8
400
100
AcDbBlockReference
370
-1
  6
BYLAYER
 66
1
  2
INST_BLOCK_00001
 10
0
 20
0
 30
0
 41
1
 42
1
 43
1
  0
ATTRIB
  5
258
100
AcDbEntity
  8
0
100
AcDbText
370
-1
 10
0
 20
0
 30
0
 40
20
  1

 50
0
 41
1
 51
0
  7
STANDARD
 71
0
 72
0
 11
0
 21
0
 31
0
100
AcDbAttribute
  2

 70
0
 74
0
1001
AcDbAttr
1070
0
1070
0
  0
SEQEND
  5
270
100
AcDbEntity
  8
0
  0
ATTDEF
  5
25A
100
AcDbEntity
  8
550
100
AcDbText
370
-1
 10
10
 20
100
 30
0
 40
30
  1

 50
0
 41
1
 51
0
  7
STANDARD
 71
0
 72
0
 11
0
 21
0
 31
0
100
AcDbAttributeDefinition
  3
KBS-23114201
  2
KBS-23114201
 70
1
 74
0
1001
AcDbAttr
1070
0
1070
0
  0
TEXT
  5
25B
100
AcDbEntity
  8
510
100
AcDbText
370
-1
 10
10
 20
-45
 30
0
 40
30
  1

 50
0
 41
1
 51
0
  7
STANDARD
 71
0
 72
0
 11
0
 21
0
 31
0
100
AcDbText
 73
0
  0
ENDSEC
  0
SECTION
  2
OBJECTS
  0
DICTIONARY
  5
271
100
AcDbDictionary
  3
ACAD_GROUP
350
272
  3
ACAD_MATERIAL
350
273
  3
ACAD_WIPEOUT_VARS
350
274
  3
ACAD_MLINESTYLE
350
275
  3
ACAD_LAYOUT
350
276
  0
DICTIONARY
  5
272
330
271
100
AcDbDictionary
  0
DICTIONARY
  5
273
330
271
100
AcDbDictionary
  0
WIPEOUTVARIABLES
  5
274
330
271
100
AcDbWipeoutVariables
 70
1
  0
DICTIONARY
  5
275
330
271
100
AcDbDictionary
  3
STANDARD
350
277
  0
MLINESTYLE
  5
277
100
AcDbMlineStyle
  2
STANDARD
 70
0
  3

 62
256
 51
90
 52
90
 71
2
 49
0.5
 62
256
  6
ByLayer
 49
-0.5
 62
256
  6
ByLayer
  0
DICTIONARY
  5
276
100
AcDbDictionary
281
1
  3
Model
350
25C
  0
LAYOUT
  5
25C
102
{ACAD_REACTORS
330
276
102
}
330
276
100
AcDbPlotSettings
  1

  2
none_device
  4

  6

 40
0
 41
0
 42
0
 43
0
 44
0
 45
0
 46
0
 47
0
 48
0
 49
0
 70
1712
 72
1
 73
0
 74
5
 75
16
 76
0
 77
0
 78
100
140
0
141
0
142
1
143
1
147
1
148
0
149
0
100
AcDbLayout
  1
Model
 70
1
 71
1
 10
0
 20
0
 11
2973.76
 21
1205
 12
0
 22
0
 32
0
 14
0
 24
0
 34
0
 15
2973.76
 25
1205
 35
0
146
0
 13
0
 23
0
 33
0
 16
1
 26
0
 36
0
 17
0
 27
1
 37
0
 76
0
330
1E
  0
DICTIONARY
  5
278
100
AcDbDictionary
280
1
  3
XINFO
360
279
  0
XRECORD
  5
279
102
{ACAD_REACTORS
330
278
102
}
330
278
100
AcDbXrecord
280
0
310
8F24010003000900
311
60A64BB69566BDE8
  0
ENDSEC
  0
EOF
