999
     Created by SWS GmbH, Paderborn, Germany, www.sws-online.de
999
     and  Soft Gold Ltd. www.cadsofttools.com
999

999
SWS-intern Ausgabemassstab:
999
   0.0500
999

999
SWS-intern Koordinatenwerte 1:1:
999
1
999

  0
SECTION
  2
HEADER
  9
$ACADVER
  1
AC1018
  9
$DWGCODEPAGE
  3
ANSI_1252
  9
$CLAYER
  8
0
  9
$CELTYPE
  6
BYLAYER
  9
$CELTSCALE
 40
1
  9
$CELWEIGHT
370
-1
  9
$DIMALT
 70
0
  9
$DIMALTF
 40
1
  9
$DIMPOST
  1

  9
$DIMAPOST
  1

  9
$DIMSCALE
 40
1
  9
$DIMASZ
 40
0.18
  9
$DIMCLRD
 70
0
  9
$DIMCLRE
 70
0
  9
$DIMCLRT
 70
0
  9
$DIMEXE
 40
0.18
  9
$DIMEXO
 40
0.0625
  9
$DIMGAP
 40
0.0625
  9
$DIMLFAC
 40
1
  9
$DIMDEC
 70
4
  9
$DIMTAD
 70
0
  9
$DIMCEN
 40
0.09
  9
$DIMTIH
 70
1
  9
$DIMTIX
 70
0
  9
$DIMTOH
 70
1
  9
$DIMSE1
 70
0
  9
$DIMSE2
 70
0
  9
$DIMSD1
 70
0
  9
$DIMSD2
 70
0
  9
$DIMLWD
 70
-1
  9
$DIMLWE
 70
-1
  9
$DIMSAH
 70
0
  9
$DIMBLK
  1

  9
$DIMBLK1
  1

  9
$DIMBLK2
  1

  9
$DIMLDRBLK
  1

  9
$DIMSTYLE
  2
STANDARD
  9
$DIMTP
 40
0
  9
$DIMTM
 40
0
  9
$DIMTXT
 40
0.18
  9
$DIMLUNIT
 70
2
  9
$DIMDSEP
 70
46
  9
$DIMTXSTY
  7
STANDARD
  9
$TEXTSIZE
 40
0.18
  9
$TEXTSTYLE
  7
STANDARD
  9
$HANDSEED
  5
0000000000000127
  9
$FILLETRAD
 40
0.5
  9
$INSUNITS
 70
4
  9
$LIMMIN
 10
-106.845
 20
-84.375
  9
$LIMMAX
 10
961.605
 20
759.375
  9
$FILLMODE
 70
1
  9
$LTSCALE
 40
1
  9
$PSLTSCALE
 70
0
  9
$MEASUREMENT
 70
0
  9
$ATTMODE
 70
1
  9
$PDMODE
 70
0
  9
$PDSIZE
 40
0
  9
$TILEMODE
 70
1
  9
$UCSORG
 10
0
 20
0
 30
0
  9
$UCSXDIR
 10
1
 20
0
 30
0
  9
$UCSYDIR
 10
0
 20
1
 30
0
  9
$INSBASE
 10
0
 20
0
 30
0
  9
$XCLIPFRAME
290
1
  9
$DIMASSOC
280
2
  9
$TDCREATE
 40
2459104.65394503
  9
$TDINDWG
 40
1.04166666666667E-7
  9
$TDUPDATE
 40
2459104.65394514
  0
ENDSEC
  0
SECTION
  2
CLASSES
  0
CLASS
  1
IMAGE
  2
AcDbRasterImage
  3
ISM
 90
2175
 91
1
280
0
281
1
  0
CLASS
  1
IMAGEDEF
  2
AcDbRasterImageDef
  3
ISM
 90
0
 91
1
280
0
281
0
  0
CLASS
  1
WIPEOUT
  2
AcDbWipeout
  3
"WipeOut"
 90
2175
 91
1
280
0
281
1
  0
CLASS
  1
WIPEOUTVARIABLES
  2
AcDbWipeoutVariables
  3
"WipeOut"
 90
0
 91
1
280
0
281
0
  0
CLASS
  1
MPOLYGON
  2
AcDbMPolygon
  3
"AcMPolygonObj15"
 90
3071
 91
1
280
0
281
1
  0
ENDSEC
  0
SECTION
  2
TABLES
  0
TABLE
  2
APPID
  5
106
100
AcDbSymbolTable
  0
APPID
  5
107
100
AcDbSymbolTableRecord
100
AcDbRegAppTableRecord
  2
ACAD
 70
0
  0
APPID
  5
12
100
AcDbSymbolTableRecord
100
AcDbRegAppTableRecord
  2
CSTINVENTORY
 70
0
  0
APPID
  5
108
100
AcDbSymbolTableRecord
100
AcDbRegAppTableRecord
  2
AcDbAttr
 70
0
  0
APPID
  5
109
100
AcDbSymbolTableRecord
100
AcDbRegAppTableRecord
  2
PE_URL
 70
0
  0
ENDTAB
  0
TABLE
  2
BLOCK_RECORD
  5
10A
100
AcDbSymbolTable
  0
BLOCK_RECORD
  5
20
100
AcDbSymbolTableRecord
100
AcDbBlockTableRecord
  2
*MODEL_SPACE
  0
BLOCK_RECORD
  5
10B
100
AcDbSymbolTableRecord
100
AcDbBlockTableRecord
  2
*PAPER_SPACE
  0
BLOCK_RECORD
  5
10
100
AcDbSymbolTableRecord
100
AcDbBlockTableRecord
  2
_CLOSEDFILLED
  0
BLOCK_RECORD
  5
F1
100
AcDbSymbolTableRecord
100
AcDbBlockTableRecord
  2
GER_BLOCK_00001
  0
BLOCK_RECORD
  5
F6
100
AcDbSymbolTableRecord
100
AcDbBlockTableRecord
  2
INST_BLOCK_00001
  0
BLOCK_RECORD
  5
FB
100
AcDbSymbolTableRecord
100
AcDbBlockTableRecord
  2
INST_BLOCK_00002
  0
BLOCK_RECORD
  5
100
100
AcDbSymbolTableRecord
100
AcDbBlockTableRecord
  2
INST_BLOCK_00003
  0
ENDTAB
  0
TABLE
  2
STYLE
  5
3
100
AcDbSymbolTable
  0
STYLE
  5
A
100
AcDbSymbolTableRecord
100
AcDbTextStyleTableRecord
  2
STANDARD
 70
0
 40
0
 41
1
 50
0
 71
0
 42
30
  3
TXT.SHX
  4

1001
ACAD
1000
txt
1071
0
  0
ENDTAB
  0
TABLE
  2
LTYPE
  5
1
100
AcDbSymbolTable
  0
LTYPE
  5
9
100
AcDbSymbolTableRecord
100
AcDbLinetypeTableRecord
  2
CONTINUOUS
 70
0
  3

 72
65
 73
0
 40
0
  0
LTYPE
  5
7
100
AcDbSymbolTableRecord
100
AcDbLinetypeTableRecord
  2
BYLAYER
 70
0
  3

 72
65
 73
0
 40
0
  0
LTYPE
  5
8
100
AcDbSymbolTableRecord
100
AcDbLinetypeTableRecord
  2
BYBLOCK
 70
0
  3

 72
65
 73
0
 40
0
  0
LTYPE
  5
13
100
AcDbSymbolTableRecord
100
AcDbLinetypeTableRecord
  2
AUSGEZOGEN
 70
0
  3
.
 72
65
 73
1
 40
0
 49
0
 74
0
  0
LTYPE
  5
14
100
AcDbSymbolTableRecord
100
AcDbLinetypeTableRecord
  2
PUNKTIERT
 70
0
  3
. 
 72
65
 73
2
 40
30
 49
0
 74
0
 49
-30
 74
0
  0
LTYPE
  5
15
100
AcDbSymbolTableRecord
100
AcDbLinetypeTableRecord
  2
GESTRICHELT
 70
0
  3
_ 
 72
65
 73
2
 40
80
 49
50
 74
0
 49
-30
 74
0
  0
LTYPE
  5
16
100
AcDbSymbolTableRecord
100
AcDbLinetypeTableRecord
  2
STRICHPUNKT
 70
0
  3
_ . 
 72
65
 73
4
 40
160
 49
100
 74
0
 49
-30
 74
0
 49
0
 74
0
 49
-30
 74
0
  0
LTYPE
  5
17
100
AcDbSymbolTableRecord
100
AcDbLinetypeTableRecord
  2
GETRENNT
 70
0
  3
_ . . 
 72
65
 73
6
 40
190
 49
100
 74
0
 49
-30
 74
0
 49
0
 74
0
 49
-30
 74
0
 49
0
 74
0
 49
-30
 74
0
  0
ENDTAB
  0
TABLE
  2
LAYER
  5
2
100
AcDbSymbolTable
  0
LAYER
  5
E
100
AcDbSymbolTableRecord
100
AcDbLayerTableRecord
  2
0
 70
0
 62
1
420
16711680
  6
AUSGEZOGEN
290
1
370
-3
390
0
  0
LAYER
  5
18
100
AcDbSymbolTableRecord
100
AcDbLayerTableRecord
  2
550
 70
0
 62
2
420
16776960
  6
AUSGEZOGEN
290
1
370
-3
390
0
  0
LAYER
  5
19
100
AcDbSymbolTableRecord
100
AcDbLayerTableRecord
  2
510
 70
0
 62
2
420
16776960
  6
AUSGEZOGEN
290
1
370
-3
390
0
  0
LAYER
  5
1A
100
AcDbSymbolTableRecord
100
AcDbLayerTableRecord
  2
200
 70
0
 62
7
  6
AUSGEZOGEN
290
1
370
-3
390
0
  0
LAYER
  5
1B
100
AcDbSymbolTableRecord
100
AcDbLayerTableRecord
  2
410
 70
0
 62
4
420
65535
  6
AUSGEZOGEN
290
1
370
-3
390
0
  0
LAYER
  5
1C
100
AcDbSymbolTableRecord
100
AcDbLayerTableRecord
  2
WARMWASSER
 70
0
 62
4
420
65535
  6
AUSGEZOGEN
290
1
370
-3
390
0
  0
LAYER
  5
1D
100
AcDbSymbolTableRecord
100
AcDbLayerTableRecord
  2
420
 70
0
 62
2
420
16776960
  6
AUSGEZOGEN
290
1
370
-3
390
0
  0
ENDTAB
  0
TABLE
  2
VPORT
  5
10C
100
AcDbSymbolTable
  0
VPORT
  5
10E
100
AcDbSymbolTableRecord
100
AcDbViewportTableRecord
  2
*ACTIVE
 70
0
 10
0
 20
0
 11
1
 21
1
 12
427.38
 22
337.5
 32
0
 13
0
 23
0
 14
1
 24
1
 15
1
 25
1
 16
0
 26
0
 36
1
 17
0
 27
0
 37
0
 40
675
 41
1.26631111111111
 42
50
 43
0
 44
0
 50
0
 51
0
 71
0
 72
100
 73
1
 74
1
 75
0
 76
0
 77
0
 78
0
  0
ENDTAB
  0
TABLE
  2
VIEW
  5
10F
100
AcDbSymbolTable
  0
ENDTAB
  0
TABLE
  2
UCS
  5
110
100
AcDbSymbolTable
  0
ENDTAB
  0
TABLE
  2
DIMSTYLE
  5
4
100
AcDbSymbolTable
 70
1
100
AcDbDimStyleTable
 71
0
  0
DIMSTYLE
105
B
100
AcDbSymbolTableRecord
100
AcDbDimStyleTableRecord
  2
STANDARD
 70
0
  3

 40
1
 41
0.18
 42
0.0625
 44
0.18
 47
0
 48
0
 73
1
 74
1
 75
0
 76
0
 77
0
140
0.18
141
0.09
144
1
147
0.0625
173
0
174
0
176
0
177
0
178
0
277
2
278
46
281
0
282
0
271
4
340
A
371
-1
372
-1
  0
ENDTAB
  0
ENDSEC
  0
SECTION
  2
BLOCKS
  0
BLOCK
  5
111
100
AcDbEntity
  8
0
100
AcDbBlockBegin
  2
*MODEL_SPACE
 70
0
 10
0
 20
0
  0
ENDBLK
  5
112
100
AcDbEntity
  8
0
100
AcDbBlockEnd
  0
BLOCK
  5
113
100
AcDbEntity
  8
0
100
AcDbBlockBegin
  2
*PAPER_SPACE
 70
0
 10
0
 20
0
  0
ENDBLK
  5
114
100
AcDbEntity
  8
0
100
AcDbBlockEnd
  0
BLOCK
  5
F
100
AcDbEntity
  8
0
100
AcDbBlockBegin
  2
_CLOSEDFILLED
 70
0
 10
0
 20
0
 30
0
  3
_CLOSEDFILLED
  1

  0
SOLID
  5
C
100
AcDbEntity
  8
0
100
AcDbTrace
370
-2
 62
0
 10
-1
 20
0.166666666666667
 30
0
 11
0
 21
0
 31
0
 12
-1
 22
0.166666666666667
 32
0
 13
-1
 23
-0.166666666666667
 33
0
  0
LINE
  5
D
100
AcDbEntity
  8
0
100
AcDbLine
370
-2
 62
0
 10
-1
 20
0
 30
0
 11
-2
 21
0
 31
0
  0
ENDBLK
  5
115
100
AcDbEntity
  8
0
100
AcDbBlockEnd
  0
BLOCK
  5
F0
100
AcDbEntity
  8
200
100
AcDbBlockBegin
  2
GER_BLOCK_00001
 70
2
 10
0
 20
0
 30
0
  3
GER_BLOCK_00001
  1

  0
LINE
  5
35
100
AcDbEntity
  8
200
100
AcDbLine
370
-1
  6
AUSGEZOGEN
 10
418.83
 20
362.27
 30
0
 11
420
 21
364.3
 31
0
  0
LINE
  5
36
100
AcDbEntity
  8
200
100
AcDbLine
370
-1
  6
AUSGEZOGEN
 10
90.7
 20
544.3
 30
0
 11
109.3
 21
555
 31
0
  0
LINE
  5
37
100
AcDbEntity
  8
200
100
AcDbLine
370
-1
  6
AUSGEZOGEN
 10
80
 20
525.7
 30
0
 11
90.7
 21
544.3
 31
0
  0
LINE
  5
38
100
AcDbEntity
  8
200
100
AcDbLine
370
-1
  6
AUSGEZOGEN
 10
409.3
 20
544.3
 30
0
 11
390.7
 21
555
 31
0
  0
LINE
  5
39
100
AcDbEntity
  8
200
100
AcDbLine
370
-1
  6
AUSGEZOGEN
 10
420
 20
525.7
 30
0
 11
409.3
 21
544.3
 31
0
  0
LINE
  5
3A
100
AcDbEntity
  8
200
100
AcDbLine
370
-1
  6
AUSGEZOGEN
 10
390.7
 20
335
 30
0
 11
407.46
 21
344.64
 31
0
  0
LINE
  5
3B
100
AcDbEntity
  8
200
100
AcDbLine
370
-1
  6
AUSGEZOGEN
 10
0
 20
598
 30
0
 11
500
 21
598
 31
0
  0
LINE
  5
3C
100
AcDbEntity
  8
200
100
AcDbLine
370
-1
  6
AUSGEZOGEN
 10
500
 20
270
 30
0
 11
0
 21
270
 31
0
  0
LINE
  5
3D
100
AcDbEntity
  8
200
100
AcDbLine
370
-1
  6
AUSGEZOGEN
 10
25.4
 20
574.6
 30
0
 11
20
 21
565.4
 31
0
  0
LINE
  5
3E
100
AcDbEntity
  8
200
100
AcDbLine
370
-1
  6
AUSGEZOGEN
 10
34.6
 20
580
 30
0
 11
25.4
 21
574.6
 31
0
  0
LINE
  5
3F
100
AcDbEntity
  8
200
100
AcDbLine
370
-1
  6
AUSGEZOGEN
 10
480
 20
565.4
 30
0
 11
474.6
 21
574.6
 31
0
  0
LINE
  5
40
100
AcDbEntity
  8
200
100
AcDbLine
370
-1
  6
AUSGEZOGEN
 10
465.4
 20
580
 30
0
 11
474.6
 21
574.6
 31
0
  0
LINE
  5
41
100
AcDbEntity
  8
200
100
AcDbLine
370
-1
  6
AUSGEZOGEN
 10
34.6
 20
580
 30
0
 11
465.4
 21
580
 31
0
  0
LINE
  5
42
100
AcDbEntity
  8
200
100
AcDbLine
370
-1
  6
AUSGEZOGEN
 10
474.6
 20
295.4
 30
0
 11
465.4
 21
290
 31
0
  0
LINE
  5
43
100
AcDbEntity
  8
200
100
AcDbLine
370
-1
  6
AUSGEZOGEN
 10
480
 20
304.6
 30
0
 11
474.6
 21
295.4
 31
0
  0
LINE
  5
44
100
AcDbEntity
  8
200
100
AcDbLine
370
-1
  6
AUSGEZOGEN
 10
480
 20
359.83
 30
0
 11
480
 21
304.6
 31
0
  0
LINE
  5
45
100
AcDbEntity
  8
200
100
AcDbLine
370
-1
  6
AUSGEZOGEN
 10
480
 20
565.4
 30
0
 11
480
 21
364.85
 31
0
  0
LINE
  5
46
100
AcDbEntity
  8
200
100
AcDbLine
370
-1
  6
AUSGEZOGEN
 10
25.4
 20
295.4
 30
0
 11
20
 21
304.6
 31
0
  0
LINE
  5
47
100
AcDbEntity
  8
200
100
AcDbLine
370
-1
  6
AUSGEZOGEN
 10
34.6
 20
290
 30
0
 11
25.4
 21
295.4
 31
0
  0
LINE
  5
48
100
AcDbEntity
  8
200
100
AcDbLine
370
-1
  6
AUSGEZOGEN
 10
416.19
 20
290
 30
0
 11
34.6
 21
290
 31
0
  0
LINE
  5
49
100
AcDbEntity
  8
200
100
AcDbLine
370
-1
  6
AUSGEZOGEN
 10
465.4
 20
290
 30
0
 11
417.1
 21
290
 31
0
  0
LINE
  5
4A
100
AcDbEntity
  8
200
100
AcDbLine
370
-1
  6
AUSGEZOGEN
 10
20
 20
565.4
 30
0
 11
20
 21
304.6
 31
0
  0
LINE
  5
4B
100
AcDbEntity
  8
200
100
AcDbLine
370
-1
  6
AUSGEZOGEN
 10
390.7
 20
555
 30
0
 11
109.3
 21
555
 31
0
  0
LINE
  5
4C
100
AcDbEntity
  8
200
100
AcDbLine
370
-1
  6
AUSGEZOGEN
 10
420
 20
364.3
 30
0
 11
420
 21
525.7
 31
0
  0
LINE
  5
4D
100
AcDbEntity
  8
200
100
AcDbLine
370
-1
  6
AUSGEZOGEN
 10
109.3
 20
335
 30
0
 11
390.7
 21
335
 31
0
  0
LINE
  5
4E
100
AcDbEntity
  8
200
100
AcDbLine
370
-1
  6
AUSGEZOGEN
 10
90.7
 20
345.7
 30
0
 11
109.3
 21
335
 31
0
  0
LINE
  5
4F
100
AcDbEntity
  8
200
100
AcDbLine
370
-1
  6
AUSGEZOGEN
 10
80
 20
364.3
 30
0
 11
90.7
 21
345.7
 31
0
  0
LINE
  5
50
100
AcDbEntity
  8
200
100
AcDbLine
370
-1
  6
AUSGEZOGEN
 10
80
 20
525.7
 30
0
 11
80
 21
364.3
 31
0
  0
LINE
  5
51
100
AcDbEntity
  8
200
100
AcDbLine
370
-1
  6
AUSGEZOGEN
 10
447.4
 20
304.7
 30
0
 11
409.7
 21
342.5
 31
0
  0
LINE
  5
52
100
AcDbEntity
  8
200
100
AcDbLine
370
-1
  6
AUSGEZOGEN
 10
424.2
 20
357
 30
0
 11
461.9
 21
319.2
 31
0
  0
LINE
  5
53
100
AcDbEntity
  8
200
100
AcDbLine
370
-1
  6
AUSGEZOGEN
 10
355.7
 20
396.4
 30
0
 11
409.5
 21
342.6
 31
0
  0
LINE
  5
54
100
AcDbEntity
  8
200
100
AcDbLine
370
-1
  6
AUSGEZOGEN
 10
424
 20
357.1
 30
0
 11
370.2
 21
410.9
 31
0
  0
LINE
  5
55
100
AcDbEntity
  8
200
100
AcDbLine
370
-1
  6
AUSGEZOGEN
 10
323.2
 20
428.9
 30
0
 11
355.7
 21
396.4
 31
0
  0
LINE
  5
56
100
AcDbEntity
  8
200
100
AcDbLine
370
-1
  6
AUSGEZOGEN
 10
370.2
 20
411
 30
0
 11
337.7
 21
443.4
 31
0
  0
LINE
  5
57
100
AcDbEntity
  8
200
100
AcDbLine
370
-1
  6
AUSGEZOGEN
 10
300.1
 20
452
 30
0
 11
323.1
 21
429
 31
0
  0
LINE
  5
58
100
AcDbEntity
  8
200
100
AcDbLine
370
-1
  6
AUSGEZOGEN
 10
337.6
 20
443.5
 30
0
 11
314.7
 21
466.5
 31
0
  0
LINE
  5
59
100
AcDbEntity
  8
200
100
AcDbLine
370
-1
  6
AUSGEZOGEN
 10
429.06
 20
300.97
 30
0
 11
428.27
 21
302.56
 31
0
  0
LINE
  5
5A
100
AcDbEntity
  8
200
100
AcDbLine
370
-1
  6
AUSGEZOGEN
 10
434.8
 20
299.3
 30
0
 11
427.85
 21
297.24
 31
0
  0
LINE
  5
5B
100
AcDbEntity
  8
200
100
AcDbLine
370
-1
  6
AUSGEZOGEN
 10
428.14
 20
310.26
 30
0
 11
431.3
 21
311.3
 31
0
  0
LINE
  5
5C
100
AcDbEntity
  8
200
100
AcDbLine
370
-1
  6
AUSGEZOGEN
 10
473
 20
371.4
 30
0
 11
467.4
 21
371.4
 31
0
  0
LINE
  5
5D
100
AcDbEntity
  8
200
100
AcDbLine
370
-1
  6
AUSGEZOGEN
 10
463.1
 20
357.2
 30
0
 11
473
 21
371.4
 31
0
  0
LINE
  5
5E
100
AcDbEntity
  8
200
100
AcDbLine
370
-1
  6
AUSGEZOGEN
 10
480.8
 20
367.8
 30
0
 11
476.6
 21
352.3
 31
0
  0
LINE
  5
5F
100
AcDbEntity
  8
200
100
AcDbLine
370
-1
  6
AUSGEZOGEN
 10
483.6
 20
367.8
 30
0
 11
480.8
 21
367.8
 31
0
  0
LINE
  5
60
100
AcDbEntity
  8
200
100
AcDbLine
370
-1
  6
AUSGEZOGEN
 10
469.5
 20
341
 30
0
 11
479.4
 21
346.6
 31
0
  0
LINE
  5
61
100
AcDbEntity
  8
200
100
AcDbLine
370
-1
  6
AUSGEZOGEN
 10
468.1
 20
341
 30
0
 11
469.5
 21
341
 31
0
  0
LINE
  5
62
100
AcDbEntity
  8
200
100
AcDbLine
370
-1
  6
AUSGEZOGEN
 10
461.7
 20
343.1
 30
0
 11
468.1
 21
341
 31
0
  0
LINE
  5
63
100
AcDbEntity
  8
200
100
AcDbLine
370
-1
  6
AUSGEZOGEN
 10
457.5
 20
354.4
 30
0
 11
461.7
 21
343.1
 31
0
  0
LINE
  5
64
100
AcDbEntity
  8
200
100
AcDbLine
370
-1
  6
AUSGEZOGEN
 10
461.7
 20
357.2
 30
0
 11
457.5
 21
354.4
 31
0
  0
LINE
  5
65
100
AcDbEntity
  8
200
100
AcDbLine
370
-1
  6
AUSGEZOGEN
 10
477.3
 20
351.6
 30
0
 11
461.7
 21
357.2
 31
0
  0
LINE
  5
66
100
AcDbEntity
  8
200
100
AcDbLine
370
-1
  6
AUSGEZOGEN
 10
479.4
 20
348.1
 30
0
 11
477.3
 21
351.6
 31
0
  0
LINE
  5
67
100
AcDbEntity
  8
200
100
AcDbLine
370
-1
  6
AUSGEZOGEN
 10
479.4
 20
346.6
 30
0
 11
479.4
 21
348.1
 31
0
  0
LINE
  5
68
100
AcDbEntity
  8
200
100
AcDbLine
370
-1
  6
AUSGEZOGEN
 10
464.6
 20
340.3
 30
0
 11
466
 21
340.3
 31
0
  0
LINE
  5
69
100
AcDbEntity
  8
200
100
AcDbLine
370
-1
  6
AUSGEZOGEN
 10
461.7
 20
338.9
 30
0
 11
464.6
 21
340.3
 31
0
  0
LINE
  5
6A
100
AcDbEntity
  8
200
100
AcDbLine
370
-1
  6
AUSGEZOGEN
 10
461
 20
338.1
 30
0
 11
461.7
 21
338.9
 31
0
  0
LINE
  5
6B
100
AcDbEntity
  8
200
100
AcDbLine
370
-1
  6
AUSGEZOGEN
 10
461.35
 20
344.03
 30
0
 11
460.3
 21
340.3
 31
0
  0
LINE
  5
6C
100
AcDbEntity
  8
200
100
AcDbLine
370
-1
  6
AUSGEZOGEN
 10
470.2
 20
337.4
 30
0
 11
466
 21
340.3
 31
0
  0
LINE
  5
6D
100
AcDbEntity
  8
200
100
AcDbLine
370
-1
  6
AUSGEZOGEN
 10
469.5
 20
336.7
 30
0
 11
470.2
 21
337.4
 31
0
  0
LINE
  5
6E
100
AcDbEntity
  8
200
100
AcDbLine
370
-1
  6
AUSGEZOGEN
 10
417.2
 20
290.1
 30
0
 11
425
 21
292.2
 31
0
  0
LINE
  5
6F
100
AcDbEntity
  8
200
100
AcDbLine
370
-1
  6
AUSGEZOGEN
 10
420
 20
294.3
 30
0
 11
417.2
 21
290.1
 31
0
  0
LINE
  5
70
100
AcDbEntity
  8
200
100
AcDbLine
370
-1
  6
AUSGEZOGEN
 10
430.6
 20
302.1
 30
0
 11
420
 21
294.3
 31
0
  0
LINE
  5
71
100
AcDbEntity
  8
200
100
AcDbLine
370
-1
  6
AUSGEZOGEN
 10
425
 20
292.2
 30
0
 11
430.6
 21
302.1
 31
0
  0
LINE
  5
72
100
AcDbEntity
  8
200
100
AcDbLine
370
-1
  6
AUSGEZOGEN
 10
413.6
 20
302.1
 30
0
 11
416.5
 21
297.8
 31
0
  0
LINE
  5
73
100
AcDbEntity
  8
200
100
AcDbLine
370
-1
  6
AUSGEZOGEN
 10
428.5
 20
309.9
 30
0
 11
427.8
 21
310.6
 31
0
  0
LINE
  5
74
100
AcDbEntity
  8
200
100
AcDbLine
370
-1
  6
AUSGEZOGEN
 10
430.6
 20
303.5
 30
0
 11
428.5
 21
309.9
 31
0
  0
LINE
  5
75
100
AcDbEntity
  8
200
100
AcDbLine
370
-1
  6
AUSGEZOGEN
 10
412.9
 20
305.6
 30
0
 11
413.6
 21
302.1
 31
0
  0
LINE
  5
76
100
AcDbEntity
  8
200
100
AcDbLine
370
-1
  6
AUSGEZOGEN
 10
427.8
 20
310.6
 30
0
 11
412.9
 21
305.6
 31
0
  0
LINE
  5
77
100
AcDbEntity
  8
200
100
AcDbLine
370
-1
  6
AUSGEZOGEN
 10
405.9
 20
308.5
 30
0
 11
417.2
 21
312.7
 31
0
  0
LINE
  5
78
100
AcDbEntity
  8
200
100
AcDbLine
370
-1
  6
AUSGEZOGEN
 10
403
 20
308.5
 30
0
 11
405.9
 21
308.5
 31
0
  0
LINE
  5
79
100
AcDbEntity
  8
200
100
AcDbLine
370
-1
  6
AUSGEZOGEN
 10
417.2
 20
312.7
 30
0
 11
403
 21
308.5
 31
0
  0
LINE
  5
7A
100
AcDbEntity
  8
200
100
AcDbLine
370
-1
  6
AUSGEZOGEN
 10
414.3
 20
287.2
 30
0
 11
417.2
 21
291.5
 31
0
  0
LINE
  5
7B
100
AcDbEntity
  8
200
100
AcDbLine
370
-1
  6
AUSGEZOGEN
 10
417.2
 20
290.1
 30
0
 11
414.3
 21
287.2
 31
0
  0
LINE
  5
7C
100
AcDbEntity
  8
200
100
AcDbLine
370
-1
  6
AUSGEZOGEN
 10
322.4
 20
466.3
 30
0
 11
324.4
 21
457.3
 31
0
  0
LINE
  5
7D
100
AcDbEntity
  8
200
100
AcDbLine
370
-1
  6
AUSGEZOGEN
 10
324.3
 20
456.86
 30
0
 11
324.4
 21
457.3
 31
0
  0
LINE
  5
7E
100
AcDbEntity
  8
200
100
AcDbLine
370
-1
  6
AUSGEZOGEN
 10
309.4
 20
442.3
 30
0
 11
309.73
 21
442.37
 31
0
  0
LINE
  5
7F
100
AcDbEntity
  8
200
100
AcDbLine
370
-1
  6
AUSGEZOGEN
 10
300.4
 20
444.3
 30
0
 11
309.4
 21
442.3
 31
0
  0
LINE
  5
80
100
AcDbEntity
  8
200
100
AcDbLine
370
-1
  6
AUSGEZOGEN
 10
297.4
 20
448.3
 30
0
 11
300.4
 21
444.3
 31
0
  0
LINE
  5
81
100
AcDbEntity
  8
200
100
AcDbLine
370
-1
  6
AUSGEZOGEN
 10
295.4
 20
457.3
 30
0
 11
297.4
 21
448.3
 31
0
  0
LINE
  5
82
100
AcDbEntity
  8
200
100
AcDbLine
370
-1
  6
AUSGEZOGEN
 10
297.4
 20
466.3
 30
0
 11
295.4
 21
457.3
 31
0
  0
LINE
  5
83
100
AcDbEntity
  8
200
100
AcDbLine
370
-1
  6
AUSGEZOGEN
 10
300.4
 20
469.3
 30
0
 11
297.4
 21
466.3
 31
0
  0
LINE
  5
84
100
AcDbEntity
  8
200
100
AcDbLine
370
-1
  6
AUSGEZOGEN
 10
309.4
 20
471.3
 30
0
 11
300.4
 21
469.3
 31
0
  0
LINE
  5
85
100
AcDbEntity
  8
200
100
AcDbLine
370
-1
  6
AUSGEZOGEN
 10
318.4
 20
469.3
 30
0
 11
309.4
 21
471.3
 31
0
  0
LINE
  5
86
100
AcDbEntity
  8
200
100
AcDbLine
370
-1
  6
AUSGEZOGEN
 10
322.4
 20
466.3
 30
0
 11
318.4
 21
469.3
 31
0
  0
LINE
  5
87
100
AcDbEntity
  8
200
100
AcDbLine
370
-1
  6
AUSGEZOGEN
 10
465.4
 20
315.3
 30
0
 11
463.4
 21
323.3
 31
0
  0
LINE
  5
88
100
AcDbEntity
  8
200
100
AcDbLine
370
-1
  6
AUSGEZOGEN
 10
463.4
 20
307.3
 30
0
 11
465.4
 21
315.3
 31
0
  0
LINE
  5
89
100
AcDbEntity
  8
200
100
AcDbLine
370
-1
  6
AUSGEZOGEN
 10
460.4
 20
305.3
 30
0
 11
463.4
 21
307.3
 31
0
  0
LINE
  5
8A
100
AcDbEntity
  8
200
100
AcDbLine
370
-1
  6
AUSGEZOGEN
 10
452.4
 20
302.3
 30
0
 11
460.4
 21
305.3
 31
0
  0
LINE
  5
8B
100
AcDbEntity
  8
200
100
AcDbLine
370
-1
  6
AUSGEZOGEN
 10
444.4
 20
305.3
 30
0
 11
452.4
 21
302.3
 31
0
  0
LINE
  5
8C
100
AcDbEntity
  8
200
100
AcDbLine
370
-1
  6
AUSGEZOGEN
 10
442.4
 20
307.3
 30
0
 11
444.4
 21
305.3
 31
0
  0
LINE
  5
8D
100
AcDbEntity
  8
200
100
AcDbLine
370
-1
  6
AUSGEZOGEN
 10
440.95
 20
311.17
 30
0
 11
442.4
 21
307.3
 31
0
  0
LINE
  5
8E
100
AcDbEntity
  8
200
100
AcDbLine
370
-1
  6
AUSGEZOGEN
 10
460.4
 20
326.3
 30
0
 11
452.96
 21
328.16
 31
0
  0
LINE
  5
8F
100
AcDbEntity
  8
200
100
AcDbLine
370
-1
  6
AUSGEZOGEN
 10
463.4
 20
323.3
 30
0
 11
460.4
 21
326.3
 31
0
  0
LINE
  5
90
100
AcDbEntity
  8
200
100
AcDbLine
370
-1
  6
AUSGEZOGEN
 10
60.7
 20
60.7
 30
0
 11
79.3
 21
50
 31
0
  0
LINE
  5
91
100
AcDbEntity
  8
200
100
AcDbLine
370
-1
  6
AUSGEZOGEN
 10
450
 20
79.3
 30
0
 11
439.3
 21
60.7
 31
0
  0
LINE
  5
92
100
AcDbEntity
  8
200
100
AcDbLine
370
-1
  6
AUSGEZOGEN
 10
420.7
 20
50
 30
0
 11
439.3
 21
60.7
 31
0
  0
LINE
  5
93
100
AcDbEntity
  8
200
100
AcDbLine
370
-1
  6
AUSGEZOGEN
 10
50
 20
79.3
 30
0
 11
60.7
 21
60.7
 31
0
  0
LINE
  5
94
100
AcDbEntity
  8
200
100
AcDbLine
370
-1
  6
AUSGEZOGEN
 10
500
 20
600
 30
0
 11
0
 21
600
 31
0
  0
LINE
  5
95
100
AcDbEntity
  8
200
100
AcDbLine
370
-1
  6
AUSGEZOGEN
 10
500
 20
0
 30
0
 11
500
 21
600
 31
0
  0
LINE
  5
96
100
AcDbEntity
  8
200
100
AcDbLine
370
-1
  6
AUSGEZOGEN
 10
0
 20
0
 30
0
 11
500
 21
0
 31
0
  0
LINE
  5
97
100
AcDbEntity
  8
200
100
AcDbLine
370
-1
  6
AUSGEZOGEN
 10
0
 20
600
 30
0
 11
0
 21
0
 31
0
  0
LINE
  5
98
100
AcDbEntity
  8
200
100
AcDbLine
370
-1
  6
AUSGEZOGEN
 10
474.6
 20
25.4
 30
0
 11
465.4
 21
20
 31
0
  0
LINE
  5
99
100
AcDbEntity
  8
200
100
AcDbLine
370
-1
  6
AUSGEZOGEN
 10
480
 20
34.6
 30
0
 11
474.6
 21
25.4
 31
0
  0
LINE
  5
9A
100
AcDbEntity
  8
200
100
AcDbLine
370
-1
  6
AUSGEZOGEN
 10
480
 20
270
 30
0
 11
480
 21
34.6
 31
0
  0
LINE
  5
9B
100
AcDbEntity
  8
200
100
AcDbLine
370
-1
  6
AUSGEZOGEN
 10
25.4
 20
25.4
 30
0
 11
20
 21
34.6
 31
0
  0
LINE
  5
9C
100
AcDbEntity
  8
200
100
AcDbLine
370
-1
  6
AUSGEZOGEN
 10
34.6
 20
20
 30
0
 11
25.4
 21
25.4
 31
0
  0
LINE
  5
9D
100
AcDbEntity
  8
200
100
AcDbLine
370
-1
  6
AUSGEZOGEN
 10
465.4
 20
20
 30
0
 11
34.6
 21
20
 31
0
  0
LINE
  5
9E
100
AcDbEntity
  8
200
100
AcDbLine
370
-1
  6
AUSGEZOGEN
 10
20
 20
270
 30
0
 11
20
 21
34.6
 31
0
  0
LINE
  5
9F
100
AcDbEntity
  8
200
100
AcDbLine
370
-1
  6
AUSGEZOGEN
 10
450
 20
79.3
 30
0
 11
450
 21
270
 31
0
  0
LINE
  5
A0
100
AcDbEntity
  8
200
100
AcDbLine
370
-1
  6
AUSGEZOGEN
 10
446.78
 20
73.69
 30
0
 11
450
 21
83.7
 31
0
  0
LINE
  5
A1
100
AcDbEntity
  8
200
100
AcDbLine
370
-1
  6
AUSGEZOGEN
 10
438.6
 20
61.4
 30
0
 11
443.67
 21
68.29
 31
0
  0
LINE
  5
A2
100
AcDbEntity
  8
200
100
AcDbLine
370
-1
  6
AUSGEZOGEN
 10
431.71
 20
56.33
 30
0
 11
438.6
 21
61.4
 31
0
  0
LINE
  5
A3
100
AcDbEntity
  8
200
100
AcDbLine
370
-1
  6
AUSGEZOGEN
 10
416.3
 20
50
 30
0
 11
426.31
 21
53.22
 31
0
  0
LINE
  5
A4
100
AcDbEntity
  8
200
100
AcDbLine
370
-1
  6
AUSGEZOGEN
 10
79.3
 20
50
 30
0
 11
420.7
 21
50
 31
0
  0
LINE
  5
A5
100
AcDbEntity
  8
200
100
AcDbLine
370
-1
  6
AUSGEZOGEN
 10
73.69
 20
53.22
 30
0
 11
83.7
 21
50
 31
0
  0
LINE
  5
A6
100
AcDbEntity
  8
200
100
AcDbLine
370
-1
  6
AUSGEZOGEN
 10
61.4
 20
61.4
 30
0
 11
68.29
 21
56.33
 31
0
  0
LINE
  5
A7
100
AcDbEntity
  8
200
100
AcDbLine
370
-1
  6
AUSGEZOGEN
 10
56.33
 20
68.29
 30
0
 11
61.4
 21
61.4
 31
0
  0
LINE
  5
A8
100
AcDbEntity
  8
200
100
AcDbLine
370
-1
  6
AUSGEZOGEN
 10
50
 20
83.7
 30
0
 11
53.22
 21
73.69
 31
0
  0
CIRCLE
  5
A9
100
AcDbEntity
  8
200
100
AcDbCircle
370
-1
  6
AUSGEZOGEN
 10
99
 20
106
 30
0
 40
20
  0
CIRCLE
  5
AA
100
AcDbEntity
  8
200
100
AcDbCircle
370
-1
  6
AUSGEZOGEN
 10
159
 20
106
 30
0
 40
20
  0
CIRCLE
  5
AB
100
AcDbEntity
  8
200
100
AcDbCircle
370
-1
  6
AUSGEZOGEN
 10
219
 20
106
 30
0
 40
20
  0
CIRCLE
  5
AC
100
AcDbEntity
  8
200
100
AcDbCircle
370
-1
  6
AUSGEZOGEN
 10
279
 20
106
 30
0
 40
20
  0
CIRCLE
  5
AD
100
AcDbEntity
  8
200
100
AcDbCircle
370
-1
  6
AUSGEZOGEN
 10
339
 20
106
 30
0
 40
20
  0
CIRCLE
  5
AE
100
AcDbEntity
  8
200
100
AcDbCircle
370
-1
  6
AUSGEZOGEN
 10
399
 20
106
 30
0
 40
20
  0
CIRCLE
  5
AF
100
AcDbEntity
  8
200
100
AcDbCircle
370
-1
  6
AUSGEZOGEN
 10
99
 20
166
 30
0
 40
20
  0
CIRCLE
  5
B0
100
AcDbEntity
  8
200
100
AcDbCircle
370
-1
  6
AUSGEZOGEN
 10
159
 20
166
 30
0
 40
20
  0
CIRCLE
  5
B1
100
AcDbEntity
  8
200
100
AcDbCircle
370
-1
  6
AUSGEZOGEN
 10
219
 20
166
 30
0
 40
20
  0
CIRCLE
  5
B2
100
AcDbEntity
  8
200
100
AcDbCircle
370
-1
  6
AUSGEZOGEN
 10
279
 20
166
 30
0
 40
20
  0
CIRCLE
  5
B3
100
AcDbEntity
  8
200
100
AcDbCircle
370
-1
  6
AUSGEZOGEN
 10
339
 20
166
 30
0
 40
20
  0
CIRCLE
  5
B4
100
AcDbEntity
  8
200
100
AcDbCircle
370
-1
  6
AUSGEZOGEN
 10
399
 20
166
 30
0
 40
20
  0
CIRCLE
  5
B5
100
AcDbEntity
  8
200
100
AcDbCircle
370
-1
  6
AUSGEZOGEN
 10
99
 20
226
 30
0
 40
20
  0
CIRCLE
  5
B6
100
AcDbEntity
  8
200
100
AcDbCircle
370
-1
  6
AUSGEZOGEN
 10
159
 20
226
 30
0
 40
20
  0
CIRCLE
  5
B7
100
AcDbEntity
  8
200
100
AcDbCircle
370
-1
  6
AUSGEZOGEN
 10
219
 20
226
 30
0
 40
20
  0
CIRCLE
  5
B8
100
AcDbEntity
  8
200
100
AcDbCircle
370
-1
  6
AUSGEZOGEN
 10
279
 20
226
 30
0
 40
20
  0
CIRCLE
  5
B9
100
AcDbEntity
  8
200
100
AcDbCircle
370
-1
  6
AUSGEZOGEN
 10
339
 20
226
 30
0
 40
20
  0
CIRCLE
  5
BA
100
AcDbEntity
  8
200
100
AcDbCircle
370
-1
  6
AUSGEZOGEN
 10
399
 20
226
 30
0
 40
20
  0
LINE
  5
BB
100
AcDbEntity
  8
200
100
AcDbLine
370
-1
  6
AUSGEZOGEN
 10
87.12
 20
270
 30
0
 11
89
 21
268.7
 31
0
  0
LINE
  5
BC
100
AcDbEntity
  8
200
100
AcDbLine
370
-1
  6
AUSGEZOGEN
 10
92.2
 20
267.2
 30
0
 11
89
 21
268.7
 31
0
  0
LINE
  5
BD
100
AcDbEntity
  8
200
100
AcDbLine
370
-1
  6
AUSGEZOGEN
 10
95.5
 20
266.3
 30
0
 11
92.2
 21
267.2
 31
0
  0
LINE
  5
BE
100
AcDbEntity
  8
200
100
AcDbLine
370
-1
  6
AUSGEZOGEN
 10
99
 20
266
 30
0
 11
95.5
 21
266.3
 31
0
  0
LINE
  5
BF
100
AcDbEntity
  8
200
100
AcDbLine
370
-1
  6
AUSGEZOGEN
 10
102.5
 20
266.3
 30
0
 11
99
 21
266
 31
0
  0
LINE
  5
C0
100
AcDbEntity
  8
200
100
AcDbLine
370
-1
  6
AUSGEZOGEN
 10
105.8
 20
267.2
 30
0
 11
102.5
 21
266.3
 31
0
  0
LINE
  5
C1
100
AcDbEntity
  8
200
100
AcDbLine
370
-1
  6
AUSGEZOGEN
 10
109
 20
268.7
 30
0
 11
105.8
 21
267.2
 31
0
  0
LINE
  5
C2
100
AcDbEntity
  8
200
100
AcDbLine
370
-1
  6
AUSGEZOGEN
 10
110.88
 20
270
 30
0
 11
109
 21
268.7
 31
0
  0
LINE
  5
C3
100
AcDbEntity
  8
200
100
AcDbLine
370
-1
  6
AUSGEZOGEN
 10
149
 20
268.7
 30
0
 11
147.12
 21
270
 31
0
  0
LINE
  5
C4
100
AcDbEntity
  8
200
100
AcDbLine
370
-1
  6
AUSGEZOGEN
 10
152.2
 20
267.2
 30
0
 11
149
 21
268.7
 31
0
  0
LINE
  5
C5
100
AcDbEntity
  8
200
100
AcDbLine
370
-1
  6
AUSGEZOGEN
 10
155.5
 20
266.3
 30
0
 11
152.2
 21
267.2
 31
0
  0
LINE
  5
C6
100
AcDbEntity
  8
200
100
AcDbLine
370
-1
  6
AUSGEZOGEN
 10
159
 20
266
 30
0
 11
155.5
 21
266.3
 31
0
  0
LINE
  5
C7
100
AcDbEntity
  8
200
100
AcDbLine
370
-1
  6
AUSGEZOGEN
 10
162.5
 20
266.3
 30
0
 11
159
 21
266
 31
0
  0
LINE
  5
C8
100
AcDbEntity
  8
200
100
AcDbLine
370
-1
  6
AUSGEZOGEN
 10
165.8
 20
267.2
 30
0
 11
162.5
 21
266.3
 31
0
  0
LINE
  5
C9
100
AcDbEntity
  8
200
100
AcDbLine
370
-1
  6
AUSGEZOGEN
 10
169
 20
268.7
 30
0
 11
165.8
 21
267.2
 31
0
  0
LINE
  5
CA
100
AcDbEntity
  8
200
100
AcDbLine
370
-1
  6
AUSGEZOGEN
 10
170.82
 20
270
 30
0
 11
169
 21
268.7
 31
0
  0
LINE
  5
CB
100
AcDbEntity
  8
200
100
AcDbLine
370
-1
  6
AUSGEZOGEN
 10
209
 20
268.7
 30
0
 11
207.18
 21
270
 31
0
  0
LINE
  5
CC
100
AcDbEntity
  8
200
100
AcDbLine
370
-1
  6
AUSGEZOGEN
 10
212.2
 20
267.2
 30
0
 11
209
 21
268.7
 31
0
  0
LINE
  5
CD
100
AcDbEntity
  8
200
100
AcDbLine
370
-1
  6
AUSGEZOGEN
 10
215.5
 20
266.3
 30
0
 11
212.2
 21
267.2
 31
0
  0
LINE
  5
CE
100
AcDbEntity
  8
200
100
AcDbLine
370
-1
  6
AUSGEZOGEN
 10
219
 20
266
 30
0
 11
215.5
 21
266.3
 31
0
  0
LINE
  5
CF
100
AcDbEntity
  8
200
100
AcDbLine
370
-1
  6
AUSGEZOGEN
 10
222.5
 20
266.3
 30
0
 11
219
 21
266
 31
0
  0
LINE
  5
D0
100
AcDbEntity
  8
200
100
AcDbLine
370
-1
  6
AUSGEZOGEN
 10
225.8
 20
267.2
 30
0
 11
222.5
 21
266.3
 31
0
  0
LINE
  5
D1
100
AcDbEntity
  8
200
100
AcDbLine
370
-1
  6
AUSGEZOGEN
 10
229
 20
268.7
 30
0
 11
225.8
 21
267.2
 31
0
  0
LINE
  5
D2
100
AcDbEntity
  8
200
100
AcDbLine
370
-1
  6
AUSGEZOGEN
 10
230.88
 20
270
 30
0
 11
229
 21
268.7
 31
0
  0
LINE
  5
D3
100
AcDbEntity
  8
200
100
AcDbLine
370
-1
  6
AUSGEZOGEN
 10
269
 20
268.7
 30
0
 11
267.12
 21
270
 31
0
  0
LINE
  5
D4
100
AcDbEntity
  8
200
100
AcDbLine
370
-1
  6
AUSGEZOGEN
 10
272.2
 20
267.2
 30
0
 11
269
 21
268.7
 31
0
  0
LINE
  5
D5
100
AcDbEntity
  8
200
100
AcDbLine
370
-1
  6
AUSGEZOGEN
 10
275.5
 20
266.3
 30
0
 11
272.2
 21
267.2
 31
0
  0
LINE
  5
D6
100
AcDbEntity
  8
200
100
AcDbLine
370
-1
  6
AUSGEZOGEN
 10
279
 20
266
 30
0
 11
275.5
 21
266.3
 31
0
  0
LINE
  5
D7
100
AcDbEntity
  8
200
100
AcDbLine
370
-1
  6
AUSGEZOGEN
 10
282.5
 20
266.3
 30
0
 11
279
 21
266
 31
0
  0
LINE
  5
D8
100
AcDbEntity
  8
200
100
AcDbLine
370
-1
  6
AUSGEZOGEN
 10
285.8
 20
267.2
 30
0
 11
282.5
 21
266.3
 31
0
  0
LINE
  5
D9
100
AcDbEntity
  8
200
100
AcDbLine
370
-1
  6
AUSGEZOGEN
 10
289
 20
268.7
 30
0
 11
285.8
 21
267.2
 31
0
  0
LINE
  5
DA
100
AcDbEntity
  8
200
100
AcDbLine
370
-1
  6
AUSGEZOGEN
 10
290.88
 20
270
 30
0
 11
289
 21
268.7
 31
0
  0
LINE
  5
DB
100
AcDbEntity
  8
200
100
AcDbLine
370
-1
  6
AUSGEZOGEN
 10
329
 20
268.7
 30
0
 11
327.12
 21
270
 31
0
  0
LINE
  5
DC
100
AcDbEntity
  8
200
100
AcDbLine
370
-1
  6
AUSGEZOGEN
 10
332.2
 20
267.2
 30
0
 11
329
 21
268.7
 31
0
  0
LINE
  5
DD
100
AcDbEntity
  8
200
100
AcDbLine
370
-1
  6
AUSGEZOGEN
 10
335.5
 20
266.3
 30
0
 11
332.2
 21
267.2
 31
0
  0
LINE
  5
DE
100
AcDbEntity
  8
200
100
AcDbLine
370
-1
  6
AUSGEZOGEN
 10
339
 20
266
 30
0
 11
335.5
 21
266.3
 31
0
  0
LINE
  5
DF
100
AcDbEntity
  8
200
100
AcDbLine
370
-1
  6
AUSGEZOGEN
 10
342.5
 20
266.3
 30
0
 11
339
 21
266
 31
0
  0
LINE
  5
E0
100
AcDbEntity
  8
200
100
AcDbLine
370
-1
  6
AUSGEZOGEN
 10
345.8
 20
267.2
 30
0
 11
342.5
 21
266.3
 31
0
  0
LINE
  5
E1
100
AcDbEntity
  8
200
100
AcDbLine
370
-1
  6
AUSGEZOGEN
 10
349
 20
268.7
 30
0
 11
345.8
 21
267.2
 31
0
  0
LINE
  5
E2
100
AcDbEntity
  8
200
100
AcDbLine
370
-1
  6
AUSGEZOGEN
 10
350.88
 20
270
 30
0
 11
349
 21
268.7
 31
0
  0
LINE
  5
E3
100
AcDbEntity
  8
200
100
AcDbLine
370
-1
  6
AUSGEZOGEN
 10
389
 20
268.7
 30
0
 11
387.12
 21
270
 31
0
  0
LINE
  5
E4
100
AcDbEntity
  8
200
100
AcDbLine
370
-1
  6
AUSGEZOGEN
 10
392.2
 20
267.2
 30
0
 11
389
 21
268.7
 31
0
  0
LINE
  5
E5
100
AcDbEntity
  8
200
100
AcDbLine
370
-1
  6
AUSGEZOGEN
 10
395.5
 20
266.3
 30
0
 11
392.2
 21
267.2
 31
0
  0
LINE
  5
E6
100
AcDbEntity
  8
200
100
AcDbLine
370
-1
  6
AUSGEZOGEN
 10
399
 20
266
 30
0
 11
395.5
 21
266.3
 31
0
  0
LINE
  5
E7
100
AcDbEntity
  8
200
100
AcDbLine
370
-1
  6
AUSGEZOGEN
 10
402.5
 20
266.3
 30
0
 11
399
 21
266
 31
0
  0
LINE
  5
E8
100
AcDbEntity
  8
200
100
AcDbLine
370
-1
  6
AUSGEZOGEN
 10
405.8
 20
267.2
 30
0
 11
402.5
 21
266.3
 31
0
  0
LINE
  5
E9
100
AcDbEntity
  8
200
100
AcDbLine
370
-1
  6
AUSGEZOGEN
 10
409
 20
268.7
 30
0
 11
405.8
 21
267.2
 31
0
  0
LINE
  5
EA
100
AcDbEntity
  8
200
100
AcDbLine
370
-1
  6
AUSGEZOGEN
 10
410.82
 20
270
 30
0
 11
409
 21
268.7
 31
0
  0
LINE
  5
EB
100
AcDbEntity
  8
200
100
AcDbLine
370
-1
  6
AUSGEZOGEN
 10
50
 20
79.3
 30
0
 11
50
 21
270
 31
0
  0
ATTDEF
  5
EF
100
AcDbEntity
  8
0
100
AcDbText
370
-1
 10
0
 20
0
 30
0
 40
1
  1

 50
0
 41
1
 51
0
  7
STANDARD
 71
0
 72
0
 11
0
 21
0
 31
0
100
AcDbAttributeDefinition
  3

  2

 70
0
 74
0
1001
AcDbAttr
1070
0
1070
0
  0
ENDBLK
  5
116
100
AcDbEntity
  8
0
100
AcDbBlockEnd
  0
BLOCK
  5
F5
100
AcDbEntity
  8
410
100
AcDbBlockBegin
  2
INST_BLOCK_00001
 70
2
 10
0
 20
0
 30
0
  3
INST_BLOCK_00001
  1

  0
CIRCLE
  5
22
100
AcDbEntity
  8
410
100
AcDbCircle
370
-1
  6
AUSGEZOGEN
 10
325
 20
600
 30
0
 40
50
  0
LINE
  5
23
100
AcDbEntity
  8
410
100
AcDbLine
370
-1
  6
AUSGEZOGEN
 10
400
 20
600
 30
0
 11
325
 21
600
 31
0
  0
LINE
  5
24
100
AcDbEntity
  8
410
100
AcDbLine
370
-1
  6
AUSGEZOGEN
 10
250
 20
600
 30
0
 11
325
 21
600
 31
0
  0
LINE
  5
25
100
AcDbEntity
  8
410
100
AcDbLine
370
-1
  6
AUSGEZOGEN
 10
325
 20
675
 30
0
 11
325
 21
600
 31
0
  0
LINE
  5
26
100
AcDbEntity
  8
410
100
AcDbLine
370
-1
  6
AUSGEZOGEN
 10
325
 20
525
 30
0
 11
325
 21
600
 31
0
  0
ATTDEF
  5
F4
100
AcDbEntity
  8
0
100
AcDbText
370
-1
 10
0
 20
0
 30
0
 40
1
  1

 50
0
 41
1
 51
0
  7
STANDARD
 71
0
 72
0
 11
0
 21
0
 31
0
100
AcDbAttributeDefinition
  3

  2

 70
0
 74
0
1001
AcDbAttr
1070
0
1070
0
  0
ENDBLK
  5
117
100
AcDbEntity
  8
0
100
AcDbBlockEnd
  0
BLOCK
  5
FA
100
AcDbEntity
  8
WARMWASSER
100
AcDbBlockBegin
  2
INST_BLOCK_00002
 70
2
 10
0
 20
0
 30
0
  3
INST_BLOCK_00002
  1

  0
CIRCLE
  5
29
100
AcDbEntity
  8
WARMWASSER
100
AcDbCircle
370
-1
  6
AUSGEZOGEN
 10
175
 20
600
 30
0
 40
50
  0
LINE
  5
2A
100
AcDbEntity
  8
WARMWASSER
100
AcDbLine
370
-1
  6
AUSGEZOGEN
 10
250
 20
600
 30
0
 11
175
 21
600
 31
0
  0
LINE
  5
2B
100
AcDbEntity
  8
WARMWASSER
100
AcDbLine
370
-1
  6
AUSGEZOGEN
 10
100
 20
600
 30
0
 11
175
 21
600
 31
0
  0
LINE
  5
2C
100
AcDbEntity
  8
WARMWASSER
100
AcDbLine
370
-1
  6
AUSGEZOGEN
 10
175
 20
675
 30
0
 11
175
 21
600
 31
0
  0
LINE
  5
2D
100
AcDbEntity
  8
WARMWASSER
100
AcDbLine
370
-1
  6
AUSGEZOGEN
 10
175
 20
525
 30
0
 11
175
 21
600
 31
0
  0
ATTDEF
  5
F9
100
AcDbEntity
  8
0
100
AcDbText
370
-1
 10
0
 20
0
 30
0
 40
1
  1

 50
0
 41
1
 51
0
  7
STANDARD
 71
0
 72
0
 11
0
 21
0
 31
0
100
AcDbAttributeDefinition
  3

  2

 70
0
 74
0
1001
AcDbAttr
1070
0
1070
0
  0
ENDBLK
  5
118
100
AcDbEntity
  8
0
100
AcDbBlockEnd
  0
BLOCK
  5
FF
100
AcDbEntity
  8
420
100
AcDbBlockBegin
  2
INST_BLOCK_00003
 70
2
 10
0
 20
0
 30
0
  3
INST_BLOCK_00003
  1

  0
CIRCLE
  5
30
100
AcDbEntity
  8
420
100
AcDbCircle
370
-1
  6
AUSGEZOGEN
 10
250
 20
600
 30
0
 40
50
  0
LINE
  5
31
100
AcDbEntity
  8
420
100
AcDbLine
370
-1
  6
AUSGEZOGEN
 10
325
 20
600
 30
0
 11
250
 21
600
 31
0
  0
LINE
  5
32
100
AcDbEntity
  8
420
100
AcDbLine
370
-1
  6
AUSGEZOGEN
 10
175
 20
600
 30
0
 11
250
 21
600
 31
0
  0
LINE
  5
33
100
AcDbEntity
  8
420
100
AcDbLine
370
-1
  6
AUSGEZOGEN
 10
250
 20
675
 30
0
 11
250
 21
600
 31
0
  0
LINE
  5
34
100
AcDbEntity
  8
420
100
AcDbLine
370
-1
  6
AUSGEZOGEN
 10
250
 20
525
 30
0
 11
250
 21
600
 31
0
  0
ATTDEF
  5
FE
100
AcDbEntity
  8
0
100
AcDbText
370
-1
 10
0
 20
0
 30
0
 40
1
  1

 50
0
 41
1
 51
0
  7
STANDARD
 71
0
 72
0
 11
0
 21
0
 31
0
100
AcDbAttributeDefinition
  3

  2

 70
0
 74
0
1001
AcDbAttr
1070
0
1070
0
  0
ENDBLK
  5
119
100
AcDbEntity
  8
0
100
AcDbBlockEnd
  0
ENDSEC
  0
SECTION
  2
ENTITIES
  0
LINE
  5
1E
100
AcDbEntity
  8
410
100
AcDbLine
370
-1
  6
AUSGEZOGEN
 10
325
 20
600
 30
0
 11
611.5
 21
226.5
 31
0
  0
LINE
  5
21
100
AcDbEntity
  8
410
100
AcDbLine
370
-1
  6
AUSGEZOGEN
 10
854.76
 20
226.5
 30
0
 11
611.5
 21
226.5
 31
0
  0
LINE
  5
27
100
AcDbEntity
  8
WARMWASSER
100
AcDbLine
370
-1
  6
AUSGEZOGEN
 10
175
 20
600
 30
0
 11
611.5
 21
346.5
 31
0
  0
LINE
  5
28
100
AcDbEntity
  8
WARMWASSER
100
AcDbLine
370
-1
  6
AUSGEZOGEN
 10
854.76
 20
346.5
 30
0
 11
611.5
 21
346.5
 31
0
  0
LINE
  5
2E
100
AcDbEntity
  8
420
100
AcDbLine
370
-1
  6
AUSGEZOGEN
 10
250
 20
600
 30
0
 11
611.5
 21
466.5
 31
0
  0
LINE
  5
2F
100
AcDbEntity
  8
420
100
AcDbLine
370
-1
  6
AUSGEZOGEN
 10
795.96
 20
466.5
 30
0
 11
611.5
 21
466.5
 31
0
  0
TEXT
  5
EC
100
AcDbEntity
  8
410
100
AcDbText
370
-1
 10
625
 20
240
 30
0
 40
45
  1
TWk: DN15
 50
0
 41
0.600000023841858
 51
0
  7
STANDARD
 71
0
 72
0
 11
0
 21
0
 31
0
100
AcDbText
 73
0
  0
TEXT
  5
ED
100
AcDbEntity
  8
WARMWASSER
100
AcDbText
370
-1
 10
625
 20
360
 30
0
 40
45
  1
TWw: DN15
 50
0
 41
0.600000023841858
 51
0
  7
STANDARD
 71
0
 72
0
 11
0
 21
0
 31
0
100
AcDbText
 73
0
  0
TEXT
  5
EE
100
AcDbEntity
  8
420
100
AcDbText
370
-1
 10
625
 20
480
 30
0
 40
45
  1
A: DN50
 50
0
 41
0.600000023841858
 51
0
  7
STANDARD
 71
0
 72
0
 11
0
 21
0
 31
0
100
AcDbText
 73
0
  0
INSERT
  5
F3
100
AcDbEntity
  8
200
100
AcDbBlockReference
370
-1
  6
BYLAYER
 66
1
  2
GER_BLOCK_00001
 10
0
 20
0
 30
0
 41
1
 42
1
 43
1
  0
ATTRIB
  5
F2
100
AcDbEntity
  8
0
100
AcDbText
370
-1
 10
0
 20
0
 30
0
 40
20
  1

 50
0
 41
1
 51
0
  7
STANDARD
 71
0
 72
0
 11
0
 21
0
 31
0
100
AcDbAttribute
  2

 70
0
 74
0
1001
AcDbAttr
1070
0
1070
0
  0
SEQEND
  5
11A
100
AcDbEntity
  8
0
  0
INSERT
  5
F8
100
AcDbEntity
  8
410
100
AcDbBlockReference
370
-1
  6
BYLAYER
 66
1
  2
INST_BLOCK_00001
 10
0
 20
0
 30
0
 41
1
 42
1
 43
1
  0
ATTRIB
  5
F7
100
AcDbEntity
  8
0
100
AcDbText
370
-1
 10
0
 20
0
 30
0
 40
20
  1

 50
0
 41
1
 51
0
  7
STANDARD
 71
0
 72
0
 11
0
 21
0
 31
0
100
AcDbAttribute
  2

 70
0
 74
0
1001
AcDbAttr
1070
0
1070
0
  0
SEQEND
  5
11B
100
AcDbEntity
  8
0
  0
INSERT
  5
FD
100
AcDbEntity
  8
WARMWASSER
100
AcDbBlockReference
370
-1
  6
BYLAYER
 66
1
  2
INST_BLOCK_00002
 10
0
 20
0
 30
0
 41
1
 42
1
 43
1
  0
ATTRIB
  5
FC
100
AcDbEntity
  8
0
100
AcDbText
370
-1
 10
0
 20
0
 30
0
 40
20
  1

 50
0
 41
1
 51
0
  7
STANDARD
 71
0
 72
0
 11
0
 21
0
 31
0
100
AcDbAttribute
  2

 70
0
 74
0
1001
AcDbAttr
1070
0
1070
0
  0
SEQEND
  5
11C
100
AcDbEntity
  8
0
  0
INSERT
  5
102
100
AcDbEntity
  8
420
100
AcDbBlockReference
370
-1
  6
BYLAYER
 66
1
  2
INST_BLOCK_00003
 10
0
 20
0
 30
0
 41
1
 42
1
 43
1
  0
ATTRIB
  5
101
100
AcDbEntity
  8
0
100
AcDbText
370
-1
 10
0
 20
0
 30
0
 40
20
  1

 50
0
 41
1
 51
0
  7
STANDARD
 71
0
 72
0
 11
0
 21
0
 31
0
100
AcDbAttribute
  2

 70
0
 74
0
1001
AcDbAttr
1070
0
1070
0
  0
SEQEND
  5
11D
100
AcDbEntity
  8
0
  0
ATTDEF
  5
103
100
AcDbEntity
  8
550
100
AcDbText
370
-1
 10
10
 20
100
 30
0
 40
30
  1

 50
0
 41
1
 51
0
  7
STANDARD
 71
0
 72
0
 11
0
 21
0
 31
0
100
AcDbAttributeDefinition
  3
KBS-21010004
  2
KBS-21010004
 70
1
 74
0
1001
AcDbAttr
1070
0
1070
0
  0
TEXT
  5
104
100
AcDbEntity
  8
510
100
AcDbText
370
-1
 10
10
 20
-45
 30
0
 40
30
  1

 50
0
 41
1
 51
0
  7
STANDARD
 71
0
 72
0
 11
0
 21
0
 31
0
100
AcDbText
 73
0
  0
ENDSEC
  0
SECTION
  2
OBJECTS
  0
DICTIONARY
  5
11E
100
AcDbDictionary
  3
ACAD_GROUP
350
11F
  3
ACAD_MATERIAL
350
120
  3
ACAD_WIPEOUT_VARS
350
121
  3
ACAD_MLINESTYLE
350
122
  3
ACAD_LAYOUT
350
123
  0
DICTIONARY
  5
11F
330
11E
100
AcDbDictionary
  0
DICTIONARY
  5
120
330
11E
100
AcDbDictionary
  0
WIPEOUTVARIABLES
  5
121
330
11E
100
AcDbWipeoutVariables
 70
1
  0
DICTIONARY
  5
122
330
11E
100
AcDbDictionary
  3
STANDARD
350
124
  0
MLINESTYLE
  5
124
100
AcDbMlineStyle
  2
STANDARD
 70
0
  3

 62
256
 51
90
 52
90
 71
2
 49
0.5
 62
256
  6
ByLayer
 49
-0.5
 62
256
  6
ByLayer
  0
DICTIONARY
  5
123
100
AcDbDictionary
281
1
  3
Model
350
105
  0
LAYOUT
  5
105
102
{ACAD_REACTORS
330
123
102
}
330
123
100
AcDbPlotSettings
  1

  2
none_device
  4

  6

 40
0
 41
0
 42
0
 43
0
 44
0
 45
0
 46
0
 47
0
 48
0
 49
0
 70
1712
 72
1
 73
0
 74
5
 75
16
 76
0
 77
0
 78
100
140
0
141
0
142
1
143
1
147
1
148
0
149
0
100
AcDbLayout
  1
Model
 70
1
 71
1
 10
0
 20
0
 11
854.76
 21
675
 12
0
 22
0
 32
0
 14
0
 24
0
 34
0
 15
854.76
 25
675
 35
0
146
0
 13
0
 23
0
 33
0
 16
1
 26
0
 36
0
 17
0
 27
1
 37
0
 76
0
330
20
  0
DICTIONARY
  5
125
100
AcDbDictionary
280
1
  3
XINFO
360
126
  0
XRECORD
  5
126
102
{ACAD_REACTORS
330
125
102
}
330
125
100
AcDbXrecord
280
0
310
8F24010003000900
311
D7F63A57FA4786BE
  0
ENDSEC
  0
EOF
