999
     Created by SWS GmbH, Paderborn, Germany, www.sws-online.de
999
     and  Soft Gold Ltd. www.cadsofttools.com
999

999
SWS-intern Ausgabemassstab:
999
   0.0500
999

999
SWS-intern Koordinatenwerte 1:1:
999
1
999

  0
SECTION
  2
HEADER
  9
$ACADVER
  1
AC1018
  9
$DWGCODEPAGE
  3
ANSI_1252
  9
$CLAYER
  8
0
  9
$CELTYPE
  6
BYLAYER
  9
$CELTSCALE
 40
1
  9
$CELWEIGHT
370
-1
  9
$DIMALT
 70
0
  9
$DIMALTF
 40
1
  9
$DIMPOST
  1

  9
$DIMAPOST
  1

  9
$DIMSCALE
 40
1
  9
$DIMASZ
 40
0.18
  9
$DIMCLRD
 70
0
  9
$DIMCLRE
 70
0
  9
$DIMCLRT
 70
0
  9
$DIMEXE
 40
0.18
  9
$DIMEXO
 40
0.0625
  9
$DIMGAP
 40
0.0625
  9
$DIMLFAC
 40
1
  9
$DIMDEC
 70
4
  9
$DIMTAD
 70
0
  9
$DIMCEN
 40
0.09
  9
$DIMTIH
 70
1
  9
$DIMTIX
 70
0
  9
$DIMTOH
 70
1
  9
$DIMSE1
 70
0
  9
$DIMSE2
 70
0
  9
$DIMSD1
 70
0
  9
$DIMSD2
 70
0
  9
$DIMLWD
 70
-1
  9
$DIMLWE
 70
-1
  9
$DIMSAH
 70
0
  9
$DIMBLK
  1

  9
$DIMBLK1
  1

  9
$DIMBLK2
  1

  9
$DIMLDRBLK
  1

  9
$DIMSTYLE
  2
STANDARD
  9
$DIMTP
 40
0
  9
$DIMTM
 40
0
  9
$DIMTXT
 40
0.18
  9
$DIMLUNIT
 70
2
  9
$DIMDSEP
 70
46
  9
$DIMTXSTY
  7
STANDARD
  9
$TEXTSIZE
 40
0.18
  9
$TEXTSTYLE
  7
STANDARD
  9
$HANDSEED
  5
00000000000000AB
  9
$FILLETRAD
 40
0.5
  9
$INSUNITS
 70
4
  9
$LIMMIN
 10
-91.22
 20
-72.3125
  9
$LIMMAX
 10
820.98
 20
650.8125
  9
$FILLMODE
 70
1
  9
$LTSCALE
 40
1
  9
$PSLTSCALE
 70
0
  9
$MEASUREMENT
 70
0
  9
$ATTMODE
 70
1
  9
$PDMODE
 70
0
  9
$PDSIZE
 40
0
  9
$TILEMODE
 70
1
  9
$UCSORG
 10
0
 20
0
 30
0
  9
$UCSXDIR
 10
1
 20
0
 30
0
  9
$UCSYDIR
 10
0
 20
1
 30
0
  9
$INSBASE
 10
0
 20
0
 30
0
  9
$XCLIPFRAME
290
1
  9
$DIMASSOC
280
2
  9
$TDCREATE
 40
2459104.65393623
  9
$TDINDWG
 40
9.25925925925926E-8
  9
$TDUPDATE
 40
2459104.65393632
  0
ENDSEC
  0
SECTION
  2
CLASSES
  0
CLASS
  1
IMAGE
  2
AcDbRasterImage
  3
ISM
 90
2175
 91
1
280
0
281
1
  0
CLASS
  1
IMAGEDEF
  2
AcDbRasterImageDef
  3
ISM
 90
0
 91
1
280
0
281
0
  0
CLASS
  1
WIPEOUT
  2
AcDbWipeout
  3
"WipeOut"
 90
2175
 91
1
280
0
281
1
  0
CLASS
  1
WIPEOUTVARIABLES
  2
AcDbWipeoutVariables
  3
"WipeOut"
 90
0
 91
1
280
0
281
0
  0
CLASS
  1
MPOLYGON
  2
AcDbMPolygon
  3
"AcMPolygonObj15"
 90
3071
 91
1
280
0
281
1
  0
ENDSEC
  0
SECTION
  2
TABLES
  0
TABLE
  2
APPID
  5
8A
100
AcDbSymbolTable
  0
APPID
  5
8B
100
AcDbSymbolTableRecord
100
AcDbRegAppTableRecord
  2
ACAD
 70
0
  0
APPID
  5
12
100
AcDbSymbolTableRecord
100
AcDbRegAppTableRecord
  2
CSTINVENTORY
 70
0
  0
APPID
  5
8C
100
AcDbSymbolTableRecord
100
AcDbRegAppTableRecord
  2
AcDbAttr
 70
0
  0
APPID
  5
8D
100
AcDbSymbolTableRecord
100
AcDbRegAppTableRecord
  2
PE_URL
 70
0
  0
ENDTAB
  0
TABLE
  2
BLOCK_RECORD
  5
8E
100
AcDbSymbolTable
  0
BLOCK_RECORD
  5
20
100
AcDbSymbolTableRecord
100
AcDbBlockTableRecord
  2
*MODEL_SPACE
  0
BLOCK_RECORD
  5
8F
100
AcDbSymbolTableRecord
100
AcDbBlockTableRecord
  2
*PAPER_SPACE
  0
BLOCK_RECORD
  5
10
100
AcDbSymbolTableRecord
100
AcDbBlockTableRecord
  2
_CLOSEDFILLED
  0
BLOCK_RECORD
  5
75
100
AcDbSymbolTableRecord
100
AcDbBlockTableRecord
  2
GER_BLOCK_00001
  0
BLOCK_RECORD
  5
7A
100
AcDbSymbolTableRecord
100
AcDbBlockTableRecord
  2
INST_BLOCK_00001
  0
BLOCK_RECORD
  5
7F
100
AcDbSymbolTableRecord
100
AcDbBlockTableRecord
  2
INST_BLOCK_00002
  0
BLOCK_RECORD
  5
84
100
AcDbSymbolTableRecord
100
AcDbBlockTableRecord
  2
INST_BLOCK_00003
  0
ENDTAB
  0
TABLE
  2
STYLE
  5
3
100
AcDbSymbolTable
  0
STYLE
  5
A
100
AcDbSymbolTableRecord
100
AcDbTextStyleTableRecord
  2
STANDARD
 70
0
 40
0
 41
1
 50
0
 71
0
 42
30
  3
TXT.SHX
  4

1001
ACAD
1000
txt
1071
0
  0
ENDTAB
  0
TABLE
  2
LTYPE
  5
1
100
AcDbSymbolTable
  0
LTYPE
  5
9
100
AcDbSymbolTableRecord
100
AcDbLinetypeTableRecord
  2
CONTINUOUS
 70
0
  3

 72
65
 73
0
 40
0
  0
LTYPE
  5
7
100
AcDbSymbolTableRecord
100
AcDbLinetypeTableRecord
  2
BYLAYER
 70
0
  3

 72
65
 73
0
 40
0
  0
LTYPE
  5
8
100
AcDbSymbolTableRecord
100
AcDbLinetypeTableRecord
  2
BYBLOCK
 70
0
  3

 72
65
 73
0
 40
0
  0
LTYPE
  5
13
100
AcDbSymbolTableRecord
100
AcDbLinetypeTableRecord
  2
AUSGEZOGEN
 70
0
  3
.
 72
65
 73
1
 40
0
 49
0
 74
0
  0
LTYPE
  5
14
100
AcDbSymbolTableRecord
100
AcDbLinetypeTableRecord
  2
PUNKTIERT
 70
0
  3
. 
 72
65
 73
2
 40
30
 49
0
 74
0
 49
-30
 74
0
  0
LTYPE
  5
15
100
AcDbSymbolTableRecord
100
AcDbLinetypeTableRecord
  2
GESTRICHELT
 70
0
  3
_ 
 72
65
 73
2
 40
80
 49
50
 74
0
 49
-30
 74
0
  0
LTYPE
  5
16
100
AcDbSymbolTableRecord
100
AcDbLinetypeTableRecord
  2
STRICHPUNKT
 70
0
  3
_ . 
 72
65
 73
4
 40
160
 49
100
 74
0
 49
-30
 74
0
 49
0
 74
0
 49
-30
 74
0
  0
LTYPE
  5
17
100
AcDbSymbolTableRecord
100
AcDbLinetypeTableRecord
  2
GETRENNT
 70
0
  3
_ . . 
 72
65
 73
6
 40
190
 49
100
 74
0
 49
-30
 74
0
 49
0
 74
0
 49
-30
 74
0
 49
0
 74
0
 49
-30
 74
0
  0
ENDTAB
  0
TABLE
  2
LAYER
  5
2
100
AcDbSymbolTable
  0
LAYER
  5
E
100
AcDbSymbolTableRecord
100
AcDbLayerTableRecord
  2
0
 70
0
 62
1
420
16711680
  6
AUSGEZOGEN
290
1
370
-3
390
0
  0
LAYER
  5
18
100
AcDbSymbolTableRecord
100
AcDbLayerTableRecord
  2
550
 70
0
 62
2
420
16776960
  6
AUSGEZOGEN
290
1
370
-3
390
0
  0
LAYER
  5
19
100
AcDbSymbolTableRecord
100
AcDbLayerTableRecord
  2
510
 70
0
 62
2
420
16776960
  6
AUSGEZOGEN
290
1
370
-3
390
0
  0
LAYER
  5
1A
100
AcDbSymbolTableRecord
100
AcDbLayerTableRecord
  2
200
 70
0
 62
7
  6
AUSGEZOGEN
290
1
370
-3
390
0
  0
LAYER
  5
1B
100
AcDbSymbolTableRecord
100
AcDbLayerTableRecord
  2
410
 70
0
 62
4
420
65535
  6
AUSGEZOGEN
290
1
370
-3
390
0
  0
LAYER
  5
1C
100
AcDbSymbolTableRecord
100
AcDbLayerTableRecord
  2
WARMWASSER
 70
0
 62
4
420
65535
  6
AUSGEZOGEN
290
1
370
-3
390
0
  0
LAYER
  5
1D
100
AcDbSymbolTableRecord
100
AcDbLayerTableRecord
  2
420
 70
0
 62
2
420
16776960
  6
AUSGEZOGEN
290
1
370
-3
390
0
  0
ENDTAB
  0
TABLE
  2
VPORT
  5
90
100
AcDbSymbolTable
  0
VPORT
  5
92
100
AcDbSymbolTableRecord
100
AcDbViewportTableRecord
  2
*ACTIVE
 70
0
 10
0
 20
0
 11
1
 21
1
 12
364.88
 22
289.25
 32
0
 13
0
 23
0
 14
1
 24
1
 15
1
 25
1
 16
0
 26
0
 36
1
 17
0
 27
0
 37
0
 40
578.5
 41
1.26146931719965
 42
50
 43
0
 44
0
 50
0
 51
0
 71
0
 72
100
 73
1
 74
1
 75
0
 76
0
 77
0
 78
0
  0
ENDTAB
  0
TABLE
  2
VIEW
  5
93
100
AcDbSymbolTable
  0
ENDTAB
  0
TABLE
  2
UCS
  5
94
100
AcDbSymbolTable
  0
ENDTAB
  0
TABLE
  2
DIMSTYLE
  5
4
100
AcDbSymbolTable
 70
1
100
AcDbDimStyleTable
 71
0
  0
DIMSTYLE
105
B
100
AcDbSymbolTableRecord
100
AcDbDimStyleTableRecord
  2
STANDARD
 70
0
  3

 40
1
 41
0.18
 42
0.0625
 44
0.18
 47
0
 48
0
 73
1
 74
1
 75
0
 76
0
 77
0
140
0.18
141
0.09
144
1
147
0.0625
173
0
174
0
176
0
177
0
178
0
277
2
278
46
281
0
282
0
271
4
340
A
371
-1
372
-1
  0
ENDTAB
  0
ENDSEC
  0
SECTION
  2
BLOCKS
  0
BLOCK
  5
95
100
AcDbEntity
  8
0
100
AcDbBlockBegin
  2
*MODEL_SPACE
 70
0
 10
0
 20
0
  0
ENDBLK
  5
96
100
AcDbEntity
  8
0
100
AcDbBlockEnd
  0
BLOCK
  5
97
100
AcDbEntity
  8
0
100
AcDbBlockBegin
  2
*PAPER_SPACE
 70
0
 10
0
 20
0
  0
ENDBLK
  5
98
100
AcDbEntity
  8
0
100
AcDbBlockEnd
  0
BLOCK
  5
F
100
AcDbEntity
  8
0
100
AcDbBlockBegin
  2
_CLOSEDFILLED
 70
0
 10
0
 20
0
 30
0
  3
_CLOSEDFILLED
  1

  0
SOLID
  5
C
100
AcDbEntity
  8
0
100
AcDbTrace
370
-2
 62
0
 10
-1
 20
0.166666666666667
 30
0
 11
0
 21
0
 31
0
 12
-1
 22
0.166666666666667
 32
0
 13
-1
 23
-0.166666666666667
 33
0
  0
LINE
  5
D
100
AcDbEntity
  8
0
100
AcDbLine
370
-2
 62
0
 10
-1
 20
0
 30
0
 11
-2
 21
0
 31
0
  0
ENDBLK
  5
99
100
AcDbEntity
  8
0
100
AcDbBlockEnd
  0
BLOCK
  5
74
100
AcDbEntity
  8
200
100
AcDbBlockBegin
  2
GER_BLOCK_00001
 70
2
 10
0
 20
0
 30
0
  3
GER_BLOCK_00001
  1

  0
LINE
  5
35
100
AcDbEntity
  8
200
100
AcDbLine
370
-1
  6
AUSGEZOGEN
 10
5
 20
33.5
 30
0
 11
5
 21
235.5
 31
0
  0
LINE
  5
36
100
AcDbEntity
  8
200
100
AcDbLine
370
-1
  6
AUSGEZOGEN
 10
395
 20
235.5
 30
0
 11
395
 21
33.5
 31
0
  0
LINE
  5
37
100
AcDbEntity
  8
200
100
AcDbLine
370
-1
  6
AUSGEZOGEN
 10
306.35
 20
355.5
 30
0
 11
318.37
 21
355.5
 31
0
  0
LINE
  5
38
100
AcDbEntity
  8
200
100
AcDbLine
370
-1
  6
AUSGEZOGEN
 10
356.14
 20
293.5
 30
0
 11
356.14
 21
324.95
 31
0
  0
LINE
  5
39
100
AcDbEntity
  8
200
100
AcDbLine
370
-1
  6
AUSGEZOGEN
 10
337.5
 20
293.5
 30
0
 11
356.14
 21
293.5
 31
0
  0
LINE
  5
3A
100
AcDbEntity
  8
200
100
AcDbLine
370
-1
  6
AUSGEZOGEN
 10
337.5
 20
322.33
 30
0
 11
337.5
 21
293.5
 31
0
  0
LINE
  5
3B
100
AcDbEntity
  8
200
100
AcDbLine
370
-1
  6
AUSGEZOGEN
 10
272.99
 20
347.64
 30
0
 11
276.4
 21
347.64
 31
0
  0
LINE
  5
3C
100
AcDbEntity
  8
200
100
AcDbLine
370
-1
  6
AUSGEZOGEN
 10
280.8
 20
346.28
 30
0
 11
276.4
 21
347.64
 31
0
  0
LINE
  5
3D
100
AcDbEntity
  8
200
100
AcDbLine
370
-1
  6
AUSGEZOGEN
 10
285.01
 20
343.92
 30
0
 11
280.8
 21
346.28
 31
0
  0
LINE
  5
3E
100
AcDbEntity
  8
200
100
AcDbLine
370
-1
  6
AUSGEZOGEN
 10
287.9
 20
341.19
 30
0
 11
285.01
 21
343.92
 31
0
  0
LINE
  5
3F
100
AcDbEntity
  8
200
100
AcDbLine
370
-1
  6
AUSGEZOGEN
 10
287.2
 20
337.46
 30
0
 11
288.7
 21
338.82
 31
0
  0
LINE
  5
40
100
AcDbEntity
  8
200
100
AcDbLine
370
-1
  6
AUSGEZOGEN
 10
283.8
 20
337.46
 30
0
 11
287.2
 21
337.46
 31
0
  0
LINE
  5
41
100
AcDbEntity
  8
200
100
AcDbLine
370
-1
  6
AUSGEZOGEN
 10
279.38
 20
338.82
 30
0
 11
283.8
 21
337.46
 31
0
  0
LINE
  5
42
100
AcDbEntity
  8
200
100
AcDbLine
370
-1
  6
AUSGEZOGEN
 10
275.18
 20
341.19
 30
0
 11
279.38
 21
338.82
 31
0
  0
LINE
  5
43
100
AcDbEntity
  8
200
100
AcDbLine
370
-1
  6
AUSGEZOGEN
 10
272.28
 20
343.92
 30
0
 11
275.18
 21
341.19
 31
0
  0
LINE
  5
44
100
AcDbEntity
  8
200
100
AcDbLine
370
-1
  6
AUSGEZOGEN
 10
271.48
 20
346.28
 30
0
 11
272.28
 21
343.92
 31
0
  0
LINE
  5
45
100
AcDbEntity
  8
200
100
AcDbLine
370
-1
  6
AUSGEZOGEN
 10
272.99
 20
347.64
 30
0
 11
271.48
 21
346.28
 31
0
  0
LINE
  5
46
100
AcDbEntity
  8
200
100
AcDbLine
370
-1
  6
AUSGEZOGEN
 10
297.43
 20
351.15
 30
0
 11
288.7
 21
338.82
 31
0
  0
LINE
  5
47
100
AcDbEntity
  8
200
100
AcDbLine
370
-1
  6
AUSGEZOGEN
 10
288.7
 20
338.82
 30
0
 11
287.9
 21
341.19
 31
0
  0
LINE
  5
48
100
AcDbEntity
  8
200
100
AcDbLine
370
-1
  6
AUSGEZOGEN
 10
282.83
 20
362.33
 30
0
 11
271.48
 21
346.28
 31
0
  0
LINE
  5
49
100
AcDbEntity
  8
200
100
AcDbLine
370
-1
  6
AUSGEZOGEN
 10
284.82
 20
364.37
 30
0
 11
282.83
 21
362.33
 31
0
  0
LINE
  5
4A
100
AcDbEntity
  8
200
100
AcDbLine
370
-1
  6
AUSGEZOGEN
 10
325.88
 20
349.1
 30
0
 11
325.86
 21
349.12
 31
0
  0
LINE
  5
4B
100
AcDbEntity
  8
200
100
AcDbLine
370
-1
  6
AUSGEZOGEN
 10
349.95
 20
346.12
 30
0
 11
338.49
 21
362.32
 31
0
  0
LINE
  5
4C
100
AcDbEntity
  8
200
100
AcDbLine
370
-1
  6
AUSGEZOGEN
 10
324.95
 20
349.66
 30
0
 11
332.72
 21
338.65
 31
0
  0
LINE
  5
4D
100
AcDbEntity
  8
200
100
AcDbLine
370
-1
  6
AUSGEZOGEN
 10
296.38
 20
349.67
 30
0
 11
306.35
 21
355.5
 31
0
  0
LINE
  5
4E
100
AcDbEntity
  8
200
100
AcDbLine
370
-1
  6
AUSGEZOGEN
 10
300.41
 20
373.5
 30
0
 11
284.82
 21
364.37
 31
0
  0
LINE
  5
4F
100
AcDbEntity
  8
200
100
AcDbLine
370
-1
  6
AUSGEZOGEN
 10
0
 20
373.5
 30
0
 11
400
 21
373.5
 31
0
  0
LINE
  5
50
100
AcDbEntity
  8
200
100
AcDbLine
370
-1
  6
AUSGEZOGEN
 10
356.14
 20
324.95
 30
0
 11
349.94
 21
346.1
 31
0
  0
LINE
  5
51
100
AcDbEntity
  8
200
100
AcDbLine
370
-1
  6
AUSGEZOGEN
 10
332.72
 20
338.65
 30
0
 11
337.5
 21
322.33
 31
0
  0
LINE
  5
52
100
AcDbEntity
  8
200
100
AcDbLine
370
-1
  6
AUSGEZOGEN
 10
314.96
 20
355.49
 30
0
 11
318.37
 21
355.49
 31
0
  0
LINE
  5
53
100
AcDbEntity
  8
200
100
AcDbLine
370
-1
  6
AUSGEZOGEN
 10
336.5
 20
364.36
 30
0
 11
320.9
 21
373.5
 31
0
  0
LINE
  5
54
100
AcDbEntity
  8
200
100
AcDbLine
370
-1
  6
AUSGEZOGEN
 10
338.49
 20
362.32
 30
0
 11
336.5
 21
364.36
 31
0
  0
LINE
  5
55
100
AcDbEntity
  8
200
100
AcDbLine
370
-1
  6
AUSGEZOGEN
 10
314.96
 20
355.49
 30
0
 11
325.88
 21
349.11
 31
0
  0
LINE
  5
56
100
AcDbEntity
  8
200
100
AcDbLine
370
-1
  6
AUSGEZOGEN
 10
359.25
 20
273.5
 30
0
 11
359.25
 21
292.5
 31
0
  0
LINE
  5
57
100
AcDbEntity
  8
200
100
AcDbLine
370
-1
  6
AUSGEZOGEN
 10
334.39
 20
292.5
 30
0
 11
334.39
 21
273.5
 31
0
  0
LINE
  5
58
100
AcDbEntity
  8
200
100
AcDbLine
370
-1
  6
AUSGEZOGEN
 10
359.25
 20
292.5
 30
0
 11
334.39
 21
292.5
 31
0
  0
LINE
  5
59
100
AcDbEntity
  8
200
100
AcDbLine
370
-1
  6
AUSGEZOGEN
 10
400
 20
373.5
 30
0
 11
400
 21
235.5
 31
0
  0
LINE
  5
5A
100
AcDbEntity
  8
200
100
AcDbLine
370
-1
  6
AUSGEZOGEN
 10
0
 20
235.5
 30
0
 11
0
 21
373.5
 31
0
  0
LINE
  5
5B
100
AcDbEntity
  8
200
100
AcDbLine
370
-1
  6
AUSGEZOGEN
 10
400
 20
273.5
 30
0
 11
0
 21
273.5
 31
0
  0
LINE
  5
5C
100
AcDbEntity
  8
200
100
AcDbLine
370
-1
  6
AUSGEZOGEN
 10
0
 20
235.5
 30
0
 11
400
 21
235.5
 31
0
  0
LINE
  5
5D
100
AcDbEntity
  8
200
100
AcDbLine
370
-1
  6
AUSGEZOGEN
 10
313.32
 20
110.89
 30
0
 11
294.95
 21
118.5
 31
0
  0
LINE
  5
5E
100
AcDbEntity
  8
200
100
AcDbLine
370
-1
  6
AUSGEZOGEN
 10
327.39
 20
96.82
 30
0
 11
313.32
 21
110.89
 31
0
  0
LINE
  5
5F
100
AcDbEntity
  8
200
100
AcDbLine
370
-1
  6
AUSGEZOGEN
 10
335
 20
78.45
 30
0
 11
327.39
 21
96.82
 31
0
  0
LINE
  5
60
100
AcDbEntity
  8
200
100
AcDbLine
370
-1
  6
AUSGEZOGEN
 10
235
 20
33.5
 30
0
 11
235
 21
78.45
 31
0
  0
LINE
  5
61
100
AcDbEntity
  8
200
100
AcDbLine
370
-1
  6
AUSGEZOGEN
 10
242.61
 20
96.82
 30
0
 11
235
 21
78.45
 31
0
  0
LINE
  5
62
100
AcDbEntity
  8
200
100
AcDbLine
370
-1
  6
AUSGEZOGEN
 10
256.68
 20
110.89
 30
0
 11
242.61
 21
96.82
 31
0
  0
LINE
  5
63
100
AcDbEntity
  8
200
100
AcDbLine
370
-1
  6
AUSGEZOGEN
 10
275.06
 20
118.5
 30
0
 11
256.68
 21
110.89
 31
0
  0
LINE
  5
64
100
AcDbEntity
  8
200
100
AcDbLine
370
-1
  6
AUSGEZOGEN
 10
294.95
 20
118.5
 30
0
 11
275.06
 21
118.5
 31
0
  0
LINE
  5
65
100
AcDbEntity
  8
200
100
AcDbLine
370
-1
  6
AUSGEZOGEN
 10
335
 20
33.5
 30
0
 11
335
 21
78.45
 31
0
  0
LINE
  5
66
100
AcDbEntity
  8
200
100
AcDbLine
370
-1
  6
AUSGEZOGEN
 10
297.93
 20
133.5
 30
0
 11
321.82
 21
123.61
 31
0
  0
LINE
  5
67
100
AcDbEntity
  8
200
100
AcDbLine
370
-1
  6
AUSGEZOGEN
 10
340.11
 20
105.32
 30
0
 11
321.82
 21
123.61
 31
0
  0
LINE
  5
68
100
AcDbEntity
  8
200
100
AcDbLine
370
-1
  6
AUSGEZOGEN
 10
350
 20
81.44
 30
0
 11
340.11
 21
105.32
 31
0
  0
LINE
  5
69
100
AcDbEntity
  8
200
100
AcDbLine
370
-1
  6
AUSGEZOGEN
 10
5
 20
33.5
 30
0
 11
395
 21
33.5
 31
0
  0
LINE
  5
6A
100
AcDbEntity
  8
200
100
AcDbLine
370
-1
  6
AUSGEZOGEN
 10
220
 20
81.44
 30
0
 11
220
 21
33.5
 31
0
  0
LINE
  5
6B
100
AcDbEntity
  8
200
100
AcDbLine
370
-1
  6
AUSGEZOGEN
 10
229.89
 20
105.32
 30
0
 11
220
 21
81.44
 31
0
  0
LINE
  5
6C
100
AcDbEntity
  8
200
100
AcDbLine
370
-1
  6
AUSGEZOGEN
 10
248.18
 20
123.61
 30
0
 11
229.89
 21
105.32
 31
0
  0
LINE
  5
6D
100
AcDbEntity
  8
200
100
AcDbLine
370
-1
  6
AUSGEZOGEN
 10
272.08
 20
133.5
 30
0
 11
248.18
 21
123.61
 31
0
  0
LINE
  5
6E
100
AcDbEntity
  8
200
100
AcDbLine
370
-1
  6
AUSGEZOGEN
 10
297.93
 20
133.5
 30
0
 11
272.08
 21
133.5
 31
0
  0
LINE
  5
6F
100
AcDbEntity
  8
200
100
AcDbLine
370
-1
  6
AUSGEZOGEN
 10
350
 20
33.5
 30
0
 11
350
 21
81.44
 31
0
  0
ATTDEF
  5
73
100
AcDbEntity
  8
0
100
AcDbText
370
-1
 10
0
 20
0
 30
0
 40
1
  1

 50
0
 41
1
 51
0
  7
STANDARD
 71
0
 72
0
 11
0
 21
0
 31
0
100
AcDbAttributeDefinition
  3

  2

 70
0
 74
0
1001
AcDbAttr
1070
0
1070
0
  0
ENDBLK
  5
9A
100
AcDbEntity
  8
0
100
AcDbBlockEnd
  0
BLOCK
  5
79
100
AcDbEntity
  8
410
100
AcDbBlockBegin
  2
INST_BLOCK_00001
 70
2
 10
0
 20
0
 30
0
  3
INST_BLOCK_00001
  1

  0
CIRCLE
  5
22
100
AcDbEntity
  8
410
100
AcDbCircle
370
-1
  6
AUSGEZOGEN
 10
275
 20
503.5
 30
0
 40
50
  0
LINE
  5
23
100
AcDbEntity
  8
410
100
AcDbLine
370
-1
  6
AUSGEZOGEN
 10
200
 20
503.5
 30
0
 11
275
 21
503.5
 31
0
  0
LINE
  5
24
100
AcDbEntity
  8
410
100
AcDbLine
370
-1
  6
AUSGEZOGEN
 10
350
 20
503.5
 30
0
 11
275
 21
503.5
 31
0
  0
LINE
  5
25
100
AcDbEntity
  8
410
100
AcDbLine
370
-1
  6
AUSGEZOGEN
 10
275
 20
428.5
 30
0
 11
275
 21
503.5
 31
0
  0
LINE
  5
26
100
AcDbEntity
  8
410
100
AcDbLine
370
-1
  6
AUSGEZOGEN
 10
275
 20
578.5
 30
0
 11
275
 21
503.5
 31
0
  0
ATTDEF
  5
78
100
AcDbEntity
  8
0
100
AcDbText
370
-1
 10
0
 20
0
 30
0
 40
1
  1

 50
0
 41
1
 51
0
  7
STANDARD
 71
0
 72
0
 11
0
 21
0
 31
0
100
AcDbAttributeDefinition
  3

  2

 70
0
 74
0
1001
AcDbAttr
1070
0
1070
0
  0
ENDBLK
  5
9B
100
AcDbEntity
  8
0
100
AcDbBlockEnd
  0
BLOCK
  5
7E
100
AcDbEntity
  8
WARMWASSER
100
AcDbBlockBegin
  2
INST_BLOCK_00002
 70
2
 10
0
 20
0
 30
0
  3
INST_BLOCK_00002
  1

  0
CIRCLE
  5
29
100
AcDbEntity
  8
WARMWASSER
100
AcDbCircle
370
-1
  6
AUSGEZOGEN
 10
125
 20
503.5
 30
0
 40
50
  0
LINE
  5
2A
100
AcDbEntity
  8
WARMWASSER
100
AcDbLine
370
-1
  6
AUSGEZOGEN
 10
50
 20
503.5
 30
0
 11
125
 21
503.5
 31
0
  0
LINE
  5
2B
100
AcDbEntity
  8
WARMWASSER
100
AcDbLine
370
-1
  6
AUSGEZOGEN
 10
200
 20
503.5
 30
0
 11
125
 21
503.5
 31
0
  0
LINE
  5
2C
100
AcDbEntity
  8
WARMWASSER
100
AcDbLine
370
-1
  6
AUSGEZOGEN
 10
125
 20
428.5
 30
0
 11
125
 21
503.5
 31
0
  0
LINE
  5
2D
100
AcDbEntity
  8
WARMWASSER
100
AcDbLine
370
-1
  6
AUSGEZOGEN
 10
125
 20
578.5
 30
0
 11
125
 21
503.5
 31
0
  0
ATTDEF
  5
7D
100
AcDbEntity
  8
0
100
AcDbText
370
-1
 10
0
 20
0
 30
0
 40
1
  1

 50
0
 41
1
 51
0
  7
STANDARD
 71
0
 72
0
 11
0
 21
0
 31
0
100
AcDbAttributeDefinition
  3

  2

 70
0
 74
0
1001
AcDbAttr
1070
0
1070
0
  0
ENDBLK
  5
9C
100
AcDbEntity
  8
0
100
AcDbBlockEnd
  0
BLOCK
  5
83
100
AcDbEntity
  8
420
100
AcDbBlockBegin
  2
INST_BLOCK_00003
 70
2
 10
0
 20
0
 30
0
  3
INST_BLOCK_00003
  1

  0
CIRCLE
  5
30
100
AcDbEntity
  8
420
100
AcDbCircle
370
-1
  6
AUSGEZOGEN
 10
200
 20
453.5
 30
0
 40
50
  0
LINE
  5
31
100
AcDbEntity
  8
420
100
AcDbLine
370
-1
  6
AUSGEZOGEN
 10
125
 20
453.5
 30
0
 11
200
 21
453.5
 31
0
  0
LINE
  5
32
100
AcDbEntity
  8
420
100
AcDbLine
370
-1
  6
AUSGEZOGEN
 10
275
 20
453.5
 30
0
 11
200
 21
453.5
 31
0
  0
LINE
  5
33
100
AcDbEntity
  8
420
100
AcDbLine
370
-1
  6
AUSGEZOGEN
 10
200
 20
378.5
 30
0
 11
200
 21
453.5
 31
0
  0
LINE
  5
34
100
AcDbEntity
  8
420
100
AcDbLine
370
-1
  6
AUSGEZOGEN
 10
200
 20
528.5
 30
0
 11
200
 21
453.5
 31
0
  0
ATTDEF
  5
82
100
AcDbEntity
  8
0
100
AcDbText
370
-1
 10
0
 20
0
 30
0
 40
1
  1

 50
0
 41
1
 51
0
  7
STANDARD
 71
0
 72
0
 11
0
 21
0
 31
0
100
AcDbAttributeDefinition
  3

  2

 70
0
 74
0
1001
AcDbAttr
1070
0
1070
0
  0
ENDBLK
  5
9D
100
AcDbEntity
  8
0
100
AcDbBlockEnd
  0
ENDSEC
  0
SECTION
  2
ENTITIES
  0
LINE
  5
1E
100
AcDbEntity
  8
410
100
AcDbLine
370
-1
  6
AUSGEZOGEN
 10
275
 20
503.5
 30
0
 11
486.5
 21
0
 31
0
  0
LINE
  5
21
100
AcDbEntity
  8
410
100
AcDbLine
370
-1
  6
AUSGEZOGEN
 10
729.76
 20
0
 30
0
 11
486.5
 21
0
 31
0
  0
LINE
  5
27
100
AcDbEntity
  8
WARMWASSER
100
AcDbLine
370
-1
  6
AUSGEZOGEN
 10
125
 20
503.5
 30
0
 11
486.5
 21
120
 31
0
  0
LINE
  5
28
100
AcDbEntity
  8
WARMWASSER
100
AcDbLine
370
-1
  6
AUSGEZOGEN
 10
729.76
 20
120
 30
0
 11
486.5
 21
120
 31
0
  0
LINE
  5
2E
100
AcDbEntity
  8
420
100
AcDbLine
370
-1
  6
AUSGEZOGEN
 10
200
 20
453.5
 30
0
 11
486.5
 21
240
 31
0
  0
LINE
  5
2F
100
AcDbEntity
  8
420
100
AcDbLine
370
-1
  6
AUSGEZOGEN
 10
670.96
 20
240
 30
0
 11
486.5
 21
240
 31
0
  0
TEXT
  5
70
100
AcDbEntity
  8
410
100
AcDbText
370
-1
 10
500
 20
13.5
 30
0
 40
45
  1
TWk: DN15
 50
0
 41
0.600000023841858
 51
0
  7
STANDARD
 71
0
 72
0
 11
0
 21
0
 31
0
100
AcDbText
 73
0
  0
TEXT
  5
71
100
AcDbEntity
  8
WARMWASSER
100
AcDbText
370
-1
 10
500
 20
133.5
 30
0
 40
45
  1
TWw: DN15
 50
0
 41
0.600000023841858
 51
0
  7
STANDARD
 71
0
 72
0
 11
0
 21
0
 31
0
100
AcDbText
 73
0
  0
TEXT
  5
72
100
AcDbEntity
  8
420
100
AcDbText
370
-1
 10
500
 20
253.5
 30
0
 40
45
  1
A: DN50
 50
0
 41
0.600000023841858
 51
0
  7
STANDARD
 71
0
 72
0
 11
0
 21
0
 31
0
100
AcDbText
 73
0
  0
INSERT
  5
77
100
AcDbEntity
  8
200
100
AcDbBlockReference
370
-1
  6
BYLAYER
 66
1
  2
GER_BLOCK_00001
 10
0
 20
0
 30
0
 41
1
 42
1
 43
1
  0
ATTRIB
  5
76
100
AcDbEntity
  8
0
100
AcDbText
370
-1
 10
0
 20
0
 30
0
 40
20
  1

 50
0
 41
1
 51
0
  7
STANDARD
 71
0
 72
0
 11
0
 21
0
 31
0
100
AcDbAttribute
  2

 70
0
 74
0
1001
AcDbAttr
1070
0
1070
0
  0
SEQEND
  5
9E
100
AcDbEntity
  8
0
  0
INSERT
  5
7C
100
AcDbEntity
  8
410
100
AcDbBlockReference
370
-1
  6
BYLAYER
 66
1
  2
INST_BLOCK_00001
 10
0
 20
0
 30
0
 41
1
 42
1
 43
1
  0
ATTRIB
  5
7B
100
AcDbEntity
  8
0
100
AcDbText
370
-1
 10
0
 20
0
 30
0
 40
20
  1

 50
0
 41
1
 51
0
  7
STANDARD
 71
0
 72
0
 11
0
 21
0
 31
0
100
AcDbAttribute
  2

 70
0
 74
0
1001
AcDbAttr
1070
0
1070
0
  0
SEQEND
  5
9F
100
AcDbEntity
  8
0
  0
INSERT
  5
81
100
AcDbEntity
  8
WARMWASSER
100
AcDbBlockReference
370
-1
  6
BYLAYER
 66
1
  2
INST_BLOCK_00002
 10
0
 20
0
 30
0
 41
1
 42
1
 43
1
  0
ATTRIB
  5
80
100
AcDbEntity
  8
0
100
AcDbText
370
-1
 10
0
 20
0
 30
0
 40
20
  1

 50
0
 41
1
 51
0
  7
STANDARD
 71
0
 72
0
 11
0
 21
0
 31
0
100
AcDbAttribute
  2

 70
0
 74
0
1001
AcDbAttr
1070
0
1070
0
  0
SEQEND
  5
A0
100
AcDbEntity
  8
0
  0
INSERT
  5
86
100
AcDbEntity
  8
420
100
AcDbBlockReference
370
-1
  6
BYLAYER
 66
1
  2
INST_BLOCK_00003
 10
0
 20
0
 30
0
 41
1
 42
1
 43
1
  0
ATTRIB
  5
85
100
AcDbEntity
  8
0
100
AcDbText
370
-1
 10
0
 20
0
 30
0
 40
20
  1

 50
0
 41
1
 51
0
  7
STANDARD
 71
0
 72
0
 11
0
 21
0
 31
0
100
AcDbAttribute
  2

 70
0
 74
0
1001
AcDbAttr
1070
0
1070
0
  0
SEQEND
  5
A1
100
AcDbEntity
  8
0
  0
ATTDEF
  5
87
100
AcDbEntity
  8
550
100
AcDbText
370
-1
 10
10
 20
100
 30
0
 40
30
  1

 50
0
 41
1
 51
0
  7
STANDARD
 71
0
 72
0
 11
0
 21
0
 31
0
100
AcDbAttributeDefinition
  3
KBS-21010002
  2
KBS-21010002
 70
1
 74
0
1001
AcDbAttr
1070
0
1070
0
  0
TEXT
  5
88
100
AcDbEntity
  8
510
100
AcDbText
370
-1
 10
10
 20
-45
 30
0
 40
30
  1

 50
0
 41
1
 51
0
  7
STANDARD
 71
0
 72
0
 11
0
 21
0
 31
0
100
AcDbText
 73
0
  0
ENDSEC
  0
SECTION
  2
OBJECTS
  0
DICTIONARY
  5
A2
100
AcDbDictionary
  3
ACAD_GROUP
350
A3
  3
ACAD_MATERIAL
350
A4
  3
ACAD_WIPEOUT_VARS
350
A5
  3
ACAD_MLINESTYLE
350
A6
  3
ACAD_LAYOUT
350
A7
  0
DICTIONARY
  5
A3
330
A2
100
AcDbDictionary
  0
DICTIONARY
  5
A4
330
A2
100
AcDbDictionary
  0
WIPEOUTVARIABLES
  5
A5
330
A2
100
AcDbWipeoutVariables
 70
1
  0
DICTIONARY
  5
A6
330
A2
100
AcDbDictionary
  3
STANDARD
350
A8
  0
MLINESTYLE
  5
A8
100
AcDbMlineStyle
  2
STANDARD
 70
0
  3

 62
256
 51
90
 52
90
 71
2
 49
0.5
 62
256
  6
ByLayer
 49
-0.5
 62
256
  6
ByLayer
  0
DICTIONARY
  5
A7
100
AcDbDictionary
281
1
  3
Model
350
89
  0
LAYOUT
  5
89
102
{ACAD_REACTORS
330
A7
102
}
330
A7
100
AcDbPlotSettings
  1

  2
none_device
  4

  6

 40
0
 41
0
 42
0
 43
0
 44
0
 45
0
 46
0
 47
0
 48
0
 49
0
 70
1712
 72
1
 73
0
 74
5
 75
16
 76
0
 77
0
 78
100
140
0
141
0
142
1
143
1
147
1
148
0
149
0
100
AcDbLayout
  1
Model
 70
1
 71
1
 10
0
 20
0
 11
729.76
 21
578.5
 12
0
 22
0
 32
0
 14
0
 24
0
 34
0
 15
729.76
 25
578.5
 35
0
146
0
 13
0
 23
0
 33
0
 16
1
 26
0
 36
0
 17
0
 27
1
 37
0
 76
0
330
20
  0
DICTIONARY
  5
A9
100
AcDbDictionary
280
1
  3
XINFO
360
AA
  0
XRECORD
  5
AA
102
{ACAD_REACTORS
330
A9
102
}
330
A9
100
AcDbXrecord
280
0
310
8F24010003000900
311
7828E0EC7CB06B25
  0
ENDSEC
  0
EOF
