999
     Created by SWS GmbH, Paderborn, Germany, www.sws-online.de
999
     and  Soft Gold Ltd. www.cadsofttools.com
999

999
SWS-intern Ausgabemassstab:
999
   0.0500
999

999
SWS-intern Koordinatenwerte 1:1:
999
1
999

  0
SECTION
  2
HEADER
  9
$ACADVER
  1
AC1018
  9
$DWGCODEPAGE
  3
ANSI_1252
  9
$CLAYER
  8
0
  9
$CELTYPE
  6
BYLAYER
  9
$CELTSCALE
 40
1
  9
$CELWEIGHT
370
-1
  9
$DIMALT
 70
0
  9
$DIMALTF
 40
1
  9
$DIMPOST
  1

  9
$DIMAPOST
  1

  9
$DIMSCALE
 40
1
  9
$DIMASZ
 40
0.18
  9
$DIMCLRD
 70
0
  9
$DIMCLRE
 70
0
  9
$DIMCLRT
 70
0
  9
$DIMEXE
 40
0.18
  9
$DIMEXO
 40
0.0625
  9
$DIMGAP
 40
0.0625
  9
$DIMLFAC
 40
1
  9
$DIMDEC
 70
4
  9
$DIMTAD
 70
0
  9
$DIMCEN
 40
0.09
  9
$DIMTIH
 70
1
  9
$DIMTIX
 70
0
  9
$DIMTOH
 70
1
  9
$DIMSE1
 70
0
  9
$DIMSE2
 70
0
  9
$DIMSD1
 70
0
  9
$DIMSD2
 70
0
  9
$DIMLWD
 70
-1
  9
$DIMLWE
 70
-1
  9
$DIMSAH
 70
0
  9
$DIMBLK
  1

  9
$DIMBLK1
  1

  9
$DIMBLK2
  1

  9
$DIMLDRBLK
  1

  9
$DIMSTYLE
  2
STANDARD
  9
$DIMTP
 40
0
  9
$DIMTM
 40
0
  9
$DIMTXT
 40
0.18
  9
$DIMLUNIT
 70
2
  9
$DIMDSEP
 70
46
  9
$DIMTXSTY
  7
STANDARD
  9
$TEXTSIZE
 40
0.18
  9
$TEXTSTYLE
  7
STANDARD
  9
$HANDSEED
  5
0000000000000166
  9
$FILLETRAD
 40
0.5
  9
$INSUNITS
 70
4
  9
$LIMMIN
 10
-338.06375
 20
-106.25
  9
$LIMMAX
 10
3042.57375
 20
956.25
  9
$FILLMODE
 70
1
  9
$LTSCALE
 40
1
  9
$PSLTSCALE
 70
0
  9
$MEASUREMENT
 70
0
  9
$ATTMODE
 70
1
  9
$PDMODE
 70
0
  9
$PDSIZE
 40
0
  9
$TILEMODE
 70
1
  9
$UCSORG
 10
0
 20
0
 30
0
  9
$UCSXDIR
 10
1
 20
0
 30
0
  9
$UCSYDIR
 10
0
 20
1
 30
0
  9
$INSBASE
 10
0
 20
0
 30
0
  9
$XCLIPFRAME
290
1
  9
$DIMASSOC
280
2
  9
$TDCREATE
 40
2459104.65322944
  9
$TDINDWG
 40
1.15740740740741E-7
  9
$TDUPDATE
 40
2459104.65322956
  0
ENDSEC
  0
SECTION
  2
CLASSES
  0
CLASS
  1
IMAGE
  2
AcDbRasterImage
  3
ISM
 90
2175
 91
1
280
0
281
1
  0
CLASS
  1
IMAGEDEF
  2
AcDbRasterImageDef
  3
ISM
 90
0
 91
1
280
0
281
0
  0
CLASS
  1
WIPEOUT
  2
AcDbWipeout
  3
"WipeOut"
 90
2175
 91
1
280
0
281
1
  0
CLASS
  1
WIPEOUTVARIABLES
  2
AcDbWipeoutVariables
  3
"WipeOut"
 90
0
 91
1
280
0
281
0
  0
CLASS
  1
MPOLYGON
  2
AcDbMPolygon
  3
"AcMPolygonObj15"
 90
3071
 91
1
280
0
281
1
  0
ENDSEC
  0
SECTION
  2
TABLES
  0
TABLE
  2
APPID
  5
149
100
AcDbSymbolTable
  0
APPID
  5
14A
100
AcDbSymbolTableRecord
100
AcDbRegAppTableRecord
  2
ACAD
 70
0
  0
APPID
  5
12
100
AcDbSymbolTableRecord
100
AcDbRegAppTableRecord
  2
CSTINVENTORY
 70
0
  0
APPID
  5
14B
100
AcDbSymbolTableRecord
100
AcDbRegAppTableRecord
  2
AcDbAttr
 70
0
  0
APPID
  5
14C
100
AcDbSymbolTableRecord
100
AcDbRegAppTableRecord
  2
PE_URL
 70
0
  0
ENDTAB
  0
TABLE
  2
BLOCK_RECORD
  5
14D
100
AcDbSymbolTable
  0
BLOCK_RECORD
  5
1E
100
AcDbSymbolTableRecord
100
AcDbBlockTableRecord
  2
*MODEL_SPACE
  0
BLOCK_RECORD
  5
14E
100
AcDbSymbolTableRecord
100
AcDbBlockTableRecord
  2
*PAPER_SPACE
  0
BLOCK_RECORD
  5
10
100
AcDbSymbolTableRecord
100
AcDbBlockTableRecord
  2
_CLOSEDFILLED
  0
BLOCK_RECORD
  5
13E
100
AcDbSymbolTableRecord
100
AcDbBlockTableRecord
  2
GER_BLOCK_00001
  0
BLOCK_RECORD
  5
143
100
AcDbSymbolTableRecord
100
AcDbBlockTableRecord
  2
INST_BLOCK_00001
  0
ENDTAB
  0
TABLE
  2
STYLE
  5
3
100
AcDbSymbolTable
  0
STYLE
  5
A
100
AcDbSymbolTableRecord
100
AcDbTextStyleTableRecord
  2
STANDARD
 70
0
 40
0
 41
1
 50
0
 71
0
 42
30
  3
TXT.SHX
  4

1001
ACAD
1000
txt
1071
0
  0
ENDTAB
  0
TABLE
  2
LTYPE
  5
1
100
AcDbSymbolTable
  0
LTYPE
  5
9
100
AcDbSymbolTableRecord
100
AcDbLinetypeTableRecord
  2
CONTINUOUS
 70
0
  3

 72
65
 73
0
 40
0
  0
LTYPE
  5
7
100
AcDbSymbolTableRecord
100
AcDbLinetypeTableRecord
  2
BYLAYER
 70
0
  3

 72
65
 73
0
 40
0
  0
LTYPE
  5
8
100
AcDbSymbolTableRecord
100
AcDbLinetypeTableRecord
  2
BYBLOCK
 70
0
  3

 72
65
 73
0
 40
0
  0
LTYPE
  5
13
100
AcDbSymbolTableRecord
100
AcDbLinetypeTableRecord
  2
AUSGEZOGEN
 70
0
  3
.
 72
65
 73
1
 40
0
 49
0
 74
0
  0
LTYPE
  5
14
100
AcDbSymbolTableRecord
100
AcDbLinetypeTableRecord
  2
PUNKTIERT
 70
0
  3
. 
 72
65
 73
2
 40
30
 49
0
 74
0
 49
-30
 74
0
  0
LTYPE
  5
15
100
AcDbSymbolTableRecord
100
AcDbLinetypeTableRecord
  2
GESTRICHELT
 70
0
  3
_ 
 72
65
 73
2
 40
80
 49
50
 74
0
 49
-30
 74
0
  0
LTYPE
  5
16
100
AcDbSymbolTableRecord
100
AcDbLinetypeTableRecord
  2
STRICHPUNKT
 70
0
  3
_ . 
 72
65
 73
4
 40
160
 49
100
 74
0
 49
-30
 74
0
 49
0
 74
0
 49
-30
 74
0
  0
LTYPE
  5
17
100
AcDbSymbolTableRecord
100
AcDbLinetypeTableRecord
  2
GETRENNT
 70
0
  3
_ . . 
 72
65
 73
6
 40
190
 49
100
 74
0
 49
-30
 74
0
 49
0
 74
0
 49
-30
 74
0
 49
0
 74
0
 49
-30
 74
0
  0
ENDTAB
  0
TABLE
  2
LAYER
  5
2
100
AcDbSymbolTable
  0
LAYER
  5
E
100
AcDbSymbolTableRecord
100
AcDbLayerTableRecord
  2
0
 70
0
 62
1
420
16711680
  6
AUSGEZOGEN
290
1
370
-3
390
0
  0
LAYER
  5
18
100
AcDbSymbolTableRecord
100
AcDbLayerTableRecord
  2
550
 70
0
 62
2
420
16776960
  6
AUSGEZOGEN
290
1
370
-3
390
0
  0
LAYER
  5
19
100
AcDbSymbolTableRecord
100
AcDbLayerTableRecord
  2
510
 70
0
 62
2
420
16776960
  6
AUSGEZOGEN
290
1
370
-3
390
0
  0
LAYER
  5
1A
100
AcDbSymbolTableRecord
100
AcDbLayerTableRecord
  2
200
 70
0
 62
7
  6
AUSGEZOGEN
290
1
370
-3
390
0
  0
LAYER
  5
1B
100
AcDbSymbolTableRecord
100
AcDbLayerTableRecord
  2
400
 70
0
 62
4
420
65535
  6
AUSGEZOGEN
290
1
370
-3
390
0
  0
ENDTAB
  0
TABLE
  2
VPORT
  5
14F
100
AcDbSymbolTable
  0
VPORT
  5
151
100
AcDbSymbolTableRecord
100
AcDbViewportTableRecord
  2
*ACTIVE
 70
0
 10
0
 20
0
 11
1
 21
1
 12
1352.255
 22
425
 32
0
 13
0
 23
0
 14
1
 24
1
 15
1
 25
1
 16
0
 26
0
 36
1
 17
0
 27
0
 37
0
 40
850
 41
3.18177647058824
 42
50
 43
0
 44
0
 50
0
 51
0
 71
0
 72
100
 73
1
 74
1
 75
0
 76
0
 77
0
 78
0
  0
ENDTAB
  0
TABLE
  2
VIEW
  5
152
100
AcDbSymbolTable
  0
ENDTAB
  0
TABLE
  2
UCS
  5
153
100
AcDbSymbolTable
  0
ENDTAB
  0
TABLE
  2
DIMSTYLE
  5
4
100
AcDbSymbolTable
 70
1
100
AcDbDimStyleTable
 71
0
  0
DIMSTYLE
105
B
100
AcDbSymbolTableRecord
100
AcDbDimStyleTableRecord
  2
STANDARD
 70
0
  3

 40
1
 41
0.18
 42
0.0625
 44
0.18
 47
0
 48
0
 73
1
 74
1
 75
0
 76
0
 77
0
140
0.18
141
0.09
144
1
147
0.0625
173
0
174
0
176
0
177
0
178
0
277
2
278
46
281
0
282
0
271
4
340
A
371
-1
372
-1
  0
ENDTAB
  0
ENDSEC
  0
SECTION
  2
BLOCKS
  0
BLOCK
  5
154
100
AcDbEntity
  8
0
100
AcDbBlockBegin
  2
*MODEL_SPACE
 70
0
 10
0
 20
0
  0
ENDBLK
  5
155
100
AcDbEntity
  8
0
100
AcDbBlockEnd
  0
BLOCK
  5
156
100
AcDbEntity
  8
0
100
AcDbBlockBegin
  2
*PAPER_SPACE
 70
0
 10
0
 20
0
  0
ENDBLK
  5
157
100
AcDbEntity
  8
0
100
AcDbBlockEnd
  0
BLOCK
  5
F
100
AcDbEntity
  8
0
100
AcDbBlockBegin
  2
_CLOSEDFILLED
 70
0
 10
0
 20
0
 30
0
  3
_CLOSEDFILLED
  1

  0
SOLID
  5
C
100
AcDbEntity
  8
0
100
AcDbTrace
370
-2
 62
0
 10
-1
 20
0.166666666666667
 30
0
 11
0
 21
0
 31
0
 12
-1
 22
0.166666666666667
 32
0
 13
-1
 23
-0.166666666666667
 33
0
  0
LINE
  5
D
100
AcDbEntity
  8
0
100
AcDbLine
370
-2
 62
0
 10
-1
 20
0
 30
0
 11
-2
 21
0
 31
0
  0
ENDBLK
  5
158
100
AcDbEntity
  8
0
100
AcDbBlockEnd
  0
BLOCK
  5
13D
100
AcDbEntity
  8
200
100
AcDbBlockBegin
  2
GER_BLOCK_00001
 70
2
 10
0
 20
0
 30
0
  3
GER_BLOCK_00001
  1

  0
LINE
  5
25
100
AcDbEntity
  8
200
100
AcDbLine
370
-1
  6
AUSGEZOGEN
 10
0
 20
850
 30
0
 11
0
 21
810
 31
0
  0
LINE
  5
26
100
AcDbEntity
  8
200
100
AcDbLine
370
-1
  6
AUSGEZOGEN
 10
1735
 20
850
 30
0
 11
0
 21
850
 31
0
  0
LINE
  5
27
100
AcDbEntity
  8
200
100
AcDbLine
370
-1
  6
AUSGEZOGEN
 10
1735
 20
810
 30
0
 11
1735
 21
850
 31
0
  0
LINE
  5
28
100
AcDbEntity
  8
200
100
AcDbLine
370
-1
  6
AUSGEZOGEN
 10
1732
 20
150
 30
0
 11
1732
 21
810
 31
0
  0
LINE
  5
29
100
AcDbEntity
  8
200
100
AcDbLine
370
-1
  6
AUSGEZOGEN
 10
2
 20
810
 30
0
 11
2
 21
150
 31
0
  0
LINE
  5
2A
100
AcDbEntity
  8
200
100
AcDbLine
370
-1
  6
AUSGEZOGEN
 10
1735
 20
810
 30
0
 11
0
 21
810
 31
0
  0
LINE
  5
2B
100
AcDbEntity
  8
200
100
AcDbLine
370
-1
  6
AUSGEZOGEN
 10
62
 20
0
 30
0
 11
62
 21
50
 31
0
  0
LINE
  5
2C
100
AcDbEntity
  8
200
100
AcDbLine
370
-1
  6
AUSGEZOGEN
 10
102
 20
50
 30
0
 11
102
 21
0
 31
0
  0
LINE
  5
2D
100
AcDbEntity
  8
200
100
AcDbLine
370
-1
  6
AUSGEZOGEN
 10
62
 20
0
 30
0
 11
102
 21
0
 31
0
  0
LINE
  5
2E
100
AcDbEntity
  8
200
100
AcDbLine
370
-1
  6
AUSGEZOGEN
 10
57
 20
150
 30
0
 11
57
 21
50
 31
0
  0
LINE
  5
2F
100
AcDbEntity
  8
200
100
AcDbLine
370
-1
  6
AUSGEZOGEN
 10
107
 20
50
 30
0
 11
107
 21
150
 31
0
  0
LINE
  5
30
100
AcDbEntity
  8
200
100
AcDbLine
370
-1
  6
AUSGEZOGEN
 10
57
 20
50
 30
0
 11
107
 21
50
 31
0
  0
LINE
  5
31
100
AcDbEntity
  8
200
100
AcDbLine
370
-1
  6
AUSGEZOGEN
 10
1632
 20
0
 30
0
 11
1632
 21
50
 31
0
  0
LINE
  5
32
100
AcDbEntity
  8
200
100
AcDbLine
370
-1
  6
AUSGEZOGEN
 10
1672
 20
50
 30
0
 11
1672
 21
0
 31
0
  0
LINE
  5
33
100
AcDbEntity
  8
200
100
AcDbLine
370
-1
  6
AUSGEZOGEN
 10
1632
 20
0
 30
0
 11
1672
 21
0
 31
0
  0
LINE
  5
34
100
AcDbEntity
  8
200
100
AcDbLine
370
-1
  6
AUSGEZOGEN
 10
1627
 20
150
 30
0
 11
1627
 21
50
 31
0
  0
LINE
  5
35
100
AcDbEntity
  8
200
100
AcDbLine
370
-1
  6
AUSGEZOGEN
 10
2
 20
150
 30
0
 11
1732
 21
150
 31
0
  0
LINE
  5
36
100
AcDbEntity
  8
200
100
AcDbLine
370
-1
  6
AUSGEZOGEN
 10
1677
 20
50
 30
0
 11
1677
 21
150
 31
0
  0
LINE
  5
37
100
AcDbEntity
  8
200
100
AcDbLine
370
-1
  6
AUSGEZOGEN
 10
1627
 20
50
 30
0
 11
1677
 21
50
 31
0
  0
LINE
  5
38
100
AcDbEntity
  8
200
100
AcDbLine
370
-1
  6
AUSGEZOGEN
 10
1392
 20
795
 30
0
 11
1722
 21
795
 31
0
  0
LINE
  5
39
100
AcDbEntity
  8
200
100
AcDbLine
370
-1
  6
AUSGEZOGEN
 10
1392
 20
170
 30
0
 11
1392
 21
795
 31
0
  0
LINE
  5
3A
100
AcDbEntity
  8
200
100
AcDbLine
370
-1
  6
AUSGEZOGEN
 10
1722
 20
795
 30
0
 11
1722
 21
170
 31
0
  0
LINE
  5
3B
100
AcDbEntity
  8
200
100
AcDbLine
370
-1
  6
AUSGEZOGEN
 10
1392
 20
170
 30
0
 11
1722
 21
170
 31
0
  0
LINE
  5
3C
100
AcDbEntity
  8
200
100
AcDbLine
370
-1
  6
AUSGEZOGEN
 10
1707
 20
627
 30
0
 11
1407
 21
627
 31
0
  0
LINE
  5
3D
100
AcDbEntity
  8
200
100
AcDbLine
370
-1
  6
AUSGEZOGEN
 10
1407
 20
187
 30
0
 11
1707
 21
187
 31
0
  0
LINE
  5
3E
100
AcDbEntity
  8
200
100
AcDbLine
370
-1
  6
AUSGEZOGEN
 10
1707
 20
208
 30
0
 11
1407
 21
208
 31
0
  0
LINE
  5
3F
100
AcDbEntity
  8
200
100
AcDbLine
370
-1
  6
AUSGEZOGEN
 10
1407
 20
198
 30
0
 11
1707
 21
198
 31
0
  0
LINE
  5
40
100
AcDbEntity
  8
200
100
AcDbLine
370
-1
  6
AUSGEZOGEN
 10
1707
 20
232
 30
0
 11
1407
 21
232
 31
0
  0
LINE
  5
41
100
AcDbEntity
  8
200
100
AcDbLine
370
-1
  6
AUSGEZOGEN
 10
1407
 20
222
 30
0
 11
1707
 21
222
 31
0
  0
LINE
  5
42
100
AcDbEntity
  8
200
100
AcDbLine
370
-1
  6
AUSGEZOGEN
 10
1707
 20
256
 30
0
 11
1407
 21
256
 31
0
  0
LINE
  5
43
100
AcDbEntity
  8
200
100
AcDbLine
370
-1
  6
AUSGEZOGEN
 10
1407
 20
246
 30
0
 11
1707
 21
246
 31
0
  0
LINE
  5
44
100
AcDbEntity
  8
200
100
AcDbLine
370
-1
  6
AUSGEZOGEN
 10
1707
 20
280
 30
0
 11
1407
 21
280
 31
0
  0
LINE
  5
45
100
AcDbEntity
  8
200
100
AcDbLine
370
-1
  6
AUSGEZOGEN
 10
1407
 20
270
 30
0
 11
1707
 21
270
 31
0
  0
LINE
  5
46
100
AcDbEntity
  8
200
100
AcDbLine
370
-1
  6
AUSGEZOGEN
 10
1707
 20
304
 30
0
 11
1407
 21
304
 31
0
  0
LINE
  5
47
100
AcDbEntity
  8
200
100
AcDbLine
370
-1
  6
AUSGEZOGEN
 10
1407
 20
294
 30
0
 11
1707
 21
294
 31
0
  0
LINE
  5
48
100
AcDbEntity
  8
200
100
AcDbLine
370
-1
  6
AUSGEZOGEN
 10
1495.62
 20
328
 30
0
 11
1407
 21
328
 31
0
  0
LINE
  5
49
100
AcDbEntity
  8
200
100
AcDbLine
370
-1
  6
AUSGEZOGEN
 10
1707
 20
328
 30
0
 11
1618.38
 21
328
 31
0
  0
LINE
  5
4A
100
AcDbEntity
  8
200
100
AcDbLine
370
-1
  6
AUSGEZOGEN
 10
1604.64
 20
318
 30
0
 11
1707
 21
318
 31
0
  0
LINE
  5
4B
100
AcDbEntity
  8
200
100
AcDbLine
370
-1
  6
AUSGEZOGEN
 10
1407
 20
318
 30
0
 11
1509.36
 21
318
 31
0
  0
LINE
  5
4C
100
AcDbEntity
  8
200
100
AcDbLine
370
-1
  6
AUSGEZOGEN
 10
1473.36
 20
352
 30
0
 11
1407
 21
352
 31
0
  0
LINE
  5
4D
100
AcDbEntity
  8
200
100
AcDbLine
370
-1
  6
AUSGEZOGEN
 10
1707
 20
352
 30
0
 11
1640.64
 21
352
 31
0
  0
LINE
  5
4E
100
AcDbEntity
  8
200
100
AcDbLine
370
-1
  6
AUSGEZOGEN
 10
1633.37
 20
342
 30
0
 11
1707
 21
342
 31
0
  0
LINE
  5
4F
100
AcDbEntity
  8
200
100
AcDbLine
370
-1
  6
AUSGEZOGEN
 10
1407
 20
342
 30
0
 11
1480.63
 21
342
 31
0
  0
LINE
  5
50
100
AcDbEntity
  8
200
100
AcDbLine
370
-1
  6
AUSGEZOGEN
 10
1461.92
 20
376
 30
0
 11
1407
 21
376
 31
0
  0
LINE
  5
51
100
AcDbEntity
  8
200
100
AcDbLine
370
-1
  6
AUSGEZOGEN
 10
1707
 20
376
 30
0
 11
1652.08
 21
376
 31
0
  0
LINE
  5
52
100
AcDbEntity
  8
200
100
AcDbLine
370
-1
  6
AUSGEZOGEN
 10
1648.83
 20
366
 30
0
 11
1707
 21
366
 31
0
  0
LINE
  5
53
100
AcDbEntity
  8
200
100
AcDbLine
370
-1
  6
AUSGEZOGEN
 10
1407
 20
366
 30
0
 11
1465.17
 21
366
 31
0
  0
LINE
  5
54
100
AcDbEntity
  8
200
100
AcDbLine
370
-1
  6
AUSGEZOGEN
 10
1457
 20
400
 30
0
 11
1407
 21
400
 31
0
  0
LINE
  5
55
100
AcDbEntity
  8
200
100
AcDbLine
370
-1
  6
AUSGEZOGEN
 10
1707
 20
400
 30
0
 11
1657
 21
400
 31
0
  0
LINE
  5
56
100
AcDbEntity
  8
200
100
AcDbLine
370
-1
  6
AUSGEZOGEN
 10
1656.62
 20
390
 30
0
 11
1707
 21
390
 31
0
  0
LINE
  5
57
100
AcDbEntity
  8
200
100
AcDbLine
370
-1
  6
AUSGEZOGEN
 10
1407
 20
390
 30
0
 11
1457.38
 21
390
 31
0
  0
LINE
  5
58
100
AcDbEntity
  8
200
100
AcDbLine
370
-1
  6
AUSGEZOGEN
 10
1457.38
 20
424
 30
0
 11
1407
 21
424
 31
0
  0
LINE
  5
59
100
AcDbEntity
  8
200
100
AcDbLine
370
-1
  6
AUSGEZOGEN
 10
1707
 20
424
 30
0
 11
1656.62
 21
424
 31
0
  0
LINE
  5
5A
100
AcDbEntity
  8
200
100
AcDbLine
370
-1
  6
AUSGEZOGEN
 10
1657
 20
414
 30
0
 11
1707
 21
414
 31
0
  0
LINE
  5
5B
100
AcDbEntity
  8
200
100
AcDbLine
370
-1
  6
AUSGEZOGEN
 10
1407
 20
414
 30
0
 11
1457
 21
414
 31
0
  0
LINE
  5
5C
100
AcDbEntity
  8
200
100
AcDbLine
370
-1
  6
AUSGEZOGEN
 10
1465.17
 20
448
 30
0
 11
1407
 21
448
 31
0
  0
LINE
  5
5D
100
AcDbEntity
  8
200
100
AcDbLine
370
-1
  6
AUSGEZOGEN
 10
1707
 20
448
 30
0
 11
1648.83
 21
448
 31
0
  0
LINE
  5
5E
100
AcDbEntity
  8
200
100
AcDbLine
370
-1
  6
AUSGEZOGEN
 10
1652.08
 20
438
 30
0
 11
1707
 21
438
 31
0
  0
LINE
  5
5F
100
AcDbEntity
  8
200
100
AcDbLine
370
-1
  6
AUSGEZOGEN
 10
1407
 20
438
 30
0
 11
1461.92
 21
438
 31
0
  0
LINE
  5
60
100
AcDbEntity
  8
200
100
AcDbLine
370
-1
  6
AUSGEZOGEN
 10
1480.63
 20
472
 30
0
 11
1407
 21
472
 31
0
  0
LINE
  5
61
100
AcDbEntity
  8
200
100
AcDbLine
370
-1
  6
AUSGEZOGEN
 10
1707
 20
472
 30
0
 11
1633.37
 21
472
 31
0
  0
LINE
  5
62
100
AcDbEntity
  8
200
100
AcDbLine
370
-1
  6
AUSGEZOGEN
 10
1640.64
 20
462
 30
0
 11
1707
 21
462
 31
0
  0
LINE
  5
63
100
AcDbEntity
  8
200
100
AcDbLine
370
-1
  6
AUSGEZOGEN
 10
1407
 20
462
 30
0
 11
1473.36
 21
462
 31
0
  0
LINE
  5
64
100
AcDbEntity
  8
200
100
AcDbLine
370
-1
  6
AUSGEZOGEN
 10
1509.36
 20
496
 30
0
 11
1407
 21
496
 31
0
  0
LINE
  5
65
100
AcDbEntity
  8
200
100
AcDbLine
370
-1
  6
AUSGEZOGEN
 10
1707
 20
496
 30
0
 11
1604.64
 21
496
 31
0
  0
LINE
  5
66
100
AcDbEntity
  8
200
100
AcDbLine
370
-1
  6
AUSGEZOGEN
 10
1618.38
 20
486
 30
0
 11
1707
 21
486
 31
0
  0
LINE
  5
67
100
AcDbEntity
  8
200
100
AcDbLine
370
-1
  6
AUSGEZOGEN
 10
1407
 20
486
 30
0
 11
1495.62
 21
486
 31
0
  0
LINE
  5
68
100
AcDbEntity
  8
200
100
AcDbLine
370
-1
  6
AUSGEZOGEN
 10
1707
 20
520
 30
0
 11
1407
 21
520
 31
0
  0
LINE
  5
69
100
AcDbEntity
  8
200
100
AcDbLine
370
-1
  6
AUSGEZOGEN
 10
1407
 20
510
 30
0
 11
1707
 21
510
 31
0
  0
LINE
  5
6A
100
AcDbEntity
  8
200
100
AcDbLine
370
-1
  6
AUSGEZOGEN
 10
1707
 20
544
 30
0
 11
1407
 21
544
 31
0
  0
LINE
  5
6B
100
AcDbEntity
  8
200
100
AcDbLine
370
-1
  6
AUSGEZOGEN
 10
1407
 20
534
 30
0
 11
1707
 21
534
 31
0
  0
LINE
  5
6C
100
AcDbEntity
  8
200
100
AcDbLine
370
-1
  6
AUSGEZOGEN
 10
1707
 20
568
 30
0
 11
1407
 21
568
 31
0
  0
LINE
  5
6D
100
AcDbEntity
  8
200
100
AcDbLine
370
-1
  6
AUSGEZOGEN
 10
1407
 20
558
 30
0
 11
1707
 21
558
 31
0
  0
LINE
  5
6E
100
AcDbEntity
  8
200
100
AcDbLine
370
-1
  6
AUSGEZOGEN
 10
1707
 20
592
 30
0
 11
1407
 21
592
 31
0
  0
LINE
  5
6F
100
AcDbEntity
  8
200
100
AcDbLine
370
-1
  6
AUSGEZOGEN
 10
1407
 20
582
 30
0
 11
1707
 21
582
 31
0
  0
LINE
  5
70
100
AcDbEntity
  8
200
100
AcDbLine
370
-1
  6
AUSGEZOGEN
 10
1407
 20
187
 30
0
 11
1407
 21
627
 31
0
  0
LINE
  5
71
100
AcDbEntity
  8
200
100
AcDbLine
370
-1
  6
AUSGEZOGEN
 10
1707
 20
616
 30
0
 11
1407
 21
616
 31
0
  0
LINE
  5
72
100
AcDbEntity
  8
200
100
AcDbLine
370
-1
  6
AUSGEZOGEN
 10
1707
 20
187
 30
0
 11
1707
 21
627
 31
0
  0
LINE
  5
73
100
AcDbEntity
  8
200
100
AcDbLine
370
-1
  6
AUSGEZOGEN
 10
1407
 20
606
 30
0
 11
1707
 21
606
 31
0
  0
LINE
  5
74
100
AcDbEntity
  8
200
100
AcDbLine
370
-1
  6
AUSGEZOGEN
 10
1457
 20
391.16
 30
0
 11
1457
 21
422.84
 31
0
  0
LINE
  5
75
100
AcDbEntity
  8
200
100
AcDbLine
370
-1
  6
AUSGEZOGEN
 10
1466.78
 20
452.96
 30
0
 11
1457
 21
422.84
 31
0
  0
LINE
  5
76
100
AcDbEntity
  8
200
100
AcDbLine
370
-1
  6
AUSGEZOGEN
 10
1485.42
 20
478.58
 30
0
 11
1466.78
 21
452.96
 31
0
  0
LINE
  5
77
100
AcDbEntity
  8
200
100
AcDbLine
370
-1
  6
AUSGEZOGEN
 10
1511.04
 20
497.22
 30
0
 11
1485.42
 21
478.58
 31
0
  0
LINE
  5
78
100
AcDbEntity
  8
200
100
AcDbLine
370
-1
  6
AUSGEZOGEN
 10
1541.16
 20
507
 30
0
 11
1511.04
 21
497.22
 31
0
  0
LINE
  5
79
100
AcDbEntity
  8
200
100
AcDbLine
370
-1
  6
AUSGEZOGEN
 10
1572.84
 20
507
 30
0
 11
1541.16
 21
507
 31
0
  0
LINE
  5
7A
100
AcDbEntity
  8
200
100
AcDbLine
370
-1
  6
AUSGEZOGEN
 10
1602.96
 20
497.22
 30
0
 11
1572.84
 21
507
 31
0
  0
LINE
  5
7B
100
AcDbEntity
  8
200
100
AcDbLine
370
-1
  6
AUSGEZOGEN
 10
1628.58
 20
478.58
 30
0
 11
1602.96
 21
497.22
 31
0
  0
LINE
  5
7C
100
AcDbEntity
  8
200
100
AcDbLine
370
-1
  6
AUSGEZOGEN
 10
1647.22
 20
452.96
 30
0
 11
1628.58
 21
478.58
 31
0
  0
LINE
  5
7D
100
AcDbEntity
  8
200
100
AcDbLine
370
-1
  6
AUSGEZOGEN
 10
1657
 20
422.84
 30
0
 11
1647.22
 21
452.96
 31
0
  0
LINE
  5
7E
100
AcDbEntity
  8
200
100
AcDbLine
370
-1
  6
AUSGEZOGEN
 10
1647.22
 20
361.04
 30
0
 11
1657
 21
391.16
 31
0
  0
LINE
  5
7F
100
AcDbEntity
  8
200
100
AcDbLine
370
-1
  6
AUSGEZOGEN
 10
1628.58
 20
335.42
 30
0
 11
1647.22
 21
361.04
 31
0
  0
LINE
  5
80
100
AcDbEntity
  8
200
100
AcDbLine
370
-1
  6
AUSGEZOGEN
 10
1602.96
 20
316.78
 30
0
 11
1628.58
 21
335.42
 31
0
  0
LINE
  5
81
100
AcDbEntity
  8
200
100
AcDbLine
370
-1
  6
AUSGEZOGEN
 10
1572.84
 20
307
 30
0
 11
1602.96
 21
316.78
 31
0
  0
LINE
  5
82
100
AcDbEntity
  8
200
100
AcDbLine
370
-1
  6
AUSGEZOGEN
 10
1511.04
 20
316.78
 30
0
 11
1541.16
 21
307
 31
0
  0
LINE
  5
83
100
AcDbEntity
  8
200
100
AcDbLine
370
-1
  6
AUSGEZOGEN
 10
1485.42
 20
335.42
 30
0
 11
1511.04
 21
316.78
 31
0
  0
LINE
  5
84
100
AcDbEntity
  8
200
100
AcDbLine
370
-1
  6
AUSGEZOGEN
 10
1466.78
 20
361.04
 30
0
 11
1485.42
 21
335.42
 31
0
  0
LINE
  5
85
100
AcDbEntity
  8
200
100
AcDbLine
370
-1
  6
AUSGEZOGEN
 10
1457
 20
391.16
 30
0
 11
1466.78
 21
361.04
 31
0
  0
LINE
  5
86
100
AcDbEntity
  8
200
100
AcDbLine
370
-1
  6
AUSGEZOGEN
 10
1657
 20
422.84
 30
0
 11
1657
 21
391.16
 31
0
  0
LINE
  5
87
100
AcDbEntity
  8
200
100
AcDbLine
370
-1
  6
AUSGEZOGEN
 10
1541.16
 20
307
 30
0
 11
1572.84
 21
307
 31
0
  0
LINE
  5
88
100
AcDbEntity
  8
200
100
AcDbLine
370
-1
  6
AUSGEZOGEN
 10
1492
 20
414
 30
0
 11
1492
 21
400
 31
0
  0
LINE
  5
89
100
AcDbEntity
  8
200
100
AcDbLine
370
-1
  6
AUSGEZOGEN
 10
1498.36
 20
436.87
 30
0
 11
1492
 21
417.3
 31
0
  0
LINE
  5
8A
100
AcDbEntity
  8
200
100
AcDbLine
370
-1
  6
AUSGEZOGEN
 10
1499.18
 20
438
 30
0
 11
1498.36
 21
436.87
 31
0
  0
LINE
  5
8B
100
AcDbEntity
  8
200
100
AcDbLine
370
-1
  6
AUSGEZOGEN
 10
1510.47
 20
453.53
 30
0
 11
1506.45
 21
448
 31
0
  0
LINE
  5
8C
100
AcDbEntity
  8
200
100
AcDbLine
370
-1
  6
AUSGEZOGEN
 10
1522.12
 20
462
 30
0
 11
1510.47
 21
453.53
 31
0
  0
LINE
  5
8D
100
AcDbEntity
  8
200
100
AcDbLine
370
-1
  6
AUSGEZOGEN
 10
1603.53
 20
453.53
 30
0
 11
1591.88
 21
462
 31
0
  0
LINE
  5
8E
100
AcDbEntity
  8
200
100
AcDbLine
370
-1
  6
AUSGEZOGEN
 10
1607.55
 20
448
 30
0
 11
1603.53
 21
453.53
 31
0
  0
LINE
  5
8F
100
AcDbEntity
  8
200
100
AcDbLine
370
-1
  6
AUSGEZOGEN
 10
1615.64
 20
436.87
 30
0
 11
1614.82
 21
438
 31
0
  0
LINE
  5
90
100
AcDbEntity
  8
200
100
AcDbLine
370
-1
  6
AUSGEZOGEN
 10
1622
 20
417.3
 30
0
 11
1615.64
 21
436.87
 31
0
  0
LINE
  5
91
100
AcDbEntity
  8
200
100
AcDbLine
370
-1
  6
AUSGEZOGEN
 10
1615.64
 20
377.13
 30
0
 11
1622
 21
396.7
 31
0
  0
LINE
  5
92
100
AcDbEntity
  8
200
100
AcDbLine
370
-1
  6
AUSGEZOGEN
 10
1614.82
 20
376
 30
0
 11
1615.64
 21
377.13
 31
0
  0
LINE
  5
93
100
AcDbEntity
  8
200
100
AcDbLine
370
-1
  6
AUSGEZOGEN
 10
1603.53
 20
360.47
 30
0
 11
1607.55
 21
366
 31
0
  0
LINE
  5
94
100
AcDbEntity
  8
200
100
AcDbLine
370
-1
  6
AUSGEZOGEN
 10
1591.88
 20
352
 30
0
 11
1603.53
 21
360.47
 31
0
  0
LINE
  5
95
100
AcDbEntity
  8
200
100
AcDbLine
370
-1
  6
AUSGEZOGEN
 10
1510.47
 20
360.47
 30
0
 11
1522.12
 21
352
 31
0
  0
LINE
  5
96
100
AcDbEntity
  8
200
100
AcDbLine
370
-1
  6
AUSGEZOGEN
 10
1506.45
 20
366
 30
0
 11
1510.47
 21
360.47
 31
0
  0
LINE
  5
97
100
AcDbEntity
  8
200
100
AcDbLine
370
-1
  6
AUSGEZOGEN
 10
1498.36
 20
377.13
 30
0
 11
1499.18
 21
376
 31
0
  0
LINE
  5
98
100
AcDbEntity
  8
200
100
AcDbLine
370
-1
  6
AUSGEZOGEN
 10
1492
 20
396.7
 30
0
 11
1498.36
 21
377.13
 31
0
  0
LINE
  5
99
100
AcDbEntity
  8
200
100
AcDbLine
370
-1
  6
AUSGEZOGEN
 10
1622
 20
417.3
 30
0
 11
1622
 21
396.7
 31
0
  0
LINE
  5
9A
100
AcDbEntity
  8
200
100
AcDbLine
370
-1
  6
AUSGEZOGEN
 10
1522.12
 20
352
 30
0
 11
1591.88
 21
352
 31
0
  0
LINE
  5
9B
100
AcDbEntity
  8
200
100
AcDbLine
370
-1
  6
AUSGEZOGEN
 10
1567.3
 20
342
 30
0
 11
1546.7
 21
342
 31
0
  0
LINE
  5
9C
100
AcDbEntity
  8
200
100
AcDbLine
370
-1
  6
AUSGEZOGEN
 10
1499.18
 20
376
 30
0
 11
1614.82
 21
376
 31
0
  0
LINE
  5
9D
100
AcDbEntity
  8
200
100
AcDbLine
370
-1
  6
AUSGEZOGEN
 10
1607.55
 20
366
 30
0
 11
1506.45
 21
366
 31
0
  0
LINE
  5
9E
100
AcDbEntity
  8
200
100
AcDbLine
370
-1
  6
AUSGEZOGEN
 10
1492
 20
400
 30
0
 11
1622
 21
400
 31
0
  0
LINE
  5
9F
100
AcDbEntity
  8
200
100
AcDbLine
370
-1
  6
AUSGEZOGEN
 10
1619.82
 20
390
 30
0
 11
1494.18
 21
390
 31
0
  0
LINE
  5
A0
100
AcDbEntity
  8
200
100
AcDbLine
370
-1
  6
AUSGEZOGEN
 10
1494.18
 20
424
 30
0
 11
1619.82
 21
424
 31
0
  0
LINE
  5
A1
100
AcDbEntity
  8
200
100
AcDbLine
370
-1
  6
AUSGEZOGEN
 10
1622
 20
414
 30
0
 11
1492
 21
414
 31
0
  0
LINE
  5
A2
100
AcDbEntity
  8
200
100
AcDbLine
370
-1
  6
AUSGEZOGEN
 10
1506.45
 20
448
 30
0
 11
1607.55
 21
448
 31
0
  0
LINE
  5
A3
100
AcDbEntity
  8
200
100
AcDbLine
370
-1
  6
AUSGEZOGEN
 10
1614.82
 20
438
 30
0
 11
1499.18
 21
438
 31
0
  0
LINE
  5
A4
100
AcDbEntity
  8
200
100
AcDbLine
370
-1
  6
AUSGEZOGEN
 10
1546.7
 20
472
 30
0
 11
1567.3
 21
472
 31
0
  0
LINE
  5
A5
100
AcDbEntity
  8
200
100
AcDbLine
370
-1
  6
AUSGEZOGEN
 10
1591.88
 20
462
 30
0
 11
1522.12
 21
462
 31
0
  0
LINE
  5
A6
100
AcDbEntity
  8
200
100
AcDbLine
370
-1
  6
AUSGEZOGEN
 10
1435.66
 20
745
 30
0
 11
1678.34
 21
745
 31
0
  0
LINE
  5
A7
100
AcDbEntity
  8
200
100
AcDbLine
370
-1
  6
AUSGEZOGEN
 10
1680.66
 20
743.88
 30
0
 11
1678.34
 21
745
 31
0
  0
LINE
  5
A8
100
AcDbEntity
  8
200
100
AcDbLine
370
-1
  6
AUSGEZOGEN
 10
1682
 20
741.95
 30
0
 11
1680.66
 21
743.88
 31
0
  0
LINE
  5
A9
100
AcDbEntity
  8
200
100
AcDbLine
370
-1
  6
AUSGEZOGEN
 10
1680.66
 20
691.12
 30
0
 11
1682
 21
693.05
 31
0
  0
LINE
  5
AA
100
AcDbEntity
  8
200
100
AcDbLine
370
-1
  6
AUSGEZOGEN
 10
1678.34
 20
690
 30
0
 11
1680.66
 21
691.12
 31
0
  0
LINE
  5
AB
100
AcDbEntity
  8
200
100
AcDbLine
370
-1
  6
AUSGEZOGEN
 10
1433.34
 20
743.88
 30
0
 11
1432
 21
741.95
 31
0
  0
LINE
  5
AC
100
AcDbEntity
  8
200
100
AcDbLine
370
-1
  6
AUSGEZOGEN
 10
1435.66
 20
745
 30
0
 11
1433.34
 21
743.88
 31
0
  0
LINE
  5
AD
100
AcDbEntity
  8
200
100
AcDbLine
370
-1
  6
AUSGEZOGEN
 10
1682
 20
693.05
 30
0
 11
1682
 21
741.95
 31
0
  0
LINE
  5
AE
100
AcDbEntity
  8
200
100
AcDbLine
370
-1
  6
AUSGEZOGEN
 10
1436.98
 20
705
 30
0
 11
1441.58
 21
703.1
 31
0
  0
LINE
  5
AF
100
AcDbEntity
  8
200
100
AcDbLine
370
-1
  6
AUSGEZOGEN
 10
1445.1
 20
699.58
 30
0
 11
1441.58
 21
703.1
 31
0
  0
LINE
  5
B0
100
AcDbEntity
  8
200
100
AcDbLine
370
-1
  6
AUSGEZOGEN
 10
1447
 20
694.99
 30
0
 11
1445.1
 21
699.58
 31
0
  0
LINE
  5
B1
100
AcDbEntity
  8
200
100
AcDbLine
370
-1
  6
AUSGEZOGEN
 10
1447
 20
690.02
 30
0
 11
1447
 21
694.99
 31
0
  0
LINE
  5
B2
100
AcDbEntity
  8
200
100
AcDbLine
370
-1
  6
AUSGEZOGEN
 10
1435.66
 20
690
 30
0
 11
1447
 21
690.02
 31
0
  0
LINE
  5
B3
100
AcDbEntity
  8
200
100
AcDbLine
370
-1
  6
AUSGEZOGEN
 10
1432
 20
693.05
 30
0
 11
1433.34
 21
691.12
 31
0
  0
LINE
  5
B4
100
AcDbEntity
  8
200
100
AcDbLine
370
-1
  6
AUSGEZOGEN
 10
1436.98
 20
705
 30
0
 11
1432
 21
705
 31
0
  0
LINE
  5
B5
100
AcDbEntity
  8
200
100
AcDbLine
370
-1
  6
AUSGEZOGEN
 10
1678.34
 20
690
 30
0
 11
1435.66
 21
690
 31
0
  0
LINE
  5
B6
100
AcDbEntity
  8
200
100
AcDbLine
370
-1
  6
AUSGEZOGEN
 10
1432
 20
741.95
 30
0
 11
1432
 21
693.05
 31
0
  0
LINE
  5
B7
100
AcDbEntity
  8
200
100
AcDbLine
370
-1
  6
AUSGEZOGEN
 10
1455.74
 20
724.3
 30
0
 11
1441.96
 21
730
 31
0
  0
LINE
  5
B8
100
AcDbEntity
  8
200
100
AcDbLine
370
-1
  6
AUSGEZOGEN
 10
1466.3
 20
713.74
 30
0
 11
1455.74
 21
724.3
 31
0
  0
LINE
  5
B9
100
AcDbEntity
  8
200
100
AcDbLine
370
-1
  6
AUSGEZOGEN
 10
1472
 20
699.96
 30
0
 11
1466.3
 21
713.74
 31
0
  0
LINE
  5
BA
100
AcDbEntity
  8
200
100
AcDbLine
370
-1
  6
AUSGEZOGEN
 10
1472
 20
690
 30
0
 11
1472
 21
699.96
 31
0
  0
LINE
  5
BB
100
AcDbEntity
  8
200
100
AcDbLine
370
-1
  6
AUSGEZOGEN
 10
1433.34
 20
691.12
 30
0
 11
1435.66
 21
690
 31
0
  0
LINE
  5
BC
100
AcDbEntity
  8
200
100
AcDbLine
370
-1
  6
AUSGEZOGEN
 10
1441.96
 20
730
 30
0
 11
1432
 21
730
 31
0
  0
LINE
  5
BD
100
AcDbEntity
  8
200
100
AcDbLine
370
-1
  6
AUSGEZOGEN
 10
1536.51
 20
733
 30
0
 11
1487.49
 21
733
 31
0
  0
LINE
  5
BE
100
AcDbEntity
  8
200
100
AcDbLine
370
-1
  6
AUSGEZOGEN
 10
1539.99
 20
731.09
 30
0
 11
1536.51
 21
733
 31
0
  0
LINE
  5
BF
100
AcDbEntity
  8
200
100
AcDbLine
370
-1
  6
AUSGEZOGEN
 10
1542
 20
727.77
 30
0
 11
1539.99
 21
731.09
 31
0
  0
LINE
  5
C0
100
AcDbEntity
  8
200
100
AcDbLine
370
-1
  6
AUSGEZOGEN
 10
1539.99
 20
704.91
 30
0
 11
1542
 21
708.23
 31
0
  0
LINE
  5
C1
100
AcDbEntity
  8
200
100
AcDbLine
370
-1
  6
AUSGEZOGEN
 10
1536.51
 20
703
 30
0
 11
1539.99
 21
704.91
 31
0
  0
LINE
  5
C2
100
AcDbEntity
  8
200
100
AcDbLine
370
-1
  6
AUSGEZOGEN
 10
1484.01
 20
704.91
 30
0
 11
1487.49
 21
703
 31
0
  0
LINE
  5
C3
100
AcDbEntity
  8
200
100
AcDbLine
370
-1
  6
AUSGEZOGEN
 10
1482
 20
708.23
 30
0
 11
1484.01
 21
704.91
 31
0
  0
LINE
  5
C4
100
AcDbEntity
  8
200
100
AcDbLine
370
-1
  6
AUSGEZOGEN
 10
1482
 20
727.77
 30
0
 11
1482
 21
708.23
 31
0
  0
LINE
  5
C5
100
AcDbEntity
  8
200
100
AcDbLine
370
-1
  6
AUSGEZOGEN
 10
1484.01
 20
731.09
 30
0
 11
1482
 21
727.77
 31
0
  0
LINE
  5
C6
100
AcDbEntity
  8
200
100
AcDbLine
370
-1
  6
AUSGEZOGEN
 10
1487.49
 20
733
 30
0
 11
1484.01
 21
731.09
 31
0
  0
LINE
  5
C7
100
AcDbEntity
  8
200
100
AcDbLine
370
-1
  6
AUSGEZOGEN
 10
1536.51
 20
703
 30
0
 11
1487.49
 21
703
 31
0
  0
LINE
  5
C8
100
AcDbEntity
  8
200
100
AcDbLine
370
-1
  6
AUSGEZOGEN
 10
1542
 20
727.77
 30
0
 11
1542
 21
708.23
 31
0
  0
LINE
  5
C9
100
AcDbEntity
  8
200
100
AcDbLine
370
-1
  6
AUSGEZOGEN
 10
1612
 20
719
 30
0
 11
1598
 21
719
 31
0
  0
LINE
  5
CA
100
AcDbEntity
  8
200
100
AcDbLine
370
-1
  6
AUSGEZOGEN
 10
1612
 20
733
 30
0
 11
1612
 21
719
 31
0
  0
LINE
  5
CB
100
AcDbEntity
  8
200
100
AcDbLine
370
-1
  6
AUSGEZOGEN
 10
1598
 20
733
 30
0
 11
1612
 21
733
 31
0
  0
LINE
  5
CC
100
AcDbEntity
  8
200
100
AcDbLine
370
-1
  6
AUSGEZOGEN
 10
1598
 20
719
 30
0
 11
1598
 21
733
 31
0
  0
LINE
  5
CD
100
AcDbEntity
  8
200
100
AcDbLine
370
-1
  6
AUSGEZOGEN
 10
1582
 20
719
 30
0
 11
1596
 21
719
 31
0
  0
LINE
  5
CE
100
AcDbEntity
  8
200
100
AcDbLine
370
-1
  6
AUSGEZOGEN
 10
1596
 20
733
 30
0
 11
1596
 21
719
 31
0
  0
LINE
  5
CF
100
AcDbEntity
  8
200
100
AcDbLine
370
-1
  6
AUSGEZOGEN
 10
1582
 20
733
 30
0
 11
1596
 21
733
 31
0
  0
LINE
  5
D0
100
AcDbEntity
  8
200
100
AcDbLine
370
-1
  6
AUSGEZOGEN
 10
1582
 20
719
 30
0
 11
1582
 21
733
 31
0
  0
LINE
  5
D1
100
AcDbEntity
  8
200
100
AcDbLine
370
-1
  6
AUSGEZOGEN
 10
1566
 20
719
 30
0
 11
1580
 21
719
 31
0
  0
LINE
  5
D2
100
AcDbEntity
  8
200
100
AcDbLine
370
-1
  6
AUSGEZOGEN
 10
1580
 20
733
 30
0
 11
1580
 21
719
 31
0
  0
LINE
  5
D3
100
AcDbEntity
  8
200
100
AcDbLine
370
-1
  6
AUSGEZOGEN
 10
1566
 20
733
 30
0
 11
1580
 21
733
 31
0
  0
LINE
  5
D4
100
AcDbEntity
  8
200
100
AcDbLine
370
-1
  6
AUSGEZOGEN
 10
1566
 20
719
 30
0
 11
1566
 21
733
 31
0
  0
LINE
  5
D5
100
AcDbEntity
  8
200
100
AcDbLine
370
-1
  6
AUSGEZOGEN
 10
1596
 20
703
 30
0
 11
1582
 21
703
 31
0
  0
LINE
  5
D6
100
AcDbEntity
  8
200
100
AcDbLine
370
-1
  6
AUSGEZOGEN
 10
1596
 20
717
 30
0
 11
1596
 21
703
 31
0
  0
LINE
  5
D7
100
AcDbEntity
  8
200
100
AcDbLine
370
-1
  6
AUSGEZOGEN
 10
1582
 20
717
 30
0
 11
1596
 21
717
 31
0
  0
LINE
  5
D8
100
AcDbEntity
  8
200
100
AcDbLine
370
-1
  6
AUSGEZOGEN
 10
1582
 20
703
 30
0
 11
1582
 21
717
 31
0
  0
LINE
  5
D9
100
AcDbEntity
  8
200
100
AcDbLine
370
-1
  6
AUSGEZOGEN
 10
1566
 20
703
 30
0
 11
1580
 21
703
 31
0
  0
LINE
  5
DA
100
AcDbEntity
  8
200
100
AcDbLine
370
-1
  6
AUSGEZOGEN
 10
1580
 20
717
 30
0
 11
1580
 21
703
 31
0
  0
LINE
  5
DB
100
AcDbEntity
  8
200
100
AcDbLine
370
-1
  6
AUSGEZOGEN
 10
1566
 20
717
 30
0
 11
1580
 21
717
 31
0
  0
LINE
  5
DC
100
AcDbEntity
  8
200
100
AcDbLine
370
-1
  6
AUSGEZOGEN
 10
1566
 20
703
 30
0
 11
1566
 21
717
 31
0
  0
LINE
  5
DD
100
AcDbEntity
  8
200
100
AcDbLine
370
-1
  6
AUSGEZOGEN
 10
1610
 20
727.3
 30
0
 11
1610
 21
724.7
 31
0
  0
LINE
  5
DE
100
AcDbEntity
  8
200
100
AcDbLine
370
-1
  6
AUSGEZOGEN
 10
1603.7
 20
721
 30
0
 11
1606.4
 21
721
 31
0
  0
LINE
  5
DF
100
AcDbEntity
  8
200
100
AcDbLine
370
-1
  6
AUSGEZOGEN
 10
1601.3
 20
729.7
 30
0
 11
1603.7
 21
731
 31
0
  0
LINE
  5
E0
100
AcDbEntity
  8
200
100
AcDbLine
370
-1
  6
AUSGEZOGEN
 10
1600
 20
727.3
 30
0
 11
1601.3
 21
729.7
 31
0
  0
LINE
  5
E1
100
AcDbEntity
  8
200
100
AcDbLine
370
-1
  6
AUSGEZOGEN
 10
1600
 20
724.7
 30
0
 11
1600
 21
727.3
 31
0
  0
LINE
  5
E2
100
AcDbEntity
  8
200
100
AcDbLine
370
-1
  6
AUSGEZOGEN
 10
1601.3
 20
722.3
 30
0
 11
1600
 21
724.7
 31
0
  0
LINE
  5
E3
100
AcDbEntity
  8
200
100
AcDbLine
370
-1
  6
AUSGEZOGEN
 10
1603.7
 20
721
 30
0
 11
1601.3
 21
722.3
 31
0
  0
LINE
  5
E4
100
AcDbEntity
  8
200
100
AcDbLine
370
-1
  6
AUSGEZOGEN
 10
1608.7
 20
722.3
 30
0
 11
1606.4
 21
721
 31
0
  0
LINE
  5
E5
100
AcDbEntity
  8
200
100
AcDbLine
370
-1
  6
AUSGEZOGEN
 10
1610
 20
724.7
 30
0
 11
1608.7
 21
722.3
 31
0
  0
LINE
  5
E6
100
AcDbEntity
  8
200
100
AcDbLine
370
-1
  6
AUSGEZOGEN
 10
1608.7
 20
729.7
 30
0
 11
1610
 21
727.3
 31
0
  0
LINE
  5
E7
100
AcDbEntity
  8
200
100
AcDbLine
370
-1
  6
AUSGEZOGEN
 10
1606.4
 20
731
 30
0
 11
1608.7
 21
729.7
 31
0
  0
LINE
  5
E8
100
AcDbEntity
  8
200
100
AcDbLine
370
-1
  6
AUSGEZOGEN
 10
1603.7
 20
731
 30
0
 11
1606.4
 21
731
 31
0
  0
LINE
  5
E9
100
AcDbEntity
  8
200
100
AcDbLine
370
-1
  6
AUSGEZOGEN
 10
1594
 20
724.7
 30
0
 11
1594
 21
727.3
 31
0
  0
LINE
  5
EA
100
AcDbEntity
  8
200
100
AcDbLine
370
-1
  6
AUSGEZOGEN
 10
1587.6
 20
721
 30
0
 11
1590.4
 21
721
 31
0
  0
LINE
  5
EB
100
AcDbEntity
  8
200
100
AcDbLine
370
-1
  6
AUSGEZOGEN
 10
1585.3
 20
729.7
 30
0
 11
1587.6
 21
731
 31
0
  0
LINE
  5
EC
100
AcDbEntity
  8
200
100
AcDbLine
370
-1
  6
AUSGEZOGEN
 10
1584
 20
727.3
 30
0
 11
1585.3
 21
729.7
 31
0
  0
LINE
  5
ED
100
AcDbEntity
  8
200
100
AcDbLine
370
-1
  6
AUSGEZOGEN
 10
1584
 20
724.7
 30
0
 11
1584
 21
727.3
 31
0
  0
LINE
  5
EE
100
AcDbEntity
  8
200
100
AcDbLine
370
-1
  6
AUSGEZOGEN
 10
1585.3
 20
722.3
 30
0
 11
1584
 21
724.7
 31
0
  0
LINE
  5
EF
100
AcDbEntity
  8
200
100
AcDbLine
370
-1
  6
AUSGEZOGEN
 10
1587.6
 20
721
 30
0
 11
1585.3
 21
722.3
 31
0
  0
LINE
  5
F0
100
AcDbEntity
  8
200
100
AcDbLine
370
-1
  6
AUSGEZOGEN
 10
1592.7
 20
722.3
 30
0
 11
1590.4
 21
721
 31
0
  0
LINE
  5
F1
100
AcDbEntity
  8
200
100
AcDbLine
370
-1
  6
AUSGEZOGEN
 10
1594
 20
724.7
 30
0
 11
1592.7
 21
722.3
 31
0
  0
LINE
  5
F2
100
AcDbEntity
  8
200
100
AcDbLine
370
-1
  6
AUSGEZOGEN
 10
1592.7
 20
729.7
 30
0
 11
1594
 21
727.3
 31
0
  0
LINE
  5
F3
100
AcDbEntity
  8
200
100
AcDbLine
370
-1
  6
AUSGEZOGEN
 10
1590.4
 20
731
 30
0
 11
1592.7
 21
729.7
 31
0
  0
LINE
  5
F4
100
AcDbEntity
  8
200
100
AcDbLine
370
-1
  6
AUSGEZOGEN
 10
1587.6
 20
731
 30
0
 11
1590.4
 21
731
 31
0
  0
LINE
  5
F5
100
AcDbEntity
  8
200
100
AcDbLine
370
-1
  6
AUSGEZOGEN
 10
1578
 20
724.7
 30
0
 11
1578
 21
727.3
 31
0
  0
LINE
  5
F6
100
AcDbEntity
  8
200
100
AcDbLine
370
-1
  6
AUSGEZOGEN
 10
1571.6
 20
721
 30
0
 11
1574.3
 21
721
 31
0
  0
LINE
  5
F7
100
AcDbEntity
  8
200
100
AcDbLine
370
-1
  6
AUSGEZOGEN
 10
1569.3
 20
729.7
 30
0
 11
1571.6
 21
731
 31
0
  0
LINE
  5
F8
100
AcDbEntity
  8
200
100
AcDbLine
370
-1
  6
AUSGEZOGEN
 10
1568
 20
727.3
 30
0
 11
1569.3
 21
729.7
 31
0
  0
LINE
  5
F9
100
AcDbEntity
  8
200
100
AcDbLine
370
-1
  6
AUSGEZOGEN
 10
1568
 20
724.7
 30
0
 11
1568
 21
727.3
 31
0
  0
LINE
  5
FA
100
AcDbEntity
  8
200
100
AcDbLine
370
-1
  6
AUSGEZOGEN
 10
1569.3
 20
722.3
 30
0
 11
1568
 21
724.7
 31
0
  0
LINE
  5
FB
100
AcDbEntity
  8
200
100
AcDbLine
370
-1
  6
AUSGEZOGEN
 10
1571.6
 20
721
 30
0
 11
1569.3
 21
722.3
 31
0
  0
LINE
  5
FC
100
AcDbEntity
  8
200
100
AcDbLine
370
-1
  6
AUSGEZOGEN
 10
1576.7
 20
722.3
 30
0
 11
1574.3
 21
721
 31
0
  0
LINE
  5
FD
100
AcDbEntity
  8
200
100
AcDbLine
370
-1
  6
AUSGEZOGEN
 10
1578
 20
724.7
 30
0
 11
1576.7
 21
722.3
 31
0
  0
LINE
  5
FE
100
AcDbEntity
  8
200
100
AcDbLine
370
-1
  6
AUSGEZOGEN
 10
1576.7
 20
729.7
 30
0
 11
1578
 21
727.3
 31
0
  0
LINE
  5
FF
100
AcDbEntity
  8
200
100
AcDbLine
370
-1
  6
AUSGEZOGEN
 10
1574.3
 20
731
 30
0
 11
1576.7
 21
729.7
 31
0
  0
LINE
  5
100
100
AcDbEntity
  8
200
100
AcDbLine
370
-1
  6
AUSGEZOGEN
 10
1571.6
 20
731
 30
0
 11
1574.3
 21
731
 31
0
  0
LINE
  5
101
100
AcDbEntity
  8
200
100
AcDbLine
370
-1
  6
AUSGEZOGEN
 10
1594
 20
708.7
 30
0
 11
1594
 21
711.3
 31
0
  0
LINE
  5
102
100
AcDbEntity
  8
200
100
AcDbLine
370
-1
  6
AUSGEZOGEN
 10
1587.6
 20
705
 30
0
 11
1590.4
 21
705
 31
0
  0
LINE
  5
103
100
AcDbEntity
  8
200
100
AcDbLine
370
-1
  6
AUSGEZOGEN
 10
1585.3
 20
713.6
 30
0
 11
1587.6
 21
715
 31
0
  0
LINE
  5
104
100
AcDbEntity
  8
200
100
AcDbLine
370
-1
  6
AUSGEZOGEN
 10
1584
 20
711.3
 30
0
 11
1585.3
 21
713.6
 31
0
  0
LINE
  5
105
100
AcDbEntity
  8
200
100
AcDbLine
370
-1
  6
AUSGEZOGEN
 10
1584
 20
708.7
 30
0
 11
1584
 21
711.3
 31
0
  0
LINE
  5
106
100
AcDbEntity
  8
200
100
AcDbLine
370
-1
  6
AUSGEZOGEN
 10
1585.3
 20
706.3
 30
0
 11
1584
 21
708.7
 31
0
  0
LINE
  5
107
100
AcDbEntity
  8
200
100
AcDbLine
370
-1
  6
AUSGEZOGEN
 10
1587.6
 20
705
 30
0
 11
1585.3
 21
706.3
 31
0
  0
LINE
  5
108
100
AcDbEntity
  8
200
100
AcDbLine
370
-1
  6
AUSGEZOGEN
 10
1592.7
 20
706.3
 30
0
 11
1590.4
 21
705
 31
0
  0
LINE
  5
109
100
AcDbEntity
  8
200
100
AcDbLine
370
-1
  6
AUSGEZOGEN
 10
1594
 20
708.7
 30
0
 11
1592.7
 21
706.3
 31
0
  0
LINE
  5
10A
100
AcDbEntity
  8
200
100
AcDbLine
370
-1
  6
AUSGEZOGEN
 10
1592.7
 20
713.6
 30
0
 11
1594
 21
711.3
 31
0
  0
LINE
  5
10B
100
AcDbEntity
  8
200
100
AcDbLine
370
-1
  6
AUSGEZOGEN
 10
1590.4
 20
715
 30
0
 11
1592.7
 21
713.6
 31
0
  0
LINE
  5
10C
100
AcDbEntity
  8
200
100
AcDbLine
370
-1
  6
AUSGEZOGEN
 10
1587.6
 20
715
 30
0
 11
1590.4
 21
715
 31
0
  0
LINE
  5
10D
100
AcDbEntity
  8
200
100
AcDbLine
370
-1
  6
AUSGEZOGEN
 10
1578
 20
708.7
 30
0
 11
1578
 21
711.3
 31
0
  0
LINE
  5
10E
100
AcDbEntity
  8
200
100
AcDbLine
370
-1
  6
AUSGEZOGEN
 10
1571.6
 20
705
 30
0
 11
1574.3
 21
705
 31
0
  0
LINE
  5
10F
100
AcDbEntity
  8
200
100
AcDbLine
370
-1
  6
AUSGEZOGEN
 10
1569.3
 20
713.6
 30
0
 11
1571.6
 21
715
 31
0
  0
LINE
  5
110
100
AcDbEntity
  8
200
100
AcDbLine
370
-1
  6
AUSGEZOGEN
 10
1568
 20
711.3
 30
0
 11
1569.3
 21
713.6
 31
0
  0
LINE
  5
111
100
AcDbEntity
  8
200
100
AcDbLine
370
-1
  6
AUSGEZOGEN
 10
1568
 20
708.7
 30
0
 11
1568
 21
711.3
 31
0
  0
LINE
  5
112
100
AcDbEntity
  8
200
100
AcDbLine
370
-1
  6
AUSGEZOGEN
 10
1569.3
 20
706.3
 30
0
 11
1568
 21
708.7
 31
0
  0
LINE
  5
113
100
AcDbEntity
  8
200
100
AcDbLine
370
-1
  6
AUSGEZOGEN
 10
1571.6
 20
705
 30
0
 11
1569.3
 21
706.3
 31
0
  0
LINE
  5
114
100
AcDbEntity
  8
200
100
AcDbLine
370
-1
  6
AUSGEZOGEN
 10
1576.7
 20
706.3
 30
0
 11
1574.3
 21
705
 31
0
  0
LINE
  5
115
100
AcDbEntity
  8
200
100
AcDbLine
370
-1
  6
AUSGEZOGEN
 10
1578
 20
708.7
 30
0
 11
1576.7
 21
706.3
 31
0
  0
LINE
  5
116
100
AcDbEntity
  8
200
100
AcDbLine
370
-1
  6
AUSGEZOGEN
 10
1576.7
 20
713.6
 30
0
 11
1578
 21
711.3
 31
0
  0
LINE
  5
117
100
AcDbEntity
  8
200
100
AcDbLine
370
-1
  6
AUSGEZOGEN
 10
1574.3
 20
715
 30
0
 11
1576.7
 21
713.6
 31
0
  0
LINE
  5
118
100
AcDbEntity
  8
200
100
AcDbLine
370
-1
  6
AUSGEZOGEN
 10
1571.6
 20
715
 30
0
 11
1574.3
 21
715
 31
0
  0
LINE
  5
119
100
AcDbEntity
  8
200
100
AcDbLine
370
-1
  6
AUSGEZOGEN
 10
1562
 20
708.7
 30
0
 11
1562
 21
711.3
 31
0
  0
LINE
  5
11A
100
AcDbEntity
  8
200
100
AcDbLine
370
-1
  6
AUSGEZOGEN
 10
1555.7
 20
705
 30
0
 11
1558.3
 21
705
 31
0
  0
LINE
  5
11B
100
AcDbEntity
  8
200
100
AcDbLine
370
-1
  6
AUSGEZOGEN
 10
1553.3
 20
713.6
 30
0
 11
1555.7
 21
715
 31
0
  0
LINE
  5
11C
100
AcDbEntity
  8
200
100
AcDbLine
370
-1
  6
AUSGEZOGEN
 10
1552
 20
711.3
 30
0
 11
1553.3
 21
713.6
 31
0
  0
LINE
  5
11D
100
AcDbEntity
  8
200
100
AcDbLine
370
-1
  6
AUSGEZOGEN
 10
1552
 20
708.7
 30
0
 11
1552
 21
711.3
 31
0
  0
LINE
  5
11E
100
AcDbEntity
  8
200
100
AcDbLine
370
-1
  6
AUSGEZOGEN
 10
1553.3
 20
706.3
 30
0
 11
1552
 21
708.7
 31
0
  0
LINE
  5
11F
100
AcDbEntity
  8
200
100
AcDbLine
370
-1
  6
AUSGEZOGEN
 10
1555.7
 20
705
 30
0
 11
1553.3
 21
706.3
 31
0
  0
LINE
  5
120
100
AcDbEntity
  8
200
100
AcDbLine
370
-1
  6
AUSGEZOGEN
 10
1560.7
 20
706.3
 30
0
 11
1558.3
 21
705
 31
0
  0
LINE
  5
121
100
AcDbEntity
  8
200
100
AcDbLine
370
-1
  6
AUSGEZOGEN
 10
1562
 20
708.7
 30
0
 11
1560.7
 21
706.3
 31
0
  0
LINE
  5
122
100
AcDbEntity
  8
200
100
AcDbLine
370
-1
  6
AUSGEZOGEN
 10
1560.7
 20
713.6
 30
0
 11
1562
 21
711.3
 31
0
  0
LINE
  5
123
100
AcDbEntity
  8
200
100
AcDbLine
370
-1
  6
AUSGEZOGEN
 10
1558.3
 20
715
 30
0
 11
1560.7
 21
713.6
 31
0
  0
LINE
  5
124
100
AcDbEntity
  8
200
100
AcDbLine
370
-1
  6
AUSGEZOGEN
 10
1555.7
 20
715
 30
0
 11
1558.3
 21
715
 31
0
  0
LINE
  5
125
100
AcDbEntity
  8
200
100
AcDbLine
370
-1
  6
AUSGEZOGEN
 10
1564
 20
703
 30
0
 11
1550
 21
703
 31
0
  0
LINE
  5
126
100
AcDbEntity
  8
200
100
AcDbLine
370
-1
  6
AUSGEZOGEN
 10
1564
 20
717
 30
0
 11
1564
 21
703
 31
0
  0
LINE
  5
127
100
AcDbEntity
  8
200
100
AcDbLine
370
-1
  6
AUSGEZOGEN
 10
1550
 20
717
 30
0
 11
1564
 21
717
 31
0
  0
LINE
  5
128
100
AcDbEntity
  8
200
100
AcDbLine
370
-1
  6
AUSGEZOGEN
 10
1550
 20
703
 30
0
 11
1550
 21
717
 31
0
  0
LINE
  5
129
100
AcDbEntity
  8
200
100
AcDbLine
370
-1
  6
AUSGEZOGEN
 10
17
 20
725
 30
0
 11
457
 21
725
 31
0
  0
LINE
  5
12A
100
AcDbEntity
  8
200
100
AcDbLine
370
-1
  6
AUSGEZOGEN
 10
457
 20
170
 30
0
 11
17
 21
170
 31
0
  0
LINE
  5
12B
100
AcDbEntity
  8
200
100
AcDbLine
370
-1
  6
AUSGEZOGEN
 10
17
 20
795
 30
0
 11
17
 21
170
 31
0
  0
LINE
  5
12C
100
AcDbEntity
  8
200
100
AcDbLine
370
-1
  6
AUSGEZOGEN
 10
457
 20
170
 30
0
 11
457
 21
795
 31
0
  0
LINE
  5
12D
100
AcDbEntity
  8
200
100
AcDbLine
370
-1
  6
AUSGEZOGEN
 10
17
 20
795
 30
0
 11
457
 21
795
 31
0
  0
LINE
  5
12E
100
AcDbEntity
  8
200
100
AcDbLine
370
-1
  6
AUSGEZOGEN
 10
457
 20
765
 30
0
 11
17
 21
765
 31
0
  0
LINE
  5
12F
100
AcDbEntity
  8
200
100
AcDbLine
370
-1
  6
AUSGEZOGEN
 10
1377
 20
725
 30
0
 11
937
 21
725
 31
0
  0
LINE
  5
130
100
AcDbEntity
  8
200
100
AcDbLine
370
-1
  6
AUSGEZOGEN
 10
937
 20
170
 30
0
 11
1377
 21
170
 31
0
  0
LINE
  5
131
100
AcDbEntity
  8
200
100
AcDbLine
370
-1
  6
AUSGEZOGEN
 10
937
 20
795
 30
0
 11
937
 21
170
 31
0
  0
LINE
  5
132
100
AcDbEntity
  8
200
100
AcDbLine
370
-1
  6
AUSGEZOGEN
 10
1377
 20
170
 30
0
 11
1377
 21
795
 31
0
  0
LINE
  5
133
100
AcDbEntity
  8
200
100
AcDbLine
370
-1
  6
AUSGEZOGEN
 10
937
 20
795
 30
0
 11
1377
 21
795
 31
0
  0
LINE
  5
134
100
AcDbEntity
  8
200
100
AcDbLine
370
-1
  6
AUSGEZOGEN
 10
1377
 20
765
 30
0
 11
937
 21
765
 31
0
  0
LINE
  5
135
100
AcDbEntity
  8
200
100
AcDbLine
370
-1
  6
AUSGEZOGEN
 10
477
 20
725
 30
0
 11
917
 21
725
 31
0
  0
LINE
  5
136
100
AcDbEntity
  8
200
100
AcDbLine
370
-1
  6
AUSGEZOGEN
 10
917
 20
170
 30
0
 11
477
 21
170
 31
0
  0
LINE
  5
137
100
AcDbEntity
  8
200
100
AcDbLine
370
-1
  6
AUSGEZOGEN
 10
477
 20
795
 30
0
 11
477
 21
170
 31
0
  0
LINE
  5
138
100
AcDbEntity
  8
200
100
AcDbLine
370
-1
  6
AUSGEZOGEN
 10
917
 20
170
 30
0
 11
917
 21
795
 31
0
  0
LINE
  5
139
100
AcDbEntity
  8
200
100
AcDbLine
370
-1
  6
AUSGEZOGEN
 10
477
 20
795
 30
0
 11
917
 21
795
 31
0
  0
LINE
  5
13A
100
AcDbEntity
  8
200
100
AcDbLine
370
-1
  6
AUSGEZOGEN
 10
917
 20
765
 30
0
 11
477
 21
765
 31
0
  0
ATTDEF
  5
13C
100
AcDbEntity
  8
0
100
AcDbText
370
-1
 10
0
 20
0
 30
0
 40
1
  1

 50
0
 41
1
 51
0
  7
STANDARD
 71
0
 72
0
 11
0
 21
0
 31
0
100
AcDbAttributeDefinition
  3

  2

 70
0
 74
0
1001
AcDbAttr
1070
0
1070
0
  0
ENDBLK
  5
159
100
AcDbEntity
  8
0
100
AcDbBlockEnd
  0
BLOCK
  5
142
100
AcDbEntity
  8
400
100
AcDbBlockBegin
  2
INST_BLOCK_00001
 70
2
 10
0
 20
0
 30
0
  3
INST_BLOCK_00001
  1

  0
CIRCLE
  5
20
100
AcDbEntity
  8
400
100
AcDbCircle
370
-1
  6
AUSGEZOGEN
 10
1500
 20
300
 30
0
 40
50
  0
LINE
  5
21
100
AcDbEntity
  8
400
100
AcDbLine
370
-1
  6
AUSGEZOGEN
 10
1425
 20
300
 30
0
 11
1500
 21
300
 31
0
  0
LINE
  5
22
100
AcDbEntity
  8
400
100
AcDbLine
370
-1
  6
AUSGEZOGEN
 10
1575
 20
300
 30
0
 11
1500
 21
300
 31
0
  0
LINE
  5
23
100
AcDbEntity
  8
400
100
AcDbLine
370
-1
  6
AUSGEZOGEN
 10
1500
 20
225
 30
0
 11
1500
 21
300
 31
0
  0
LINE
  5
24
100
AcDbEntity
  8
400
100
AcDbLine
370
-1
  6
AUSGEZOGEN
 10
1500
 20
375
 30
0
 11
1500
 21
300
 31
0
  0
ATTDEF
  5
141
100
AcDbEntity
  8
0
100
AcDbText
370
-1
 10
0
 20
0
 30
0
 40
1
  1

 50
0
 41
1
 51
0
  7
STANDARD
 71
0
 72
0
 11
0
 21
0
 31
0
100
AcDbAttributeDefinition
  3

  2

 70
0
 74
0
1001
AcDbAttr
1070
0
1070
0
  0
ENDBLK
  5
15A
100
AcDbEntity
  8
0
100
AcDbBlockEnd
  0
ENDSEC
  0
SECTION
  2
ENTITIES
  0
LINE
  5
1C
100
AcDbEntity
  8
400
100
AcDbLine
370
-1
  6
AUSGEZOGEN
 10
1500
 20
300
 30
0
 11
2155.25
 21
716.5
 31
0
  0
LINE
  5
1F
100
AcDbEntity
  8
400
100
AcDbLine
370
-1
  6
AUSGEZOGEN
 10
2704.51
 20
716.5
 30
0
 11
2155.25
 21
716.5
 31
0
  0
TEXT
  5
13B
100
AcDbEntity
  8
400
100
AcDbText
370
-1
 10
2168.75
 20
730
 30
0
 40
45
  1
EZ: 230V 50Hz 0,155kW
 50
0
 41
0.600000023841858
 51
0
  7
STANDARD
 71
0
 72
0
 11
0
 21
0
 31
0
100
AcDbText
 73
0
  0
INSERT
  5
140
100
AcDbEntity
  8
200
100
AcDbBlockReference
370
-1
  6
BYLAYER
 66
1
  2
GER_BLOCK_00001
 10
0
 20
0
 30
0
 41
1
 42
1
 43
1
  0
ATTRIB
  5
13F
100
AcDbEntity
  8
0
100
AcDbText
370
-1
 10
0
 20
0
 30
0
 40
20
  1

 50
0
 41
1
 51
0
  7
STANDARD
 71
0
 72
0
 11
0
 21
0
 31
0
100
AcDbAttribute
  2

 70
0
 74
0
1001
AcDbAttr
1070
0
1070
0
  0
SEQEND
  5
15B
100
AcDbEntity
  8
0
  0
INSERT
  5
145
100
AcDbEntity
  8
400
100
AcDbBlockReference
370
-1
  6
BYLAYER
 66
1
  2
INST_BLOCK_00001
 10
0
 20
0
 30
0
 41
1
 42
1
 43
1
  0
ATTRIB
  5
144
100
AcDbEntity
  8
0
100
AcDbText
370
-1
 10
0
 20
0
 30
0
 40
20
  1

 50
0
 41
1
 51
0
  7
STANDARD
 71
0
 72
0
 11
0
 21
0
 31
0
100
AcDbAttribute
  2

 70
0
 74
0
1001
AcDbAttr
1070
0
1070
0
  0
SEQEND
  5
15C
100
AcDbEntity
  8
0
  0
ATTDEF
  5
146
100
AcDbEntity
  8
550
100
AcDbText
370
-1
 10
10
 20
100
 30
0
 40
30
  1

 50
0
 41
1
 51
0
  7
STANDARD
 71
0
 72
0
 11
0
 21
0
 31
0
100
AcDbAttributeDefinition
  3
KBS-153310
  2
KBS-153310
 70
1
 74
0
1001
AcDbAttr
1070
0
1070
0
  0
TEXT
  5
147
100
AcDbEntity
  8
510
100
AcDbText
370
-1
 10
10
 20
-45
 30
0
 40
30
  1

 50
0
 41
1
 51
0
  7
STANDARD
 71
0
 72
0
 11
0
 21
0
 31
0
100
AcDbText
 73
0
  0
ENDSEC
  0
SECTION
  2
OBJECTS
  0
DICTIONARY
  5
15D
100
AcDbDictionary
  3
ACAD_GROUP
350
15E
  3
ACAD_MATERIAL
350
15F
  3
ACAD_WIPEOUT_VARS
350
160
  3
ACAD_MLINESTYLE
350
161
  3
ACAD_LAYOUT
350
162
  0
DICTIONARY
  5
15E
330
15D
100
AcDbDictionary
  0
DICTIONARY
  5
15F
330
15D
100
AcDbDictionary
  0
WIPEOUTVARIABLES
  5
160
330
15D
100
AcDbWipeoutVariables
 70
1
  0
DICTIONARY
  5
161
330
15D
100
AcDbDictionary
  3
STANDARD
350
163
  0
MLINESTYLE
  5
163
100
AcDbMlineStyle
  2
STANDARD
 70
0
  3

 62
256
 51
90
 52
90
 71
2
 49
0.5
 62
256
  6
ByLayer
 49
-0.5
 62
256
  6
ByLayer
  0
DICTIONARY
  5
162
100
AcDbDictionary
281
1
  3
Model
350
148
  0
LAYOUT
  5
148
102
{ACAD_REACTORS
330
162
102
}
330
162
100
AcDbPlotSettings
  1

  2
none_device
  4

  6

 40
0
 41
0
 42
0
 43
0
 44
0
 45
0
 46
0
 47
0
 48
0
 49
0
 70
1712
 72
1
 73
0
 74
5
 75
16
 76
0
 77
0
 78
100
140
0
141
0
142
1
143
1
147
1
148
0
149
0
100
AcDbLayout
  1
Model
 70
1
 71
1
 10
0
 20
0
 11
2704.51
 21
850
 12
0
 22
0
 32
0
 14
0
 24
0
 34
0
 15
2704.51
 25
850
 35
0
146
0
 13
0
 23
0
 33
0
 16
1
 26
0
 36
0
 17
0
 27
1
 37
0
 76
0
330
1E
  0
DICTIONARY
  5
164
100
AcDbDictionary
280
1
  3
XINFO
360
165
  0
XRECORD
  5
165
102
{ACAD_REACTORS
330
164
102
}
330
164
100
AcDbXrecord
280
0
310
8F24010003000900
311
9B7D3BA09F369FE3
  0
ENDSEC
  0
EOF
