999
     Created by SWS GmbH, Paderborn, Germany, www.sws-online.de
999
     and  Soft Gold Ltd. www.cadsofttools.com
999

999
SWS-intern Ausgabemassstab:
999
   0.0500
999

999
SWS-intern Koordinatenwerte 1:1:
999
1
999

  0
SECTION
  2
HEADER
  9
$ACADVER
  1
AC1018
  9
$DWGCODEPAGE
  3
ANSI_1252
  9
$CLAYER
  8
0
  9
$CELTYPE
  6
BYLAYER
  9
$CELTSCALE
 40
1
  9
$CELWEIGHT
370
-1
  9
$DIMALT
 70
0
  9
$DIMALTF
 40
1
  9
$DIMPOST
  1

  9
$DIMAPOST
  1

  9
$DIMSCALE
 40
1
  9
$DIMASZ
 40
0.18
  9
$DIMCLRD
 70
0
  9
$DIMCLRE
 70
0
  9
$DIMCLRT
 70
0
  9
$DIMEXE
 40
0.18
  9
$DIMEXO
 40
0.0625
  9
$DIMGAP
 40
0.0625
  9
$DIMLFAC
 40
1
  9
$DIMDEC
 70
4
  9
$DIMTAD
 70
0
  9
$DIMCEN
 40
0.09
  9
$DIMTIH
 70
1
  9
$DIMTIX
 70
0
  9
$DIMTOH
 70
1
  9
$DIMSE1
 70
0
  9
$DIMSE2
 70
0
  9
$DIMSD1
 70
0
  9
$DIMSD2
 70
0
  9
$DIMLWD
 70
-1
  9
$DIMLWE
 70
-1
  9
$DIMSAH
 70
0
  9
$DIMBLK
  1

  9
$DIMBLK1
  1

  9
$DIMBLK2
  1

  9
$DIMLDRBLK
  1

  9
$DIMSTYLE
  2
STANDARD
  9
$DIMTP
 40
0
  9
$DIMTM
 40
0
  9
$DIMTXT
 40
0.18
  9
$DIMLUNIT
 70
2
  9
$DIMDSEP
 70
46
  9
$DIMTXSTY
  7
STANDARD
  9
$TEXTSIZE
 40
0.18
  9
$TEXTSTYLE
  7
STANDARD
  9
$HANDSEED
  5
00000000000002D2
  9
$FILLETRAD
 40
0.5
  9
$INSUNITS
 70
4
  9
$LIMMIN
 10
-308.18
 20
-119.51375
  9
$LIMMAX
 10
2773.62
 20
1075.62375
  9
$FILLMODE
 70
1
  9
$LTSCALE
 40
1
  9
$PSLTSCALE
 70
0
  9
$MEASUREMENT
 70
0
  9
$ATTMODE
 70
1
  9
$PDMODE
 70
0
  9
$PDSIZE
 40
0
  9
$TILEMODE
 70
1
  9
$UCSORG
 10
0
 20
0
 30
0
  9
$UCSXDIR
 10
1
 20
0
 30
0
  9
$UCSYDIR
 10
0
 20
1
 30
0
  9
$INSBASE
 10
0
 20
0
 30
0
  9
$XCLIPFRAME
290
1
  9
$DIMASSOC
280
2
  9
$TDCREATE
 40
2459104.6483088
  9
$TDINDWG
 40
1.38888888888889E-7
  9
$TDUPDATE
 40
2459104.64830894
  0
ENDSEC
  0
SECTION
  2
CLASSES
  0
CLASS
  1
IMAGE
  2
AcDbRasterImage
  3
ISM
 90
2175
 91
1
280
0
281
1
  0
CLASS
  1
IMAGEDEF
  2
AcDbRasterImageDef
  3
ISM
 90
0
 91
1
280
0
281
0
  0
CLASS
  1
WIPEOUT
  2
AcDbWipeout
  3
"WipeOut"
 90
2175
 91
1
280
0
281
1
  0
CLASS
  1
WIPEOUTVARIABLES
  2
AcDbWipeoutVariables
  3
"WipeOut"
 90
0
 91
1
280
0
281
0
  0
CLASS
  1
MPOLYGON
  2
AcDbMPolygon
  3
"AcMPolygonObj15"
 90
3071
 91
1
280
0
281
1
  0
ENDSEC
  0
SECTION
  2
TABLES
  0
TABLE
  2
APPID
  5
2B5
100
AcDbSymbolTable
  0
APPID
  5
2B6
100
AcDbSymbolTableRecord
100
AcDbRegAppTableRecord
  2
ACAD
 70
0
  0
APPID
  5
12
100
AcDbSymbolTableRecord
100
AcDbRegAppTableRecord
  2
CSTINVENTORY
 70
0
  0
APPID
  5
2B7
100
AcDbSymbolTableRecord
100
AcDbRegAppTableRecord
  2
AcDbAttr
 70
0
  0
APPID
  5
2B8
100
AcDbSymbolTableRecord
100
AcDbRegAppTableRecord
  2
PE_URL
 70
0
  0
ENDTAB
  0
TABLE
  2
BLOCK_RECORD
  5
2B9
100
AcDbSymbolTable
  0
BLOCK_RECORD
  5
1E
100
AcDbSymbolTableRecord
100
AcDbBlockTableRecord
  2
*MODEL_SPACE
  0
BLOCK_RECORD
  5
2BA
100
AcDbSymbolTableRecord
100
AcDbBlockTableRecord
  2
*PAPER_SPACE
  0
BLOCK_RECORD
  5
10
100
AcDbSymbolTableRecord
100
AcDbBlockTableRecord
  2
_CLOSEDFILLED
  0
BLOCK_RECORD
  5
2AA
100
AcDbSymbolTableRecord
100
AcDbBlockTableRecord
  2
GER_BLOCK_00001
  0
BLOCK_RECORD
  5
2AF
100
AcDbSymbolTableRecord
100
AcDbBlockTableRecord
  2
INST_BLOCK_00001
  0
ENDTAB
  0
TABLE
  2
STYLE
  5
3
100
AcDbSymbolTable
  0
STYLE
  5
A
100
AcDbSymbolTableRecord
100
AcDbTextStyleTableRecord
  2
STANDARD
 70
0
 40
0
 41
1
 50
0
 71
0
 42
30
  3
TXT.SHX
  4

1001
ACAD
1000
txt
1071
0
  0
ENDTAB
  0
TABLE
  2
LTYPE
  5
1
100
AcDbSymbolTable
  0
LTYPE
  5
9
100
AcDbSymbolTableRecord
100
AcDbLinetypeTableRecord
  2
CONTINUOUS
 70
0
  3

 72
65
 73
0
 40
0
  0
LTYPE
  5
7
100
AcDbSymbolTableRecord
100
AcDbLinetypeTableRecord
  2
BYLAYER
 70
0
  3

 72
65
 73
0
 40
0
  0
LTYPE
  5
8
100
AcDbSymbolTableRecord
100
AcDbLinetypeTableRecord
  2
BYBLOCK
 70
0
  3

 72
65
 73
0
 40
0
  0
LTYPE
  5
13
100
AcDbSymbolTableRecord
100
AcDbLinetypeTableRecord
  2
AUSGEZOGEN
 70
0
  3
.
 72
65
 73
1
 40
0
 49
0
 74
0
  0
LTYPE
  5
14
100
AcDbSymbolTableRecord
100
AcDbLinetypeTableRecord
  2
PUNKTIERT
 70
0
  3
. 
 72
65
 73
2
 40
30
 49
0
 74
0
 49
-30
 74
0
  0
LTYPE
  5
15
100
AcDbSymbolTableRecord
100
AcDbLinetypeTableRecord
  2
GESTRICHELT
 70
0
  3
_ 
 72
65
 73
2
 40
80
 49
50
 74
0
 49
-30
 74
0
  0
LTYPE
  5
16
100
AcDbSymbolTableRecord
100
AcDbLinetypeTableRecord
  2
STRICHPUNKT
 70
0
  3
_ . 
 72
65
 73
4
 40
160
 49
100
 74
0
 49
-30
 74
0
 49
0
 74
0
 49
-30
 74
0
  0
LTYPE
  5
17
100
AcDbSymbolTableRecord
100
AcDbLinetypeTableRecord
  2
GETRENNT
 70
0
  3
_ . . 
 72
65
 73
6
 40
190
 49
100
 74
0
 49
-30
 74
0
 49
0
 74
0
 49
-30
 74
0
 49
0
 74
0
 49
-30
 74
0
  0
ENDTAB
  0
TABLE
  2
LAYER
  5
2
100
AcDbSymbolTable
  0
LAYER
  5
E
100
AcDbSymbolTableRecord
100
AcDbLayerTableRecord
  2
0
 70
0
 62
1
420
16711680
  6
AUSGEZOGEN
290
1
370
-3
390
0
  0
LAYER
  5
18
100
AcDbSymbolTableRecord
100
AcDbLayerTableRecord
  2
550
 70
0
 62
2
420
16776960
  6
AUSGEZOGEN
290
1
370
-3
390
0
  0
LAYER
  5
19
100
AcDbSymbolTableRecord
100
AcDbLayerTableRecord
  2
510
 70
0
 62
2
420
16776960
  6
AUSGEZOGEN
290
1
370
-3
390
0
  0
LAYER
  5
1A
100
AcDbSymbolTableRecord
100
AcDbLayerTableRecord
  2
200
 70
0
 62
7
  6
AUSGEZOGEN
290
1
370
-3
390
0
  0
LAYER
  5
1B
100
AcDbSymbolTableRecord
100
AcDbLayerTableRecord
  2
450
 70
0
 62
2
420
16776960
  6
AUSGEZOGEN
290
1
370
-3
390
0
  0
ENDTAB
  0
TABLE
  2
VPORT
  5
2BB
100
AcDbSymbolTable
  0
VPORT
  5
2BD
100
AcDbSymbolTableRecord
100
AcDbViewportTableRecord
  2
*ACTIVE
 70
0
 10
0
 20
0
 11
1
 21
1
 12
1232.72
 22
478.055
 32
0
 13
0
 23
0
 14
1
 24
1
 15
1
 25
1
 16
0
 26
0
 36
1
 17
0
 27
0
 37
0
 40
956.11
 41
2.57861543127883
 42
50
 43
0
 44
0
 50
0
 51
0
 71
0
 72
100
 73
1
 74
1
 75
0
 76
0
 77
0
 78
0
  0
ENDTAB
  0
TABLE
  2
VIEW
  5
2BE
100
AcDbSymbolTable
  0
ENDTAB
  0
TABLE
  2
UCS
  5
2BF
100
AcDbSymbolTable
  0
ENDTAB
  0
TABLE
  2
DIMSTYLE
  5
4
100
AcDbSymbolTable
 70
1
100
AcDbDimStyleTable
 71
0
  0
DIMSTYLE
105
B
100
AcDbSymbolTableRecord
100
AcDbDimStyleTableRecord
  2
STANDARD
 70
0
  3

 40
1
 41
0.18
 42
0.0625
 44
0.18
 47
0
 48
0
 73
1
 74
1
 75
0
 76
0
 77
0
140
0.18
141
0.09
144
1
147
0.0625
173
0
174
0
176
0
177
0
178
0
277
2
278
46
281
0
282
0
271
4
340
A
371
-1
372
-1
  0
ENDTAB
  0
ENDSEC
  0
SECTION
  2
BLOCKS
  0
BLOCK
  5
2C0
100
AcDbEntity
  8
0
100
AcDbBlockBegin
  2
*MODEL_SPACE
 70
0
 10
0
 20
0
  0
ENDBLK
  5
2C1
100
AcDbEntity
  8
0
100
AcDbBlockEnd
  0
BLOCK
  5
2C2
100
AcDbEntity
  8
0
100
AcDbBlockBegin
  2
*PAPER_SPACE
 70
0
 10
0
 20
0
  0
ENDBLK
  5
2C3
100
AcDbEntity
  8
0
100
AcDbBlockEnd
  0
BLOCK
  5
F
100
AcDbEntity
  8
0
100
AcDbBlockBegin
  2
_CLOSEDFILLED
 70
0
 10
0
 20
0
 30
0
  3
_CLOSEDFILLED
  1

  0
SOLID
  5
C
100
AcDbEntity
  8
0
100
AcDbTrace
370
-2
 62
0
 10
-1
 20
0.166666666666667
 30
0
 11
0
 21
0
 31
0
 12
-1
 22
0.166666666666667
 32
0
 13
-1
 23
-0.166666666666667
 33
0
  0
LINE
  5
D
100
AcDbEntity
  8
0
100
AcDbLine
370
-2
 62
0
 10
-1
 20
0
 30
0
 11
-2
 21
0
 31
0
  0
ENDBLK
  5
2C4
100
AcDbEntity
  8
0
100
AcDbBlockEnd
  0
BLOCK
  5
2A9
100
AcDbEntity
  8
200
100
AcDbBlockBegin
  2
GER_BLOCK_00001
 70
2
 10
0
 20
0
 30
0
  3
GER_BLOCK_00001
  1

  0
LINE
  5
25
100
AcDbEntity
  8
200
100
AcDbLine
370
-1
  6
AUSGEZOGEN
 10
1615
 20
812.33
 30
0
 11
15
 21
812.33
 31
0
  0
LINE
  5
26
100
AcDbEntity
  8
200
100
AcDbLine
370
-1
  6
AUSGEZOGEN
 10
15
 20
675.63
 30
0
 11
1615
 21
675.63
 31
0
  0
LINE
  5
27
100
AcDbEntity
  8
200
100
AcDbLine
370
-1
  6
AUSGEZOGEN
 10
1615
 20
625
 30
0
 11
15
 21
625
 31
0
  0
LINE
  5
28
100
AcDbEntity
  8
200
100
AcDbLine
370
-1
  6
AUSGEZOGEN
 10
264
 20
910
 30
0
 11
264
 21
904
 31
0
  0
LINE
  5
29
100
AcDbEntity
  8
200
100
AcDbLine
370
-1
  6
AUSGEZOGEN
 10
166
 20
904
 30
0
 11
166
 21
910
 31
0
  0
LINE
  5
2A
100
AcDbEntity
  8
200
100
AcDbLine
370
-1
  6
AUSGEZOGEN
 10
211
 20
910
 30
0
 11
211
 21
904
 31
0
  0
LINE
  5
2B
100
AcDbEntity
  8
200
100
AcDbLine
370
-1
  6
AUSGEZOGEN
 10
307.42
 20
904
 30
0
 11
307.42
 21
910
 31
0
  0
LINE
  5
2C
100
AcDbEntity
  8
200
100
AcDbLine
370
-1
  6
AUSGEZOGEN
 10
388.34
 20
910
 30
0
 11
388.34
 21
904
 31
0
  0
LINE
  5
2D
100
AcDbEntity
  8
200
100
AcDbLine
370
-1
  6
AUSGEZOGEN
 10
122.58
 20
904
 30
0
 11
122.58
 21
910
 31
0
  0
LINE
  5
2E
100
AcDbEntity
  8
200
100
AcDbLine
370
-1
  6
AUSGEZOGEN
 10
41.66
 20
910
 30
0
 11
41.66
 21
904
 31
0
  0
LINE
  5
2F
100
AcDbEntity
  8
200
100
AcDbLine
370
-1
  6
AUSGEZOGEN
 10
394
 20
910
 30
0
 11
264
 21
910
 31
0
  0
LINE
  5
30
100
AcDbEntity
  8
200
100
AcDbLine
370
-1
  6
AUSGEZOGEN
 10
36
 20
904
 30
0
 11
394
 21
904
 31
0
  0
LINE
  5
31
100
AcDbEntity
  8
200
100
AcDbLine
370
-1
  6
AUSGEZOGEN
 10
166
 20
910
 30
0
 11
36
 21
910
 31
0
  0
LINE
  5
32
100
AcDbEntity
  8
200
100
AcDbLine
370
-1
  6
AUSGEZOGEN
 10
219
 20
910
 30
0
 11
211
 21
910
 31
0
  0
LINE
  5
33
100
AcDbEntity
  8
200
100
AcDbLine
370
-1
  6
AUSGEZOGEN
 10
219
 20
904
 30
0
 11
219
 21
910
 31
0
  0
LINE
  5
34
100
AcDbEntity
  8
200
100
AcDbLine
370
-1
  6
AUSGEZOGEN
 10
394
 20
910
 30
0
 11
394
 21
900
 31
0
  0
LINE
  5
35
100
AcDbEntity
  8
200
100
AcDbLine
370
-1
  6
AUSGEZOGEN
 10
36
 20
900
 30
0
 11
36
 21
910
 31
0
  0
LINE
  5
36
100
AcDbEntity
  8
200
100
AcDbLine
370
-1
  6
AUSGEZOGEN
 10
1366
 20
910
 30
0
 11
1366
 21
904
 31
0
  0
LINE
  5
37
100
AcDbEntity
  8
200
100
AcDbLine
370
-1
  6
AUSGEZOGEN
 10
1464
 20
904
 30
0
 11
1464
 21
910
 31
0
  0
LINE
  5
38
100
AcDbEntity
  8
200
100
AcDbLine
370
-1
  6
AUSGEZOGEN
 10
1419
 20
910
 30
0
 11
1419
 21
904
 31
0
  0
LINE
  5
39
100
AcDbEntity
  8
200
100
AcDbLine
370
-1
  6
AUSGEZOGEN
 10
1322.58
 20
904
 30
0
 11
1322.58
 21
910
 31
0
  0
LINE
  5
3A
100
AcDbEntity
  8
200
100
AcDbLine
370
-1
  6
AUSGEZOGEN
 10
1241.66
 20
910
 30
0
 11
1241.66
 21
904
 31
0
  0
LINE
  5
3B
100
AcDbEntity
  8
200
100
AcDbLine
370
-1
  6
AUSGEZOGEN
 10
1507.42
 20
904
 30
0
 11
1507.42
 21
910
 31
0
  0
LINE
  5
3C
100
AcDbEntity
  8
200
100
AcDbLine
370
-1
  6
AUSGEZOGEN
 10
1588.34
 20
910
 30
0
 11
1588.34
 21
904
 31
0
  0
LINE
  5
3D
100
AcDbEntity
  8
200
100
AcDbLine
370
-1
  6
AUSGEZOGEN
 10
1464
 20
910
 30
0
 11
1594
 21
910
 31
0
  0
LINE
  5
3E
100
AcDbEntity
  8
200
100
AcDbLine
370
-1
  6
AUSGEZOGEN
 10
1236
 20
904
 30
0
 11
1594
 21
904
 31
0
  0
LINE
  5
3F
100
AcDbEntity
  8
200
100
AcDbLine
370
-1
  6
AUSGEZOGEN
 10
1366
 20
910
 30
0
 11
1236
 21
910
 31
0
  0
LINE
  5
40
100
AcDbEntity
  8
200
100
AcDbLine
370
-1
  6
AUSGEZOGEN
 10
1411
 20
904
 30
0
 11
1411
 21
910
 31
0
  0
LINE
  5
41
100
AcDbEntity
  8
200
100
AcDbLine
370
-1
  6
AUSGEZOGEN
 10
1419
 20
910
 30
0
 11
1411
 21
910
 31
0
  0
LINE
  5
42
100
AcDbEntity
  8
200
100
AcDbLine
370
-1
  6
AUSGEZOGEN
 10
1236
 20
900
 30
0
 11
1236
 21
910
 31
0
  0
LINE
  5
43
100
AcDbEntity
  8
200
100
AcDbLine
370
-1
  6
AUSGEZOGEN
 10
1594
 20
910
 30
0
 11
1594
 21
900
 31
0
  0
LINE
  5
44
100
AcDbEntity
  8
200
100
AcDbLine
370
-1
  6
AUSGEZOGEN
 10
1516
 20
0
 30
0
 11
1516
 21
40
 31
0
  0
LINE
  5
45
100
AcDbEntity
  8
200
100
AcDbLine
370
-1
  6
AUSGEZOGEN
 10
1566
 20
40
 30
0
 11
1566
 21
0
 31
0
  0
LINE
  5
46
100
AcDbEntity
  8
200
100
AcDbLine
370
-1
  6
AUSGEZOGEN
 10
1516
 20
0
 30
0
 11
1566
 21
0
 31
0
  0
LINE
  5
47
100
AcDbEntity
  8
200
100
AcDbLine
370
-1
  6
AUSGEZOGEN
 10
1512
 20
150
 30
0
 11
1512
 21
40
 31
0
  0
LINE
  5
48
100
AcDbEntity
  8
200
100
AcDbLine
370
-1
  6
AUSGEZOGEN
 10
1570
 20
40
 30
0
 11
1570
 21
150
 31
0
  0
LINE
  5
49
100
AcDbEntity
  8
200
100
AcDbLine
370
-1
  6
AUSGEZOGEN
 10
1512
 20
40
 30
0
 11
1570
 21
40
 31
0
  0
LINE
  5
4A
100
AcDbEntity
  8
200
100
AcDbLine
370
-1
  6
AUSGEZOGEN
 10
64
 20
0
 30
0
 11
64
 21
40
 31
0
  0
LINE
  5
4B
100
AcDbEntity
  8
200
100
AcDbLine
370
-1
  6
AUSGEZOGEN
 10
114
 20
40
 30
0
 11
114
 21
0
 31
0
  0
LINE
  5
4C
100
AcDbEntity
  8
200
100
AcDbLine
370
-1
  6
AUSGEZOGEN
 10
64
 20
0
 30
0
 11
114
 21
0
 31
0
  0
LINE
  5
4D
100
AcDbEntity
  8
200
100
AcDbLine
370
-1
  6
AUSGEZOGEN
 10
60
 20
150
 30
0
 11
60
 21
40
 31
0
  0
LINE
  5
4E
100
AcDbEntity
  8
200
100
AcDbLine
370
-1
  6
AUSGEZOGEN
 10
118
 20
40
 30
0
 11
118
 21
150
 31
0
  0
LINE
  5
4F
100
AcDbEntity
  8
200
100
AcDbLine
370
-1
  6
AUSGEZOGEN
 10
60
 20
40
 30
0
 11
118
 21
40
 31
0
  0
LINE
  5
50
100
AcDbEntity
  8
200
100
AcDbLine
370
-1
  6
AUSGEZOGEN
 10
790
 20
0
 30
0
 11
790
 21
40
 31
0
  0
LINE
  5
51
100
AcDbEntity
  8
200
100
AcDbLine
370
-1
  6
AUSGEZOGEN
 10
840
 20
40
 30
0
 11
840
 21
0
 31
0
  0
LINE
  5
52
100
AcDbEntity
  8
200
100
AcDbLine
370
-1
  6
AUSGEZOGEN
 10
790
 20
0
 30
0
 11
840
 21
0
 31
0
  0
LINE
  5
53
100
AcDbEntity
  8
200
100
AcDbLine
370
-1
  6
AUSGEZOGEN
 10
786
 20
150
 30
0
 11
786
 21
40
 31
0
  0
LINE
  5
54
100
AcDbEntity
  8
200
100
AcDbLine
370
-1
  6
AUSGEZOGEN
 10
1615
 20
150
 30
0
 11
15
 21
150
 31
0
  0
LINE
  5
55
100
AcDbEntity
  8
200
100
AcDbLine
370
-1
  6
AUSGEZOGEN
 10
844
 20
40
 30
0
 11
844
 21
150
 31
0
  0
LINE
  5
56
100
AcDbEntity
  8
200
100
AcDbLine
370
-1
  6
AUSGEZOGEN
 10
786
 20
40
 30
0
 11
844
 21
40
 31
0
  0
LINE
  5
57
100
AcDbEntity
  8
200
100
AcDbLine
370
-1
  6
AUSGEZOGEN
 10
1610
 20
585
 30
0
 11
820
 21
585
 31
0
  0
LINE
  5
58
100
AcDbEntity
  8
200
100
AcDbLine
370
-1
  6
AUSGEZOGEN
 10
820
 20
520.64
 30
0
 11
1610
 21
520.64
 31
0
  0
LINE
  5
59
100
AcDbEntity
  8
200
100
AcDbLine
370
-1
  6
AUSGEZOGEN
 10
820
 20
245
 30
0
 11
820
 21
620
 31
0
  0
LINE
  5
5A
100
AcDbEntity
  8
200
100
AcDbLine
370
-1
  6
AUSGEZOGEN
 10
1610
 20
619.86
 30
0
 11
1610
 21
245
 31
0
  0
LINE
  5
5B
100
AcDbEntity
  8
200
100
AcDbLine
370
-1
  6
AUSGEZOGEN
 10
820
 20
245
 30
0
 11
1610
 21
245
 31
0
  0
LINE
  5
5C
100
AcDbEntity
  8
200
100
AcDbLine
370
-1
  6
AUSGEZOGEN
 10
1610
 20
225
 30
0
 11
820
 21
225
 31
0
  0
LINE
  5
5D
100
AcDbEntity
  8
200
100
AcDbLine
370
-1
  6
AUSGEZOGEN
 10
820
 20
207.32
 30
0
 11
1610
 21
207.32
 31
0
  0
LINE
  5
5E
100
AcDbEntity
  8
200
100
AcDbLine
370
-1
  6
AUSGEZOGEN
 10
820
 20
155
 30
0
 11
820
 21
225
 31
0
  0
LINE
  5
5F
100
AcDbEntity
  8
200
100
AcDbLine
370
-1
  6
AUSGEZOGEN
 10
1610
 20
225
 30
0
 11
1610
 21
155
 31
0
  0
LINE
  5
60
100
AcDbEntity
  8
200
100
AcDbLine
370
-1
  6
AUSGEZOGEN
 10
820
 20
155
 30
0
 11
1610
 21
155
 31
0
  0
LINE
  5
61
100
AcDbEntity
  8
200
100
AcDbLine
370
-1
  6
AUSGEZOGEN
 10
20
 20
585
 30
0
 11
810
 21
585
 31
0
  0
LINE
  5
62
100
AcDbEntity
  8
200
100
AcDbLine
370
-1
  6
AUSGEZOGEN
 10
810
 20
520.64
 30
0
 11
20
 21
520.64
 31
0
  0
LINE
  5
63
100
AcDbEntity
  8
200
100
AcDbLine
370
-1
  6
AUSGEZOGEN
 10
20
 20
245
 30
0
 11
20
 21
620
 31
0
  0
LINE
  5
64
100
AcDbEntity
  8
200
100
AcDbLine
370
-1
  6
AUSGEZOGEN
 10
810
 20
619.86
 30
0
 11
810
 21
245
 31
0
  0
LINE
  5
65
100
AcDbEntity
  8
200
100
AcDbLine
370
-1
  6
AUSGEZOGEN
 10
20
 20
245
 30
0
 11
810
 21
245
 31
0
  0
LINE
  5
66
100
AcDbEntity
  8
200
100
AcDbLine
370
-1
  6
AUSGEZOGEN
 10
810
 20
225
 30
0
 11
20
 21
225
 31
0
  0
LINE
  5
67
100
AcDbEntity
  8
200
100
AcDbLine
370
-1
  6
AUSGEZOGEN
 10
20
 20
207.32
 30
0
 11
810
 21
207.32
 31
0
  0
LINE
  5
68
100
AcDbEntity
  8
200
100
AcDbLine
370
-1
  6
AUSGEZOGEN
 10
20
 20
155
 30
0
 11
20
 21
225
 31
0
  0
LINE
  5
69
100
AcDbEntity
  8
200
100
AcDbLine
370
-1
  6
AUSGEZOGEN
 10
810
 20
225
 30
0
 11
810
 21
155
 31
0
  0
LINE
  5
6A
100
AcDbEntity
  8
200
100
AcDbLine
370
-1
  6
AUSGEZOGEN
 10
20
 20
155
 30
0
 11
810
 21
155
 31
0
  0
LINE
  5
6B
100
AcDbEntity
  8
200
100
AcDbLine
370
-1
  6
AUSGEZOGEN
 10
807.56
 20
793.61
 30
0
 11
806
 21
793.15
 31
0
  0
LINE
  5
6C
100
AcDbEntity
  8
200
100
AcDbLine
370
-1
  6
AUSGEZOGEN
 10
822.44
 20
793.61
 30
0
 11
807.56
 21
793.61
 31
0
  0
LINE
  5
6D
100
AcDbEntity
  8
200
100
AcDbLine
370
-1
  6
AUSGEZOGEN
 10
824
 20
793.15
 30
0
 11
822.44
 21
793.61
 31
0
  0
LINE
  5
6E
100
AcDbEntity
  8
200
100
AcDbLine
370
-1
  6
AUSGEZOGEN
 10
822.44
 20
715.05
 30
0
 11
824
 21
715.51
 31
0
  0
LINE
  5
6F
100
AcDbEntity
  8
200
100
AcDbLine
370
-1
  6
AUSGEZOGEN
 10
807.56
 20
715.05
 30
0
 11
822.44
 21
715.05
 31
0
  0
LINE
  5
70
100
AcDbEntity
  8
200
100
AcDbLine
370
-1
  6
AUSGEZOGEN
 10
806
 20
715.51
 30
0
 11
807.56
 21
715.05
 31
0
  0
LINE
  5
71
100
AcDbEntity
  8
200
100
AcDbLine
370
-1
  6
AUSGEZOGEN
 10
824
 20
701.28
 30
0
 11
822.44
 21
700.81
 31
0
  0
LINE
  5
72
100
AcDbEntity
  8
200
100
AcDbLine
370
-1
  6
AUSGEZOGEN
 10
806
 20
701.28
 30
0
 11
807.56
 21
700.81
 31
0
  0
LINE
  5
73
100
AcDbEntity
  8
200
100
AcDbLine
370
-1
  6
AUSGEZOGEN
 10
772.6
 20
763.48
 30
0
 11
768
 21
750.55
 31
0
  0
LINE
  5
74
100
AcDbEntity
  8
200
100
AcDbLine
370
-1
  6
AUSGEZOGEN
 10
781.36
 20
774.48
 30
0
 11
772.6
 21
763.48
 31
0
  0
LINE
  5
75
100
AcDbEntity
  8
200
100
AcDbLine
370
-1
  6
AUSGEZOGEN
 10
793.4
 20
782.48
 30
0
 11
781.36
 21
774.48
 31
0
  0
LINE
  5
76
100
AcDbEntity
  8
200
100
AcDbLine
370
-1
  6
AUSGEZOGEN
 10
806
 20
786.23
 30
0
 11
793.4
 21
782.48
 31
0
  0
LINE
  5
77
100
AcDbEntity
  8
200
100
AcDbLine
370
-1
  6
AUSGEZOGEN
 10
836.6
 20
782.48
 30
0
 11
824
 21
786.23
 31
0
  0
LINE
  5
78
100
AcDbEntity
  8
200
100
AcDbLine
370
-1
  6
AUSGEZOGEN
 10
848.64
 20
774.48
 30
0
 11
836.6
 21
782.48
 31
0
  0
LINE
  5
79
100
AcDbEntity
  8
200
100
AcDbLine
370
-1
  6
AUSGEZOGEN
 10
857.4
 20
763.48
 30
0
 11
848.64
 21
774.48
 31
0
  0
LINE
  5
7A
100
AcDbEntity
  8
200
100
AcDbLine
370
-1
  6
AUSGEZOGEN
 10
862
 20
750.55
 30
0
 11
857.4
 21
763.48
 31
0
  0
LINE
  5
7B
100
AcDbEntity
  8
200
100
AcDbLine
370
-1
  6
AUSGEZOGEN
 10
793.4
 20
705.01
 30
0
 11
807.56
 21
700.81
 31
0
  0
LINE
  5
7C
100
AcDbEntity
  8
200
100
AcDbLine
370
-1
  6
AUSGEZOGEN
 10
781.36
 20
713.02
 30
0
 11
793.4
 21
705.01
 31
0
  0
LINE
  5
7D
100
AcDbEntity
  8
200
100
AcDbLine
370
-1
  6
AUSGEZOGEN
 10
772.6
 20
724.02
 30
0
 11
781.36
 21
713.02
 31
0
  0
LINE
  5
7E
100
AcDbEntity
  8
200
100
AcDbLine
370
-1
  6
AUSGEZOGEN
 10
768
 20
736.95
 30
0
 11
772.6
 21
724.02
 31
0
  0
LINE
  5
7F
100
AcDbEntity
  8
200
100
AcDbLine
370
-1
  6
AUSGEZOGEN
 10
862
 20
750.55
 30
0
 11
862
 21
736.14
 31
0
  0
LINE
  5
80
100
AcDbEntity
  8
200
100
AcDbLine
370
-1
  6
AUSGEZOGEN
 10
857.4
 20
723.2
 30
0
 11
862
 21
736.14
 31
0
  0
LINE
  5
81
100
AcDbEntity
  8
200
100
AcDbLine
370
-1
  6
AUSGEZOGEN
 10
862
 20
736.95
 30
0
 11
857.4
 21
724.02
 31
0
  0
LINE
  5
82
100
AcDbEntity
  8
200
100
AcDbLine
370
-1
  6
AUSGEZOGEN
 10
848.64
 20
712.2
 30
0
 11
857.4
 21
723.2
 31
0
  0
LINE
  5
83
100
AcDbEntity
  8
200
100
AcDbLine
370
-1
  6
AUSGEZOGEN
 10
857.4
 20
724.02
 30
0
 11
848.64
 21
713.02
 31
0
  0
LINE
  5
84
100
AcDbEntity
  8
200
100
AcDbLine
370
-1
  6
AUSGEZOGEN
 10
836.6
 20
704.2
 30
0
 11
848.64
 21
712.2
 31
0
  0
LINE
  5
85
100
AcDbEntity
  8
200
100
AcDbLine
370
-1
  6
AUSGEZOGEN
 10
848.64
 20
713.02
 30
0
 11
836.6
 21
705.01
 31
0
  0
LINE
  5
86
100
AcDbEntity
  8
200
100
AcDbLine
370
-1
  6
AUSGEZOGEN
 10
822.44
 20
700
 30
0
 11
836.6
 21
704.2
 31
0
  0
LINE
  5
87
100
AcDbEntity
  8
200
100
AcDbLine
370
-1
  6
AUSGEZOGEN
 10
836.6
 20
705.01
 30
0
 11
822.44
 21
700.81
 31
0
  0
LINE
  5
88
100
AcDbEntity
  8
200
100
AcDbLine
370
-1
  6
AUSGEZOGEN
 10
807.56
 20
700
 30
0
 11
822.44
 21
700
 31
0
  0
LINE
  5
89
100
AcDbEntity
  8
200
100
AcDbLine
370
-1
  6
AUSGEZOGEN
 10
822.44
 20
700.81
 30
0
 11
807.56
 21
700.81
 31
0
  0
LINE
  5
8A
100
AcDbEntity
  8
200
100
AcDbLine
370
-1
  6
AUSGEZOGEN
 10
793.4
 20
704.2
 30
0
 11
807.56
 21
700
 31
0
  0
LINE
  5
8B
100
AcDbEntity
  8
200
100
AcDbLine
370
-1
  6
AUSGEZOGEN
 10
781.36
 20
712.2
 30
0
 11
793.4
 21
704.2
 31
0
  0
LINE
  5
8C
100
AcDbEntity
  8
200
100
AcDbLine
370
-1
  6
AUSGEZOGEN
 10
772.6
 20
723.2
 30
0
 11
781.36
 21
712.2
 31
0
  0
LINE
  5
8D
100
AcDbEntity
  8
200
100
AcDbLine
370
-1
  6
AUSGEZOGEN
 10
768
 20
736.14
 30
0
 11
772.6
 21
723.2
 31
0
  0
LINE
  5
8E
100
AcDbEntity
  8
200
100
AcDbLine
370
-1
  6
AUSGEZOGEN
 10
768
 20
750.55
 30
0
 11
768
 21
736.14
 31
0
  0
LINE
  5
8F
100
AcDbEntity
  8
200
100
AcDbLine
370
-1
  6
AUSGEZOGEN
 10
832
 20
779.94
 30
0
 11
824
 21
782.31
 31
0
  0
LINE
  5
90
100
AcDbEntity
  8
200
100
AcDbLine
370
-1
  6
AUSGEZOGEN
 10
841.48
 20
773.63
 30
0
 11
832
 21
779.94
 31
0
  0
LINE
  5
91
100
AcDbEntity
  8
200
100
AcDbLine
370
-1
  6
AUSGEZOGEN
 10
848.38
 20
764.97
 30
0
 11
841.48
 21
773.63
 31
0
  0
LINE
  5
92
100
AcDbEntity
  8
200
100
AcDbLine
370
-1
  6
AUSGEZOGEN
 10
852
 20
754.8
 30
0
 11
848.38
 21
764.97
 31
0
  0
LINE
  5
93
100
AcDbEntity
  8
200
100
AcDbLine
370
-1
  6
AUSGEZOGEN
 10
848.38
 20
733.91
 30
0
 11
852
 21
744.09
 31
0
  0
LINE
  5
94
100
AcDbEntity
  8
200
100
AcDbLine
370
-1
  6
AUSGEZOGEN
 10
852
 20
754.8
 30
0
 11
852
 21
738.4
 31
0
  0
LINE
  5
95
100
AcDbEntity
  8
200
100
AcDbLine
370
-1
  6
AUSGEZOGEN
 10
848.38
 20
728.22
 30
0
 11
852
 21
738.4
 31
0
  0
LINE
  5
96
100
AcDbEntity
  8
200
100
AcDbLine
370
-1
  6
AUSGEZOGEN
 10
841.48
 20
719.56
 30
0
 11
848.38
 21
728.22
 31
0
  0
LINE
  5
97
100
AcDbEntity
  8
200
100
AcDbLine
370
-1
  6
AUSGEZOGEN
 10
848.38
 20
733.91
 30
0
 11
841.48
 21
725.25
 31
0
  0
LINE
  5
98
100
AcDbEntity
  8
200
100
AcDbLine
370
-1
  6
AUSGEZOGEN
 10
832
 20
713.25
 30
0
 11
841.48
 21
719.56
 31
0
  0
LINE
  5
99
100
AcDbEntity
  8
200
100
AcDbLine
370
-1
  6
AUSGEZOGEN
 10
841.48
 20
725.25
 30
0
 11
832
 21
718.95
 31
0
  0
LINE
  5
9A
100
AcDbEntity
  8
200
100
AcDbLine
370
-1
  6
AUSGEZOGEN
 10
824
 20
710.88
 30
0
 11
832
 21
713.25
 31
0
  0
LINE
  5
9B
100
AcDbEntity
  8
200
100
AcDbLine
370
-1
  6
AUSGEZOGEN
 10
824
 20
793.15
 30
0
 11
824
 21
701.28
 31
0
  0
LINE
  5
9C
100
AcDbEntity
  8
200
100
AcDbLine
370
-1
  6
AUSGEZOGEN
 10
832
 20
718.95
 30
0
 11
824
 21
716.57
 31
0
  0
LINE
  5
9D
100
AcDbEntity
  8
200
100
AcDbLine
370
-1
  6
AUSGEZOGEN
 10
781.62
 20
764.97
 30
0
 11
778
 21
754.8
 31
0
  0
LINE
  5
9E
100
AcDbEntity
  8
200
100
AcDbLine
370
-1
  6
AUSGEZOGEN
 10
788.52
 20
773.63
 30
0
 11
781.62
 21
764.97
 31
0
  0
LINE
  5
9F
100
AcDbEntity
  8
200
100
AcDbLine
370
-1
  6
AUSGEZOGEN
 10
798
 20
779.94
 30
0
 11
788.52
 21
773.63
 31
0
  0
LINE
  5
A0
100
AcDbEntity
  8
200
100
AcDbLine
370
-1
  6
AUSGEZOGEN
 10
806
 20
782.31
 30
0
 11
798
 21
779.94
 31
0
  0
LINE
  5
A1
100
AcDbEntity
  8
200
100
AcDbLine
370
-1
  6
AUSGEZOGEN
 10
798
 20
718.95
 30
0
 11
806
 21
716.57
 31
0
  0
LINE
  5
A2
100
AcDbEntity
  8
200
100
AcDbLine
370
-1
  6
AUSGEZOGEN
 10
788.52
 20
725.25
 30
0
 11
798
 21
718.95
 31
0
  0
LINE
  5
A3
100
AcDbEntity
  8
200
100
AcDbLine
370
-1
  6
AUSGEZOGEN
 10
781.62
 20
733.91
 30
0
 11
788.52
 21
725.25
 31
0
  0
LINE
  5
A4
100
AcDbEntity
  8
200
100
AcDbLine
370
-1
  6
AUSGEZOGEN
 10
778
 20
744.09
 30
0
 11
781.62
 21
733.91
 31
0
  0
LINE
  5
A5
100
AcDbEntity
  8
200
100
AcDbLine
370
-1
  6
AUSGEZOGEN
 10
806
 20
710.88
 30
0
 11
798
 21
713.25
 31
0
  0
LINE
  5
A6
100
AcDbEntity
  8
200
100
AcDbLine
370
-1
  6
AUSGEZOGEN
 10
806
 20
793.15
 30
0
 11
806
 21
701.28
 31
0
  0
LINE
  5
A7
100
AcDbEntity
  8
200
100
AcDbLine
370
-1
  6
AUSGEZOGEN
 10
788.52
 20
719.56
 30
0
 11
798
 21
713.25
 31
0
  0
LINE
  5
A8
100
AcDbEntity
  8
200
100
AcDbLine
370
-1
  6
AUSGEZOGEN
 10
781.62
 20
728.22
 30
0
 11
788.52
 21
719.56
 31
0
  0
LINE
  5
A9
100
AcDbEntity
  8
200
100
AcDbLine
370
-1
  6
AUSGEZOGEN
 10
778
 20
738.4
 30
0
 11
781.62
 21
728.22
 31
0
  0
LINE
  5
AA
100
AcDbEntity
  8
200
100
AcDbLine
370
-1
  6
AUSGEZOGEN
 10
778
 20
754.8
 30
0
 11
778
 21
738.4
 31
0
  0
LINE
  5
AB
100
AcDbEntity
  8
200
100
AcDbLine
370
-1
  6
AUSGEZOGEN
 10
1615
 20
840
 30
0
 11
15
 21
840
 31
0
  0
LINE
  5
AC
100
AcDbEntity
  8
200
100
AcDbLine
370
-1
  6
AUSGEZOGEN
 10
15
 20
900
 30
0
 11
1615
 21
900
 31
0
  0
LINE
  5
AD
100
AcDbEntity
  8
200
100
AcDbLine
370
-1
  6
AUSGEZOGEN
 10
1615
 20
936
 30
0
 11
15
 21
936
 31
0
  0
LINE
  5
AE
100
AcDbEntity
  8
200
100
AcDbLine
370
-1
  6
AUSGEZOGEN
 10
15
 20
956.11
 30
0
 11
1615
 21
956.11
 31
0
  0
LINE
  5
AF
100
AcDbEntity
  8
200
100
AcDbLine
370
-1
  6
AUSGEZOGEN
 10
15
 20
150
 30
0
 11
15
 21
956.11
 31
0
  0
LINE
  5
B0
100
AcDbEntity
  8
200
100
AcDbLine
370
-1
  6
AUSGEZOGEN
 10
1615
 20
956.11
 30
0
 11
1615
 21
150
 31
0
  0
LINE
  5
B1
100
AcDbEntity
  8
200
100
AcDbLine
370
-1
  6
AUSGEZOGEN
 10
15
 20
918
 30
0
 11
1615
 21
918
 31
0
  0
LINE
  5
B2
100
AcDbEntity
  8
200
100
AcDbLine
370
-1
  6
AUSGEZOGEN
 10
659
 20
939.68
 30
0
 11
629
 21
939.68
 31
0
  0
LINE
  5
B3
100
AcDbEntity
  8
200
100
AcDbLine
370
-1
  6
AUSGEZOGEN
 10
629
 20
954.43
 30
0
 11
629
 21
938.68
 31
0
  0
LINE
  5
B4
100
AcDbEntity
  8
200
100
AcDbLine
370
-1
  6
AUSGEZOGEN
 10
659
 20
954.43
 30
0
 11
629
 21
954.43
 31
0
  0
LINE
  5
B5
100
AcDbEntity
  8
200
100
AcDbLine
370
-1
  6
AUSGEZOGEN
 10
659
 20
938.68
 30
0
 11
659
 21
954.43
 31
0
  0
LINE
  5
B6
100
AcDbEntity
  8
200
100
AcDbLine
370
-1
  6
AUSGEZOGEN
 10
697
 20
939.68
 30
0
 11
667
 21
939.68
 31
0
  0
LINE
  5
B7
100
AcDbEntity
  8
200
100
AcDbLine
370
-1
  6
AUSGEZOGEN
 10
667
 20
954.43
 30
0
 11
667
 21
938.68
 31
0
  0
LINE
  5
B8
100
AcDbEntity
  8
200
100
AcDbLine
370
-1
  6
AUSGEZOGEN
 10
697
 20
954.43
 30
0
 11
667
 21
954.43
 31
0
  0
LINE
  5
B9
100
AcDbEntity
  8
200
100
AcDbLine
370
-1
  6
AUSGEZOGEN
 10
697
 20
938.68
 30
0
 11
697
 21
954.43
 31
0
  0
LINE
  5
BA
100
AcDbEntity
  8
200
100
AcDbLine
370
-1
  6
AUSGEZOGEN
 10
735
 20
939.68
 30
0
 11
705
 21
939.68
 31
0
  0
LINE
  5
BB
100
AcDbEntity
  8
200
100
AcDbLine
370
-1
  6
AUSGEZOGEN
 10
705
 20
954.43
 30
0
 11
705
 21
938.68
 31
0
  0
LINE
  5
BC
100
AcDbEntity
  8
200
100
AcDbLine
370
-1
  6
AUSGEZOGEN
 10
735
 20
954.43
 30
0
 11
705
 21
954.43
 31
0
  0
LINE
  5
BD
100
AcDbEntity
  8
200
100
AcDbLine
370
-1
  6
AUSGEZOGEN
 10
735
 20
938.68
 30
0
 11
735
 21
954.43
 31
0
  0
LINE
  5
BE
100
AcDbEntity
  8
200
100
AcDbLine
370
-1
  6
AUSGEZOGEN
 10
773
 20
939.68
 30
0
 11
743
 21
939.68
 31
0
  0
LINE
  5
BF
100
AcDbEntity
  8
200
100
AcDbLine
370
-1
  6
AUSGEZOGEN
 10
743
 20
954.43
 30
0
 11
743
 21
938.68
 31
0
  0
LINE
  5
C0
100
AcDbEntity
  8
200
100
AcDbLine
370
-1
  6
AUSGEZOGEN
 10
773
 20
954.43
 30
0
 11
743
 21
954.43
 31
0
  0
LINE
  5
C1
100
AcDbEntity
  8
200
100
AcDbLine
370
-1
  6
AUSGEZOGEN
 10
773
 20
938.68
 30
0
 11
773
 21
954.43
 31
0
  0
LINE
  5
C2
100
AcDbEntity
  8
200
100
AcDbLine
370
-1
  6
AUSGEZOGEN
 10
811
 20
939.68
 30
0
 11
781
 21
939.68
 31
0
  0
LINE
  5
C3
100
AcDbEntity
  8
200
100
AcDbLine
370
-1
  6
AUSGEZOGEN
 10
781
 20
954.43
 30
0
 11
781
 21
938.68
 31
0
  0
LINE
  5
C4
100
AcDbEntity
  8
200
100
AcDbLine
370
-1
  6
AUSGEZOGEN
 10
811
 20
954.43
 30
0
 11
781
 21
954.43
 31
0
  0
LINE
  5
C5
100
AcDbEntity
  8
200
100
AcDbLine
370
-1
  6
AUSGEZOGEN
 10
811
 20
938.68
 30
0
 11
811
 21
954.43
 31
0
  0
LINE
  5
C6
100
AcDbEntity
  8
200
100
AcDbLine
370
-1
  6
AUSGEZOGEN
 10
849
 20
939.68
 30
0
 11
819
 21
939.68
 31
0
  0
LINE
  5
C7
100
AcDbEntity
  8
200
100
AcDbLine
370
-1
  6
AUSGEZOGEN
 10
819
 20
954.43
 30
0
 11
819
 21
938.68
 31
0
  0
LINE
  5
C8
100
AcDbEntity
  8
200
100
AcDbLine
370
-1
  6
AUSGEZOGEN
 10
849
 20
954.43
 30
0
 11
819
 21
954.43
 31
0
  0
LINE
  5
C9
100
AcDbEntity
  8
200
100
AcDbLine
370
-1
  6
AUSGEZOGEN
 10
849
 20
938.68
 30
0
 11
849
 21
954.43
 31
0
  0
LINE
  5
CA
100
AcDbEntity
  8
200
100
AcDbLine
370
-1
  6
AUSGEZOGEN
 10
887
 20
939.68
 30
0
 11
857
 21
939.68
 31
0
  0
LINE
  5
CB
100
AcDbEntity
  8
200
100
AcDbLine
370
-1
  6
AUSGEZOGEN
 10
857
 20
954.43
 30
0
 11
857
 21
938.68
 31
0
  0
LINE
  5
CC
100
AcDbEntity
  8
200
100
AcDbLine
370
-1
  6
AUSGEZOGEN
 10
887
 20
954.43
 30
0
 11
857
 21
954.43
 31
0
  0
LINE
  5
CD
100
AcDbEntity
  8
200
100
AcDbLine
370
-1
  6
AUSGEZOGEN
 10
887
 20
938.68
 30
0
 11
887
 21
954.43
 31
0
  0
LINE
  5
CE
100
AcDbEntity
  8
200
100
AcDbLine
370
-1
  6
AUSGEZOGEN
 10
925
 20
939.68
 30
0
 11
895
 21
939.68
 31
0
  0
LINE
  5
CF
100
AcDbEntity
  8
200
100
AcDbLine
370
-1
  6
AUSGEZOGEN
 10
895
 20
954.43
 30
0
 11
895
 21
938.68
 31
0
  0
LINE
  5
D0
100
AcDbEntity
  8
200
100
AcDbLine
370
-1
  6
AUSGEZOGEN
 10
925
 20
954.43
 30
0
 11
895
 21
954.43
 31
0
  0
LINE
  5
D1
100
AcDbEntity
  8
200
100
AcDbLine
370
-1
  6
AUSGEZOGEN
 10
925
 20
938.68
 30
0
 11
925
 21
954.43
 31
0
  0
LINE
  5
D2
100
AcDbEntity
  8
200
100
AcDbLine
370
-1
  6
AUSGEZOGEN
 10
963
 20
939.68
 30
0
 11
933
 21
939.68
 31
0
  0
LINE
  5
D3
100
AcDbEntity
  8
200
100
AcDbLine
370
-1
  6
AUSGEZOGEN
 10
933
 20
954.43
 30
0
 11
933
 21
938.68
 31
0
  0
LINE
  5
D4
100
AcDbEntity
  8
200
100
AcDbLine
370
-1
  6
AUSGEZOGEN
 10
963
 20
954.43
 30
0
 11
933
 21
954.43
 31
0
  0
LINE
  5
D5
100
AcDbEntity
  8
200
100
AcDbLine
370
-1
  6
AUSGEZOGEN
 10
963
 20
938.68
 30
0
 11
963
 21
954.43
 31
0
  0
LINE
  5
D6
100
AcDbEntity
  8
200
100
AcDbLine
370
-1
  6
AUSGEZOGEN
 10
1001
 20
939.68
 30
0
 11
971
 21
939.68
 31
0
  0
LINE
  5
D7
100
AcDbEntity
  8
200
100
AcDbLine
370
-1
  6
AUSGEZOGEN
 10
971
 20
954.43
 30
0
 11
971
 21
938.68
 31
0
  0
LINE
  5
D8
100
AcDbEntity
  8
200
100
AcDbLine
370
-1
  6
AUSGEZOGEN
 10
1001
 20
954.43
 30
0
 11
971
 21
954.43
 31
0
  0
LINE
  5
D9
100
AcDbEntity
  8
200
100
AcDbLine
370
-1
  6
AUSGEZOGEN
 10
1001
 20
938.68
 30
0
 11
1001
 21
954.43
 31
0
  0
LINE
  5
DA
100
AcDbEntity
  8
200
100
AcDbLine
370
-1
  6
AUSGEZOGEN
 10
591
 20
939.68
 30
0
 11
621
 21
939.68
 31
0
  0
LINE
  5
DB
100
AcDbEntity
  8
200
100
AcDbLine
370
-1
  6
AUSGEZOGEN
 10
591
 20
954.43
 30
0
 11
591
 21
938.68
 31
0
  0
LINE
  5
DC
100
AcDbEntity
  8
200
100
AcDbLine
370
-1
  6
AUSGEZOGEN
 10
621
 20
954.43
 30
0
 11
591
 21
954.43
 31
0
  0
LINE
  5
DD
100
AcDbEntity
  8
200
100
AcDbLine
370
-1
  6
AUSGEZOGEN
 10
621
 20
938.68
 30
0
 11
621
 21
954.43
 31
0
  0
LINE
  5
DE
100
AcDbEntity
  8
200
100
AcDbLine
370
-1
  6
AUSGEZOGEN
 10
553
 20
939.68
 30
0
 11
583
 21
939.68
 31
0
  0
LINE
  5
DF
100
AcDbEntity
  8
200
100
AcDbLine
370
-1
  6
AUSGEZOGEN
 10
553
 20
954.43
 30
0
 11
553
 21
938.68
 31
0
  0
LINE
  5
E0
100
AcDbEntity
  8
200
100
AcDbLine
370
-1
  6
AUSGEZOGEN
 10
583
 20
954.43
 30
0
 11
553
 21
954.43
 31
0
  0
LINE
  5
E1
100
AcDbEntity
  8
200
100
AcDbLine
370
-1
  6
AUSGEZOGEN
 10
583
 20
938.68
 30
0
 11
583
 21
954.43
 31
0
  0
LINE
  5
E2
100
AcDbEntity
  8
200
100
AcDbLine
370
-1
  6
AUSGEZOGEN
 10
515
 20
939.68
 30
0
 11
545
 21
939.68
 31
0
  0
LINE
  5
E3
100
AcDbEntity
  8
200
100
AcDbLine
370
-1
  6
AUSGEZOGEN
 10
515
 20
954.43
 30
0
 11
515
 21
938.68
 31
0
  0
LINE
  5
E4
100
AcDbEntity
  8
200
100
AcDbLine
370
-1
  6
AUSGEZOGEN
 10
545
 20
954.43
 30
0
 11
515
 21
954.43
 31
0
  0
LINE
  5
E5
100
AcDbEntity
  8
200
100
AcDbLine
370
-1
  6
AUSGEZOGEN
 10
545
 20
938.68
 30
0
 11
545
 21
954.43
 31
0
  0
LINE
  5
E6
100
AcDbEntity
  8
200
100
AcDbLine
370
-1
  6
AUSGEZOGEN
 10
1039
 20
939.68
 30
0
 11
1009
 21
939.68
 31
0
  0
LINE
  5
E7
100
AcDbEntity
  8
200
100
AcDbLine
370
-1
  6
AUSGEZOGEN
 10
1009
 20
954.43
 30
0
 11
1009
 21
938.68
 31
0
  0
LINE
  5
E8
100
AcDbEntity
  8
200
100
AcDbLine
370
-1
  6
AUSGEZOGEN
 10
1039
 20
954.43
 30
0
 11
1009
 21
954.43
 31
0
  0
LINE
  5
E9
100
AcDbEntity
  8
200
100
AcDbLine
370
-1
  6
AUSGEZOGEN
 10
1039
 20
938.68
 30
0
 11
1039
 21
954.43
 31
0
  0
LINE
  5
EA
100
AcDbEntity
  8
200
100
AcDbLine
370
-1
  6
AUSGEZOGEN
 10
1077
 20
939.68
 30
0
 11
1047
 21
939.68
 31
0
  0
LINE
  5
EB
100
AcDbEntity
  8
200
100
AcDbLine
370
-1
  6
AUSGEZOGEN
 10
1047
 20
954.43
 30
0
 11
1047
 21
938.68
 31
0
  0
LINE
  5
EC
100
AcDbEntity
  8
200
100
AcDbLine
370
-1
  6
AUSGEZOGEN
 10
1077
 20
954.43
 30
0
 11
1047
 21
954.43
 31
0
  0
LINE
  5
ED
100
AcDbEntity
  8
200
100
AcDbLine
370
-1
  6
AUSGEZOGEN
 10
1077
 20
938.68
 30
0
 11
1077
 21
954.43
 31
0
  0
LINE
  5
EE
100
AcDbEntity
  8
200
100
AcDbLine
370
-1
  6
AUSGEZOGEN
 10
1115
 20
939.68
 30
0
 11
1085
 21
939.68
 31
0
  0
LINE
  5
EF
100
AcDbEntity
  8
200
100
AcDbLine
370
-1
  6
AUSGEZOGEN
 10
1085
 20
954.43
 30
0
 11
1085
 21
938.68
 31
0
  0
LINE
  5
F0
100
AcDbEntity
  8
200
100
AcDbLine
370
-1
  6
AUSGEZOGEN
 10
1115
 20
954.43
 30
0
 11
1085
 21
954.43
 31
0
  0
LINE
  5
F1
100
AcDbEntity
  8
200
100
AcDbLine
370
-1
  6
AUSGEZOGEN
 10
1115
 20
938.68
 30
0
 11
1115
 21
954.43
 31
0
  0
LINE
  5
F2
100
AcDbEntity
  8
200
100
AcDbLine
370
-1
  6
AUSGEZOGEN
 10
447
 20
900
 30
0
 11
447
 21
901
 31
0
  0
LINE
  5
F3
100
AcDbEntity
  8
200
100
AcDbLine
370
-1
  6
AUSGEZOGEN
 10
1183
 20
901
 30
0
 11
447
 21
901
 31
0
  0
LINE
  5
F4
100
AcDbEntity
  8
200
100
AcDbLine
370
-1
  6
AUSGEZOGEN
 10
1183
 20
900
 30
0
 11
1183
 21
901
 31
0
  0
LINE
  5
F5
100
AcDbEntity
  8
200
100
AcDbLine
370
-1
  6
AUSGEZOGEN
 10
452
 20
902
 30
0
 11
452
 21
901
 31
0
  0
LINE
  5
F6
100
AcDbEntity
  8
200
100
AcDbLine
370
-1
  6
AUSGEZOGEN
 10
1178
 20
902
 30
0
 11
452
 21
902
 31
0
  0
LINE
  5
F7
100
AcDbEntity
  8
200
100
AcDbLine
370
-1
  6
AUSGEZOGEN
 10
1178
 20
901
 30
0
 11
1178
 21
902
 31
0
  0
LINE
  5
F8
100
AcDbEntity
  8
200
100
AcDbLine
370
-1
  6
AUSGEZOGEN
 10
1344.56
 20
793.61
 30
0
 11
1343
 21
793.15
 31
0
  0
LINE
  5
F9
100
AcDbEntity
  8
200
100
AcDbLine
370
-1
  6
AUSGEZOGEN
 10
1359.44
 20
793.61
 30
0
 11
1344.56
 21
793.61
 31
0
  0
LINE
  5
FA
100
AcDbEntity
  8
200
100
AcDbLine
370
-1
  6
AUSGEZOGEN
 10
1361
 20
793.15
 30
0
 11
1359.44
 21
793.61
 31
0
  0
LINE
  5
FB
100
AcDbEntity
  8
200
100
AcDbLine
370
-1
  6
AUSGEZOGEN
 10
1359.44
 20
715.05
 30
0
 11
1361
 21
715.51
 31
0
  0
LINE
  5
FC
100
AcDbEntity
  8
200
100
AcDbLine
370
-1
  6
AUSGEZOGEN
 10
1344.56
 20
715.05
 30
0
 11
1359.44
 21
715.05
 31
0
  0
LINE
  5
FD
100
AcDbEntity
  8
200
100
AcDbLine
370
-1
  6
AUSGEZOGEN
 10
1343
 20
715.51
 30
0
 11
1344.56
 21
715.05
 31
0
  0
LINE
  5
FE
100
AcDbEntity
  8
200
100
AcDbLine
370
-1
  6
AUSGEZOGEN
 10
1361
 20
701.28
 30
0
 11
1359.44
 21
700.81
 31
0
  0
LINE
  5
FF
100
AcDbEntity
  8
200
100
AcDbLine
370
-1
  6
AUSGEZOGEN
 10
1343
 20
701.28
 30
0
 11
1344.56
 21
700.81
 31
0
  0
LINE
  5
100
100
AcDbEntity
  8
200
100
AcDbLine
370
-1
  6
AUSGEZOGEN
 10
1309.6
 20
763.48
 30
0
 11
1305
 21
750.55
 31
0
  0
LINE
  5
101
100
AcDbEntity
  8
200
100
AcDbLine
370
-1
  6
AUSGEZOGEN
 10
1318.36
 20
774.48
 30
0
 11
1309.6
 21
763.48
 31
0
  0
LINE
  5
102
100
AcDbEntity
  8
200
100
AcDbLine
370
-1
  6
AUSGEZOGEN
 10
1330.4
 20
782.48
 30
0
 11
1318.36
 21
774.48
 31
0
  0
LINE
  5
103
100
AcDbEntity
  8
200
100
AcDbLine
370
-1
  6
AUSGEZOGEN
 10
1343
 20
786.23
 30
0
 11
1330.4
 21
782.48
 31
0
  0
LINE
  5
104
100
AcDbEntity
  8
200
100
AcDbLine
370
-1
  6
AUSGEZOGEN
 10
1373.6
 20
782.48
 30
0
 11
1361
 21
786.23
 31
0
  0
LINE
  5
105
100
AcDbEntity
  8
200
100
AcDbLine
370
-1
  6
AUSGEZOGEN
 10
1385.64
 20
774.48
 30
0
 11
1373.6
 21
782.48
 31
0
  0
LINE
  5
106
100
AcDbEntity
  8
200
100
AcDbLine
370
-1
  6
AUSGEZOGEN
 10
1394.4
 20
763.48
 30
0
 11
1385.64
 21
774.48
 31
0
  0
LINE
  5
107
100
AcDbEntity
  8
200
100
AcDbLine
370
-1
  6
AUSGEZOGEN
 10
1399
 20
750.55
 30
0
 11
1394.4
 21
763.48
 31
0
  0
LINE
  5
108
100
AcDbEntity
  8
200
100
AcDbLine
370
-1
  6
AUSGEZOGEN
 10
1330.4
 20
705.01
 30
0
 11
1344.56
 21
700.81
 31
0
  0
LINE
  5
109
100
AcDbEntity
  8
200
100
AcDbLine
370
-1
  6
AUSGEZOGEN
 10
1318.36
 20
713.02
 30
0
 11
1330.4
 21
705.01
 31
0
  0
LINE
  5
10A
100
AcDbEntity
  8
200
100
AcDbLine
370
-1
  6
AUSGEZOGEN
 10
1309.6
 20
724.02
 30
0
 11
1318.36
 21
713.02
 31
0
  0
LINE
  5
10B
100
AcDbEntity
  8
200
100
AcDbLine
370
-1
  6
AUSGEZOGEN
 10
1305
 20
736.95
 30
0
 11
1309.6
 21
724.02
 31
0
  0
LINE
  5
10C
100
AcDbEntity
  8
200
100
AcDbLine
370
-1
  6
AUSGEZOGEN
 10
1399
 20
750.55
 30
0
 11
1399
 21
736.14
 31
0
  0
LINE
  5
10D
100
AcDbEntity
  8
200
100
AcDbLine
370
-1
  6
AUSGEZOGEN
 10
1394.4
 20
723.2
 30
0
 11
1399
 21
736.14
 31
0
  0
LINE
  5
10E
100
AcDbEntity
  8
200
100
AcDbLine
370
-1
  6
AUSGEZOGEN
 10
1399
 20
736.95
 30
0
 11
1394.4
 21
724.02
 31
0
  0
LINE
  5
10F
100
AcDbEntity
  8
200
100
AcDbLine
370
-1
  6
AUSGEZOGEN
 10
1385.64
 20
712.2
 30
0
 11
1394.4
 21
723.2
 31
0
  0
LINE
  5
110
100
AcDbEntity
  8
200
100
AcDbLine
370
-1
  6
AUSGEZOGEN
 10
1394.4
 20
724.02
 30
0
 11
1385.64
 21
713.02
 31
0
  0
LINE
  5
111
100
AcDbEntity
  8
200
100
AcDbLine
370
-1
  6
AUSGEZOGEN
 10
1373.6
 20
704.2
 30
0
 11
1385.64
 21
712.2
 31
0
  0
LINE
  5
112
100
AcDbEntity
  8
200
100
AcDbLine
370
-1
  6
AUSGEZOGEN
 10
1385.64
 20
713.02
 30
0
 11
1373.6
 21
705.01
 31
0
  0
LINE
  5
113
100
AcDbEntity
  8
200
100
AcDbLine
370
-1
  6
AUSGEZOGEN
 10
1359.44
 20
700
 30
0
 11
1373.6
 21
704.2
 31
0
  0
LINE
  5
114
100
AcDbEntity
  8
200
100
AcDbLine
370
-1
  6
AUSGEZOGEN
 10
1373.6
 20
705.01
 30
0
 11
1359.44
 21
700.81
 31
0
  0
LINE
  5
115
100
AcDbEntity
  8
200
100
AcDbLine
370
-1
  6
AUSGEZOGEN
 10
1344.56
 20
700
 30
0
 11
1359.44
 21
700
 31
0
  0
LINE
  5
116
100
AcDbEntity
  8
200
100
AcDbLine
370
-1
  6
AUSGEZOGEN
 10
1359.44
 20
700.81
 30
0
 11
1344.56
 21
700.81
 31
0
  0
LINE
  5
117
100
AcDbEntity
  8
200
100
AcDbLine
370
-1
  6
AUSGEZOGEN
 10
1330.4
 20
704.2
 30
0
 11
1344.56
 21
700
 31
0
  0
LINE
  5
118
100
AcDbEntity
  8
200
100
AcDbLine
370
-1
  6
AUSGEZOGEN
 10
1318.36
 20
712.2
 30
0
 11
1330.4
 21
704.2
 31
0
  0
LINE
  5
119
100
AcDbEntity
  8
200
100
AcDbLine
370
-1
  6
AUSGEZOGEN
 10
1309.6
 20
723.2
 30
0
 11
1318.36
 21
712.2
 31
0
  0
LINE
  5
11A
100
AcDbEntity
  8
200
100
AcDbLine
370
-1
  6
AUSGEZOGEN
 10
1305
 20
736.14
 30
0
 11
1309.6
 21
723.2
 31
0
  0
LINE
  5
11B
100
AcDbEntity
  8
200
100
AcDbLine
370
-1
  6
AUSGEZOGEN
 10
1305
 20
750.55
 30
0
 11
1305
 21
736.14
 31
0
  0
LINE
  5
11C
100
AcDbEntity
  8
200
100
AcDbLine
370
-1
  6
AUSGEZOGEN
 10
1369
 20
779.94
 30
0
 11
1361
 21
782.31
 31
0
  0
LINE
  5
11D
100
AcDbEntity
  8
200
100
AcDbLine
370
-1
  6
AUSGEZOGEN
 10
1378.48
 20
773.63
 30
0
 11
1369
 21
779.94
 31
0
  0
LINE
  5
11E
100
AcDbEntity
  8
200
100
AcDbLine
370
-1
  6
AUSGEZOGEN
 10
1385.38
 20
764.97
 30
0
 11
1378.48
 21
773.63
 31
0
  0
LINE
  5
11F
100
AcDbEntity
  8
200
100
AcDbLine
370
-1
  6
AUSGEZOGEN
 10
1389
 20
754.8
 30
0
 11
1385.38
 21
764.97
 31
0
  0
LINE
  5
120
100
AcDbEntity
  8
200
100
AcDbLine
370
-1
  6
AUSGEZOGEN
 10
1385.38
 20
733.91
 30
0
 11
1389
 21
744.09
 31
0
  0
LINE
  5
121
100
AcDbEntity
  8
200
100
AcDbLine
370
-1
  6
AUSGEZOGEN
 10
1389
 20
754.8
 30
0
 11
1389
 21
738.4
 31
0
  0
LINE
  5
122
100
AcDbEntity
  8
200
100
AcDbLine
370
-1
  6
AUSGEZOGEN
 10
1385.38
 20
728.22
 30
0
 11
1389
 21
738.4
 31
0
  0
LINE
  5
123
100
AcDbEntity
  8
200
100
AcDbLine
370
-1
  6
AUSGEZOGEN
 10
1378.48
 20
719.56
 30
0
 11
1385.38
 21
728.22
 31
0
  0
LINE
  5
124
100
AcDbEntity
  8
200
100
AcDbLine
370
-1
  6
AUSGEZOGEN
 10
1385.38
 20
733.91
 30
0
 11
1378.48
 21
725.25
 31
0
  0
LINE
  5
125
100
AcDbEntity
  8
200
100
AcDbLine
370
-1
  6
AUSGEZOGEN
 10
1369
 20
713.25
 30
0
 11
1378.48
 21
719.56
 31
0
  0
LINE
  5
126
100
AcDbEntity
  8
200
100
AcDbLine
370
-1
  6
AUSGEZOGEN
 10
1378.48
 20
725.25
 30
0
 11
1369
 21
718.95
 31
0
  0
LINE
  5
127
100
AcDbEntity
  8
200
100
AcDbLine
370
-1
  6
AUSGEZOGEN
 10
1361
 20
710.88
 30
0
 11
1369
 21
713.25
 31
0
  0
LINE
  5
128
100
AcDbEntity
  8
200
100
AcDbLine
370
-1
  6
AUSGEZOGEN
 10
1361
 20
793.15
 30
0
 11
1361
 21
701.28
 31
0
  0
LINE
  5
129
100
AcDbEntity
  8
200
100
AcDbLine
370
-1
  6
AUSGEZOGEN
 10
1369
 20
718.95
 30
0
 11
1361
 21
716.57
 31
0
  0
LINE
  5
12A
100
AcDbEntity
  8
200
100
AcDbLine
370
-1
  6
AUSGEZOGEN
 10
1318.62
 20
764.97
 30
0
 11
1315
 21
754.8
 31
0
  0
LINE
  5
12B
100
AcDbEntity
  8
200
100
AcDbLine
370
-1
  6
AUSGEZOGEN
 10
1325.52
 20
773.63
 30
0
 11
1318.62
 21
764.97
 31
0
  0
LINE
  5
12C
100
AcDbEntity
  8
200
100
AcDbLine
370
-1
  6
AUSGEZOGEN
 10
1335
 20
779.94
 30
0
 11
1325.52
 21
773.63
 31
0
  0
LINE
  5
12D
100
AcDbEntity
  8
200
100
AcDbLine
370
-1
  6
AUSGEZOGEN
 10
1343
 20
782.31
 30
0
 11
1335
 21
779.94
 31
0
  0
LINE
  5
12E
100
AcDbEntity
  8
200
100
AcDbLine
370
-1
  6
AUSGEZOGEN
 10
1335
 20
718.95
 30
0
 11
1343
 21
716.57
 31
0
  0
LINE
  5
12F
100
AcDbEntity
  8
200
100
AcDbLine
370
-1
  6
AUSGEZOGEN
 10
1325.52
 20
725.25
 30
0
 11
1335
 21
718.95
 31
0
  0
LINE
  5
130
100
AcDbEntity
  8
200
100
AcDbLine
370
-1
  6
AUSGEZOGEN
 10
1318.62
 20
733.91
 30
0
 11
1325.52
 21
725.25
 31
0
  0
LINE
  5
131
100
AcDbEntity
  8
200
100
AcDbLine
370
-1
  6
AUSGEZOGEN
 10
1315
 20
744.09
 30
0
 11
1318.62
 21
733.91
 31
0
  0
LINE
  5
132
100
AcDbEntity
  8
200
100
AcDbLine
370
-1
  6
AUSGEZOGEN
 10
1343
 20
710.88
 30
0
 11
1335
 21
713.25
 31
0
  0
LINE
  5
133
100
AcDbEntity
  8
200
100
AcDbLine
370
-1
  6
AUSGEZOGEN
 10
1343
 20
793.15
 30
0
 11
1343
 21
701.28
 31
0
  0
LINE
  5
134
100
AcDbEntity
  8
200
100
AcDbLine
370
-1
  6
AUSGEZOGEN
 10
1325.52
 20
719.56
 30
0
 11
1335
 21
713.25
 31
0
  0
LINE
  5
135
100
AcDbEntity
  8
200
100
AcDbLine
370
-1
  6
AUSGEZOGEN
 10
1318.62
 20
728.22
 30
0
 11
1325.52
 21
719.56
 31
0
  0
LINE
  5
136
100
AcDbEntity
  8
200
100
AcDbLine
370
-1
  6
AUSGEZOGEN
 10
1315
 20
738.4
 30
0
 11
1318.62
 21
728.22
 31
0
  0
LINE
  5
137
100
AcDbEntity
  8
200
100
AcDbLine
370
-1
  6
AUSGEZOGEN
 10
1315
 20
754.8
 30
0
 11
1315
 21
738.4
 31
0
  0
LINE
  5
138
100
AcDbEntity
  8
200
100
AcDbLine
370
-1
  6
AUSGEZOGEN
 10
1470.56
 20
793.61
 30
0
 11
1469
 21
793.15
 31
0
  0
LINE
  5
139
100
AcDbEntity
  8
200
100
AcDbLine
370
-1
  6
AUSGEZOGEN
 10
1485.44
 20
793.61
 30
0
 11
1470.56
 21
793.61
 31
0
  0
LINE
  5
13A
100
AcDbEntity
  8
200
100
AcDbLine
370
-1
  6
AUSGEZOGEN
 10
1487
 20
793.15
 30
0
 11
1485.44
 21
793.61
 31
0
  0
LINE
  5
13B
100
AcDbEntity
  8
200
100
AcDbLine
370
-1
  6
AUSGEZOGEN
 10
1485.44
 20
715.05
 30
0
 11
1487
 21
715.51
 31
0
  0
LINE
  5
13C
100
AcDbEntity
  8
200
100
AcDbLine
370
-1
  6
AUSGEZOGEN
 10
1470.56
 20
715.05
 30
0
 11
1485.44
 21
715.05
 31
0
  0
LINE
  5
13D
100
AcDbEntity
  8
200
100
AcDbLine
370
-1
  6
AUSGEZOGEN
 10
1469
 20
715.51
 30
0
 11
1470.56
 21
715.05
 31
0
  0
LINE
  5
13E
100
AcDbEntity
  8
200
100
AcDbLine
370
-1
  6
AUSGEZOGEN
 10
1487
 20
701.28
 30
0
 11
1485.44
 21
700.81
 31
0
  0
LINE
  5
13F
100
AcDbEntity
  8
200
100
AcDbLine
370
-1
  6
AUSGEZOGEN
 10
1469
 20
701.28
 30
0
 11
1470.56
 21
700.81
 31
0
  0
LINE
  5
140
100
AcDbEntity
  8
200
100
AcDbLine
370
-1
  6
AUSGEZOGEN
 10
1435.6
 20
763.48
 30
0
 11
1431
 21
750.55
 31
0
  0
LINE
  5
141
100
AcDbEntity
  8
200
100
AcDbLine
370
-1
  6
AUSGEZOGEN
 10
1444.36
 20
774.48
 30
0
 11
1435.6
 21
763.48
 31
0
  0
LINE
  5
142
100
AcDbEntity
  8
200
100
AcDbLine
370
-1
  6
AUSGEZOGEN
 10
1456.4
 20
782.48
 30
0
 11
1444.36
 21
774.48
 31
0
  0
LINE
  5
143
100
AcDbEntity
  8
200
100
AcDbLine
370
-1
  6
AUSGEZOGEN
 10
1469
 20
786.23
 30
0
 11
1456.4
 21
782.48
 31
0
  0
LINE
  5
144
100
AcDbEntity
  8
200
100
AcDbLine
370
-1
  6
AUSGEZOGEN
 10
1499.6
 20
782.48
 30
0
 11
1487
 21
786.23
 31
0
  0
LINE
  5
145
100
AcDbEntity
  8
200
100
AcDbLine
370
-1
  6
AUSGEZOGEN
 10
1511.64
 20
774.48
 30
0
 11
1499.6
 21
782.48
 31
0
  0
LINE
  5
146
100
AcDbEntity
  8
200
100
AcDbLine
370
-1
  6
AUSGEZOGEN
 10
1520.4
 20
763.48
 30
0
 11
1511.64
 21
774.48
 31
0
  0
LINE
  5
147
100
AcDbEntity
  8
200
100
AcDbLine
370
-1
  6
AUSGEZOGEN
 10
1525
 20
750.55
 30
0
 11
1520.4
 21
763.48
 31
0
  0
LINE
  5
148
100
AcDbEntity
  8
200
100
AcDbLine
370
-1
  6
AUSGEZOGEN
 10
1456.4
 20
705.01
 30
0
 11
1470.56
 21
700.81
 31
0
  0
LINE
  5
149
100
AcDbEntity
  8
200
100
AcDbLine
370
-1
  6
AUSGEZOGEN
 10
1444.36
 20
713.02
 30
0
 11
1456.4
 21
705.01
 31
0
  0
LINE
  5
14A
100
AcDbEntity
  8
200
100
AcDbLine
370
-1
  6
AUSGEZOGEN
 10
1435.6
 20
724.02
 30
0
 11
1444.36
 21
713.02
 31
0
  0
LINE
  5
14B
100
AcDbEntity
  8
200
100
AcDbLine
370
-1
  6
AUSGEZOGEN
 10
1431
 20
736.95
 30
0
 11
1435.6
 21
724.02
 31
0
  0
LINE
  5
14C
100
AcDbEntity
  8
200
100
AcDbLine
370
-1
  6
AUSGEZOGEN
 10
1525
 20
750.55
 30
0
 11
1525
 21
736.14
 31
0
  0
LINE
  5
14D
100
AcDbEntity
  8
200
100
AcDbLine
370
-1
  6
AUSGEZOGEN
 10
1520.4
 20
723.2
 30
0
 11
1525
 21
736.14
 31
0
  0
LINE
  5
14E
100
AcDbEntity
  8
200
100
AcDbLine
370
-1
  6
AUSGEZOGEN
 10
1525
 20
736.95
 30
0
 11
1520.4
 21
724.02
 31
0
  0
LINE
  5
14F
100
AcDbEntity
  8
200
100
AcDbLine
370
-1
  6
AUSGEZOGEN
 10
1511.64
 20
712.2
 30
0
 11
1520.4
 21
723.2
 31
0
  0
LINE
  5
150
100
AcDbEntity
  8
200
100
AcDbLine
370
-1
  6
AUSGEZOGEN
 10
1520.4
 20
724.02
 30
0
 11
1511.64
 21
713.02
 31
0
  0
LINE
  5
151
100
AcDbEntity
  8
200
100
AcDbLine
370
-1
  6
AUSGEZOGEN
 10
1499.6
 20
704.2
 30
0
 11
1511.64
 21
712.2
 31
0
  0
LINE
  5
152
100
AcDbEntity
  8
200
100
AcDbLine
370
-1
  6
AUSGEZOGEN
 10
1511.64
 20
713.02
 30
0
 11
1499.6
 21
705.01
 31
0
  0
LINE
  5
153
100
AcDbEntity
  8
200
100
AcDbLine
370
-1
  6
AUSGEZOGEN
 10
1485.44
 20
700
 30
0
 11
1499.6
 21
704.2
 31
0
  0
LINE
  5
154
100
AcDbEntity
  8
200
100
AcDbLine
370
-1
  6
AUSGEZOGEN
 10
1499.6
 20
705.01
 30
0
 11
1485.44
 21
700.81
 31
0
  0
LINE
  5
155
100
AcDbEntity
  8
200
100
AcDbLine
370
-1
  6
AUSGEZOGEN
 10
1470.56
 20
700
 30
0
 11
1485.44
 21
700
 31
0
  0
LINE
  5
156
100
AcDbEntity
  8
200
100
AcDbLine
370
-1
  6
AUSGEZOGEN
 10
1485.44
 20
700.81
 30
0
 11
1470.56
 21
700.81
 31
0
  0
LINE
  5
157
100
AcDbEntity
  8
200
100
AcDbLine
370
-1
  6
AUSGEZOGEN
 10
1456.4
 20
704.2
 30
0
 11
1470.56
 21
700
 31
0
  0
LINE
  5
158
100
AcDbEntity
  8
200
100
AcDbLine
370
-1
  6
AUSGEZOGEN
 10
1444.36
 20
712.2
 30
0
 11
1456.4
 21
704.2
 31
0
  0
LINE
  5
159
100
AcDbEntity
  8
200
100
AcDbLine
370
-1
  6
AUSGEZOGEN
 10
1435.6
 20
723.2
 30
0
 11
1444.36
 21
712.2
 31
0
  0
LINE
  5
15A
100
AcDbEntity
  8
200
100
AcDbLine
370
-1
  6
AUSGEZOGEN
 10
1431
 20
736.14
 30
0
 11
1435.6
 21
723.2
 31
0
  0
LINE
  5
15B
100
AcDbEntity
  8
200
100
AcDbLine
370
-1
  6
AUSGEZOGEN
 10
1431
 20
750.55
 30
0
 11
1431
 21
736.14
 31
0
  0
LINE
  5
15C
100
AcDbEntity
  8
200
100
AcDbLine
370
-1
  6
AUSGEZOGEN
 10
1495
 20
779.94
 30
0
 11
1487
 21
782.31
 31
0
  0
LINE
  5
15D
100
AcDbEntity
  8
200
100
AcDbLine
370
-1
  6
AUSGEZOGEN
 10
1504.48
 20
773.63
 30
0
 11
1495
 21
779.94
 31
0
  0
LINE
  5
15E
100
AcDbEntity
  8
200
100
AcDbLine
370
-1
  6
AUSGEZOGEN
 10
1511.38
 20
764.97
 30
0
 11
1504.48
 21
773.63
 31
0
  0
LINE
  5
15F
100
AcDbEntity
  8
200
100
AcDbLine
370
-1
  6
AUSGEZOGEN
 10
1515
 20
754.8
 30
0
 11
1511.38
 21
764.97
 31
0
  0
LINE
  5
160
100
AcDbEntity
  8
200
100
AcDbLine
370
-1
  6
AUSGEZOGEN
 10
1511.38
 20
733.91
 30
0
 11
1515
 21
744.09
 31
0
  0
LINE
  5
161
100
AcDbEntity
  8
200
100
AcDbLine
370
-1
  6
AUSGEZOGEN
 10
1515
 20
754.8
 30
0
 11
1515
 21
738.4
 31
0
  0
LINE
  5
162
100
AcDbEntity
  8
200
100
AcDbLine
370
-1
  6
AUSGEZOGEN
 10
1511.38
 20
728.22
 30
0
 11
1515
 21
738.4
 31
0
  0
LINE
  5
163
100
AcDbEntity
  8
200
100
AcDbLine
370
-1
  6
AUSGEZOGEN
 10
1504.48
 20
719.56
 30
0
 11
1511.38
 21
728.22
 31
0
  0
LINE
  5
164
100
AcDbEntity
  8
200
100
AcDbLine
370
-1
  6
AUSGEZOGEN
 10
1511.38
 20
733.91
 30
0
 11
1504.48
 21
725.25
 31
0
  0
LINE
  5
165
100
AcDbEntity
  8
200
100
AcDbLine
370
-1
  6
AUSGEZOGEN
 10
1495
 20
713.25
 30
0
 11
1504.48
 21
719.56
 31
0
  0
LINE
  5
166
100
AcDbEntity
  8
200
100
AcDbLine
370
-1
  6
AUSGEZOGEN
 10
1504.48
 20
725.25
 30
0
 11
1495
 21
718.95
 31
0
  0
LINE
  5
167
100
AcDbEntity
  8
200
100
AcDbLine
370
-1
  6
AUSGEZOGEN
 10
1487
 20
710.88
 30
0
 11
1495
 21
713.25
 31
0
  0
LINE
  5
168
100
AcDbEntity
  8
200
100
AcDbLine
370
-1
  6
AUSGEZOGEN
 10
1487
 20
793.15
 30
0
 11
1487
 21
701.28
 31
0
  0
LINE
  5
169
100
AcDbEntity
  8
200
100
AcDbLine
370
-1
  6
AUSGEZOGEN
 10
1495
 20
718.95
 30
0
 11
1487
 21
716.57
 31
0
  0
LINE
  5
16A
100
AcDbEntity
  8
200
100
AcDbLine
370
-1
  6
AUSGEZOGEN
 10
1444.62
 20
764.97
 30
0
 11
1441
 21
754.8
 31
0
  0
LINE
  5
16B
100
AcDbEntity
  8
200
100
AcDbLine
370
-1
  6
AUSGEZOGEN
 10
1451.52
 20
773.63
 30
0
 11
1444.62
 21
764.97
 31
0
  0
LINE
  5
16C
100
AcDbEntity
  8
200
100
AcDbLine
370
-1
  6
AUSGEZOGEN
 10
1461
 20
779.94
 30
0
 11
1451.52
 21
773.63
 31
0
  0
LINE
  5
16D
100
AcDbEntity
  8
200
100
AcDbLine
370
-1
  6
AUSGEZOGEN
 10
1469
 20
782.31
 30
0
 11
1461
 21
779.94
 31
0
  0
LINE
  5
16E
100
AcDbEntity
  8
200
100
AcDbLine
370
-1
  6
AUSGEZOGEN
 10
1461
 20
718.95
 30
0
 11
1469
 21
716.57
 31
0
  0
LINE
  5
16F
100
AcDbEntity
  8
200
100
AcDbLine
370
-1
  6
AUSGEZOGEN
 10
1451.52
 20
725.25
 30
0
 11
1461
 21
718.95
 31
0
  0
LINE
  5
170
100
AcDbEntity
  8
200
100
AcDbLine
370
-1
  6
AUSGEZOGEN
 10
1444.62
 20
733.91
 30
0
 11
1451.52
 21
725.25
 31
0
  0
LINE
  5
171
100
AcDbEntity
  8
200
100
AcDbLine
370
-1
  6
AUSGEZOGEN
 10
1441
 20
744.09
 30
0
 11
1444.62
 21
733.91
 31
0
  0
LINE
  5
172
100
AcDbEntity
  8
200
100
AcDbLine
370
-1
  6
AUSGEZOGEN
 10
1469
 20
710.88
 30
0
 11
1461
 21
713.25
 31
0
  0
LINE
  5
173
100
AcDbEntity
  8
200
100
AcDbLine
370
-1
  6
AUSGEZOGEN
 10
1469
 20
793.15
 30
0
 11
1469
 21
701.28
 31
0
  0
LINE
  5
174
100
AcDbEntity
  8
200
100
AcDbLine
370
-1
  6
AUSGEZOGEN
 10
1451.52
 20
719.56
 30
0
 11
1461
 21
713.25
 31
0
  0
LINE
  5
175
100
AcDbEntity
  8
200
100
AcDbLine
370
-1
  6
AUSGEZOGEN
 10
1444.62
 20
728.22
 30
0
 11
1451.52
 21
719.56
 31
0
  0
LINE
  5
176
100
AcDbEntity
  8
200
100
AcDbLine
370
-1
  6
AUSGEZOGEN
 10
1441
 20
738.4
 30
0
 11
1444.62
 21
728.22
 31
0
  0
LINE
  5
177
100
AcDbEntity
  8
200
100
AcDbLine
370
-1
  6
AUSGEZOGEN
 10
1441
 20
754.8
 30
0
 11
1441
 21
738.4
 31
0
  0
LINE
  5
178
100
AcDbEntity
  8
200
100
AcDbLine
370
-1
  6
AUSGEZOGEN
 10
143
 20
793.15
 30
0
 11
144.56
 21
793.61
 31
0
  0
LINE
  5
179
100
AcDbEntity
  8
200
100
AcDbLine
370
-1
  6
AUSGEZOGEN
 10
159.44
 20
793.61
 30
0
 11
144.56
 21
793.61
 31
0
  0
LINE
  5
17A
100
AcDbEntity
  8
200
100
AcDbLine
370
-1
  6
AUSGEZOGEN
 10
161
 20
793.15
 30
0
 11
159.44
 21
793.61
 31
0
  0
LINE
  5
17B
100
AcDbEntity
  8
200
100
AcDbLine
370
-1
  6
AUSGEZOGEN
 10
159.44
 20
715.05
 30
0
 11
161
 21
715.51
 31
0
  0
LINE
  5
17C
100
AcDbEntity
  8
200
100
AcDbLine
370
-1
  6
AUSGEZOGEN
 10
144.56
 20
715.05
 30
0
 11
159.44
 21
715.05
 31
0
  0
LINE
  5
17D
100
AcDbEntity
  8
200
100
AcDbLine
370
-1
  6
AUSGEZOGEN
 10
143
 20
715.51
 30
0
 11
144.56
 21
715.05
 31
0
  0
LINE
  5
17E
100
AcDbEntity
  8
200
100
AcDbLine
370
-1
  6
AUSGEZOGEN
 10
161
 20
701.28
 30
0
 11
159.44
 21
700.81
 31
0
  0
LINE
  5
17F
100
AcDbEntity
  8
200
100
AcDbLine
370
-1
  6
AUSGEZOGEN
 10
143
 20
701.28
 30
0
 11
144.56
 21
700.81
 31
0
  0
LINE
  5
180
100
AcDbEntity
  8
200
100
AcDbLine
370
-1
  6
AUSGEZOGEN
 10
109.6
 20
763.48
 30
0
 11
105
 21
750.55
 31
0
  0
LINE
  5
181
100
AcDbEntity
  8
200
100
AcDbLine
370
-1
  6
AUSGEZOGEN
 10
118.36
 20
774.48
 30
0
 11
109.6
 21
763.48
 31
0
  0
LINE
  5
182
100
AcDbEntity
  8
200
100
AcDbLine
370
-1
  6
AUSGEZOGEN
 10
130.4
 20
782.48
 30
0
 11
118.36
 21
774.48
 31
0
  0
LINE
  5
183
100
AcDbEntity
  8
200
100
AcDbLine
370
-1
  6
AUSGEZOGEN
 10
143
 20
786.23
 30
0
 11
130.4
 21
782.48
 31
0
  0
LINE
  5
184
100
AcDbEntity
  8
200
100
AcDbLine
370
-1
  6
AUSGEZOGEN
 10
173.6
 20
782.48
 30
0
 11
161
 21
786.23
 31
0
  0
LINE
  5
185
100
AcDbEntity
  8
200
100
AcDbLine
370
-1
  6
AUSGEZOGEN
 10
185.64
 20
774.48
 30
0
 11
173.6
 21
782.48
 31
0
  0
LINE
  5
186
100
AcDbEntity
  8
200
100
AcDbLine
370
-1
  6
AUSGEZOGEN
 10
194.4
 20
763.48
 30
0
 11
185.64
 21
774.48
 31
0
  0
LINE
  5
187
100
AcDbEntity
  8
200
100
AcDbLine
370
-1
  6
AUSGEZOGEN
 10
199
 20
750.55
 30
0
 11
194.4
 21
763.48
 31
0
  0
LINE
  5
188
100
AcDbEntity
  8
200
100
AcDbLine
370
-1
  6
AUSGEZOGEN
 10
130.4
 20
705.01
 30
0
 11
144.56
 21
700.81
 31
0
  0
LINE
  5
189
100
AcDbEntity
  8
200
100
AcDbLine
370
-1
  6
AUSGEZOGEN
 10
118.36
 20
713.02
 30
0
 11
130.4
 21
705.01
 31
0
  0
LINE
  5
18A
100
AcDbEntity
  8
200
100
AcDbLine
370
-1
  6
AUSGEZOGEN
 10
109.6
 20
724.02
 30
0
 11
118.36
 21
713.02
 31
0
  0
LINE
  5
18B
100
AcDbEntity
  8
200
100
AcDbLine
370
-1
  6
AUSGEZOGEN
 10
105
 20
736.95
 30
0
 11
109.6
 21
724.02
 31
0
  0
LINE
  5
18C
100
AcDbEntity
  8
200
100
AcDbLine
370
-1
  6
AUSGEZOGEN
 10
199
 20
750.55
 30
0
 11
199
 21
736.14
 31
0
  0
LINE
  5
18D
100
AcDbEntity
  8
200
100
AcDbLine
370
-1
  6
AUSGEZOGEN
 10
194.4
 20
723.2
 30
0
 11
199
 21
736.14
 31
0
  0
LINE
  5
18E
100
AcDbEntity
  8
200
100
AcDbLine
370
-1
  6
AUSGEZOGEN
 10
199
 20
736.95
 30
0
 11
194.4
 21
724.02
 31
0
  0
LINE
  5
18F
100
AcDbEntity
  8
200
100
AcDbLine
370
-1
  6
AUSGEZOGEN
 10
185.64
 20
712.2
 30
0
 11
194.4
 21
723.2
 31
0
  0
LINE
  5
190
100
AcDbEntity
  8
200
100
AcDbLine
370
-1
  6
AUSGEZOGEN
 10
194.4
 20
724.02
 30
0
 11
185.64
 21
713.02
 31
0
  0
LINE
  5
191
100
AcDbEntity
  8
200
100
AcDbLine
370
-1
  6
AUSGEZOGEN
 10
173.6
 20
704.2
 30
0
 11
185.64
 21
712.2
 31
0
  0
LINE
  5
192
100
AcDbEntity
  8
200
100
AcDbLine
370
-1
  6
AUSGEZOGEN
 10
185.64
 20
713.02
 30
0
 11
173.6
 21
705.01
 31
0
  0
LINE
  5
193
100
AcDbEntity
  8
200
100
AcDbLine
370
-1
  6
AUSGEZOGEN
 10
159.44
 20
700
 30
0
 11
173.6
 21
704.2
 31
0
  0
LINE
  5
194
100
AcDbEntity
  8
200
100
AcDbLine
370
-1
  6
AUSGEZOGEN
 10
173.6
 20
705.01
 30
0
 11
159.44
 21
700.81
 31
0
  0
LINE
  5
195
100
AcDbEntity
  8
200
100
AcDbLine
370
-1
  6
AUSGEZOGEN
 10
144.56
 20
700
 30
0
 11
159.44
 21
700
 31
0
  0
LINE
  5
196
100
AcDbEntity
  8
200
100
AcDbLine
370
-1
  6
AUSGEZOGEN
 10
159.44
 20
700.81
 30
0
 11
144.56
 21
700.81
 31
0
  0
LINE
  5
197
100
AcDbEntity
  8
200
100
AcDbLine
370
-1
  6
AUSGEZOGEN
 10
130.4
 20
704.2
 30
0
 11
144.56
 21
700
 31
0
  0
LINE
  5
198
100
AcDbEntity
  8
200
100
AcDbLine
370
-1
  6
AUSGEZOGEN
 10
118.36
 20
712.2
 30
0
 11
130.4
 21
704.2
 31
0
  0
LINE
  5
199
100
AcDbEntity
  8
200
100
AcDbLine
370
-1
  6
AUSGEZOGEN
 10
109.6
 20
723.2
 30
0
 11
118.36
 21
712.2
 31
0
  0
LINE
  5
19A
100
AcDbEntity
  8
200
100
AcDbLine
370
-1
  6
AUSGEZOGEN
 10
105
 20
736.14
 30
0
 11
109.6
 21
723.2
 31
0
  0
LINE
  5
19B
100
AcDbEntity
  8
200
100
AcDbLine
370
-1
  6
AUSGEZOGEN
 10
105
 20
750.55
 30
0
 11
105
 21
736.14
 31
0
  0
LINE
  5
19C
100
AcDbEntity
  8
200
100
AcDbLine
370
-1
  6
AUSGEZOGEN
 10
169
 20
779.94
 30
0
 11
161
 21
782.31
 31
0
  0
LINE
  5
19D
100
AcDbEntity
  8
200
100
AcDbLine
370
-1
  6
AUSGEZOGEN
 10
178.48
 20
773.63
 30
0
 11
169
 21
779.94
 31
0
  0
LINE
  5
19E
100
AcDbEntity
  8
200
100
AcDbLine
370
-1
  6
AUSGEZOGEN
 10
185.38
 20
764.97
 30
0
 11
178.48
 21
773.63
 31
0
  0
LINE
  5
19F
100
AcDbEntity
  8
200
100
AcDbLine
370
-1
  6
AUSGEZOGEN
 10
189
 20
754.8
 30
0
 11
185.38
 21
764.97
 31
0
  0
LINE
  5
1A0
100
AcDbEntity
  8
200
100
AcDbLine
370
-1
  6
AUSGEZOGEN
 10
185.38
 20
733.91
 30
0
 11
189
 21
744.09
 31
0
  0
LINE
  5
1A1
100
AcDbEntity
  8
200
100
AcDbLine
370
-1
  6
AUSGEZOGEN
 10
189
 20
754.8
 30
0
 11
189
 21
738.4
 31
0
  0
LINE
  5
1A2
100
AcDbEntity
  8
200
100
AcDbLine
370
-1
  6
AUSGEZOGEN
 10
185.38
 20
728.22
 30
0
 11
189
 21
738.4
 31
0
  0
LINE
  5
1A3
100
AcDbEntity
  8
200
100
AcDbLine
370
-1
  6
AUSGEZOGEN
 10
178.48
 20
719.56
 30
0
 11
185.38
 21
728.22
 31
0
  0
LINE
  5
1A4
100
AcDbEntity
  8
200
100
AcDbLine
370
-1
  6
AUSGEZOGEN
 10
185.38
 20
733.91
 30
0
 11
178.48
 21
725.25
 31
0
  0
LINE
  5
1A5
100
AcDbEntity
  8
200
100
AcDbLine
370
-1
  6
AUSGEZOGEN
 10
169
 20
713.25
 30
0
 11
178.48
 21
719.56
 31
0
  0
LINE
  5
1A6
100
AcDbEntity
  8
200
100
AcDbLine
370
-1
  6
AUSGEZOGEN
 10
178.48
 20
725.25
 30
0
 11
169
 21
718.95
 31
0
  0
LINE
  5
1A7
100
AcDbEntity
  8
200
100
AcDbLine
370
-1
  6
AUSGEZOGEN
 10
161
 20
710.88
 30
0
 11
169
 21
713.25
 31
0
  0
LINE
  5
1A8
100
AcDbEntity
  8
200
100
AcDbLine
370
-1
  6
AUSGEZOGEN
 10
161
 20
793.15
 30
0
 11
161
 21
701.28
 31
0
  0
LINE
  5
1A9
100
AcDbEntity
  8
200
100
AcDbLine
370
-1
  6
AUSGEZOGEN
 10
169
 20
718.95
 30
0
 11
161
 21
716.57
 31
0
  0
LINE
  5
1AA
100
AcDbEntity
  8
200
100
AcDbLine
370
-1
  6
AUSGEZOGEN
 10
118.62
 20
764.97
 30
0
 11
115
 21
754.8
 31
0
  0
LINE
  5
1AB
100
AcDbEntity
  8
200
100
AcDbLine
370
-1
  6
AUSGEZOGEN
 10
125.52
 20
773.63
 30
0
 11
118.62
 21
764.97
 31
0
  0
LINE
  5
1AC
100
AcDbEntity
  8
200
100
AcDbLine
370
-1
  6
AUSGEZOGEN
 10
135
 20
779.94
 30
0
 11
125.52
 21
773.63
 31
0
  0
LINE
  5
1AD
100
AcDbEntity
  8
200
100
AcDbLine
370
-1
  6
AUSGEZOGEN
 10
143
 20
782.31
 30
0
 11
135
 21
779.94
 31
0
  0
LINE
  5
1AE
100
AcDbEntity
  8
200
100
AcDbLine
370
-1
  6
AUSGEZOGEN
 10
135
 20
718.95
 30
0
 11
143
 21
716.57
 31
0
  0
LINE
  5
1AF
100
AcDbEntity
  8
200
100
AcDbLine
370
-1
  6
AUSGEZOGEN
 10
125.52
 20
725.25
 30
0
 11
135
 21
718.95
 31
0
  0
LINE
  5
1B0
100
AcDbEntity
  8
200
100
AcDbLine
370
-1
  6
AUSGEZOGEN
 10
118.62
 20
733.91
 30
0
 11
125.52
 21
725.25
 31
0
  0
LINE
  5
1B1
100
AcDbEntity
  8
200
100
AcDbLine
370
-1
  6
AUSGEZOGEN
 10
115
 20
744.09
 30
0
 11
118.62
 21
733.91
 31
0
  0
LINE
  5
1B2
100
AcDbEntity
  8
200
100
AcDbLine
370
-1
  6
AUSGEZOGEN
 10
143
 20
710.88
 30
0
 11
135
 21
713.25
 31
0
  0
LINE
  5
1B3
100
AcDbEntity
  8
200
100
AcDbLine
370
-1
  6
AUSGEZOGEN
 10
143
 20
793.15
 30
0
 11
143
 21
701.28
 31
0
  0
LINE
  5
1B4
100
AcDbEntity
  8
200
100
AcDbLine
370
-1
  6
AUSGEZOGEN
 10
125.52
 20
719.56
 30
0
 11
135
 21
713.25
 31
0
  0
LINE
  5
1B5
100
AcDbEntity
  8
200
100
AcDbLine
370
-1
  6
AUSGEZOGEN
 10
118.62
 20
728.22
 30
0
 11
125.52
 21
719.56
 31
0
  0
LINE
  5
1B6
100
AcDbEntity
  8
200
100
AcDbLine
370
-1
  6
AUSGEZOGEN
 10
115
 20
738.4
 30
0
 11
118.62
 21
728.22
 31
0
  0
LINE
  5
1B7
100
AcDbEntity
  8
200
100
AcDbLine
370
-1
  6
AUSGEZOGEN
 10
115
 20
754.8
 30
0
 11
115
 21
738.4
 31
0
  0
LINE
  5
1B8
100
AcDbEntity
  8
200
100
AcDbLine
370
-1
  6
AUSGEZOGEN
 10
270.56
 20
793.61
 30
0
 11
269
 21
793.15
 31
0
  0
LINE
  5
1B9
100
AcDbEntity
  8
200
100
AcDbLine
370
-1
  6
AUSGEZOGEN
 10
285.44
 20
793.61
 30
0
 11
270.56
 21
793.61
 31
0
  0
LINE
  5
1BA
100
AcDbEntity
  8
200
100
AcDbLine
370
-1
  6
AUSGEZOGEN
 10
287
 20
793.15
 30
0
 11
285.44
 21
793.61
 31
0
  0
LINE
  5
1BB
100
AcDbEntity
  8
200
100
AcDbLine
370
-1
  6
AUSGEZOGEN
 10
285.44
 20
715.05
 30
0
 11
287
 21
715.51
 31
0
  0
LINE
  5
1BC
100
AcDbEntity
  8
200
100
AcDbLine
370
-1
  6
AUSGEZOGEN
 10
270.56
 20
715.05
 30
0
 11
285.44
 21
715.05
 31
0
  0
LINE
  5
1BD
100
AcDbEntity
  8
200
100
AcDbLine
370
-1
  6
AUSGEZOGEN
 10
269
 20
715.51
 30
0
 11
270.56
 21
715.05
 31
0
  0
LINE
  5
1BE
100
AcDbEntity
  8
200
100
AcDbLine
370
-1
  6
AUSGEZOGEN
 10
287
 20
701.28
 30
0
 11
285.44
 21
700.81
 31
0
  0
LINE
  5
1BF
100
AcDbEntity
  8
200
100
AcDbLine
370
-1
  6
AUSGEZOGEN
 10
269
 20
701.28
 30
0
 11
270.56
 21
700.81
 31
0
  0
LINE
  5
1C0
100
AcDbEntity
  8
200
100
AcDbLine
370
-1
  6
AUSGEZOGEN
 10
235.6
 20
763.48
 30
0
 11
231
 21
750.55
 31
0
  0
LINE
  5
1C1
100
AcDbEntity
  8
200
100
AcDbLine
370
-1
  6
AUSGEZOGEN
 10
244.36
 20
774.48
 30
0
 11
235.6
 21
763.48
 31
0
  0
LINE
  5
1C2
100
AcDbEntity
  8
200
100
AcDbLine
370
-1
  6
AUSGEZOGEN
 10
256.4
 20
782.48
 30
0
 11
244.36
 21
774.48
 31
0
  0
LINE
  5
1C3
100
AcDbEntity
  8
200
100
AcDbLine
370
-1
  6
AUSGEZOGEN
 10
269
 20
786.23
 30
0
 11
256.4
 21
782.48
 31
0
  0
LINE
  5
1C4
100
AcDbEntity
  8
200
100
AcDbLine
370
-1
  6
AUSGEZOGEN
 10
299.6
 20
782.48
 30
0
 11
287
 21
786.23
 31
0
  0
LINE
  5
1C5
100
AcDbEntity
  8
200
100
AcDbLine
370
-1
  6
AUSGEZOGEN
 10
311.64
 20
774.48
 30
0
 11
299.6
 21
782.48
 31
0
  0
LINE
  5
1C6
100
AcDbEntity
  8
200
100
AcDbLine
370
-1
  6
AUSGEZOGEN
 10
320.4
 20
763.48
 30
0
 11
311.64
 21
774.48
 31
0
  0
LINE
  5
1C7
100
AcDbEntity
  8
200
100
AcDbLine
370
-1
  6
AUSGEZOGEN
 10
325
 20
750.55
 30
0
 11
320.4
 21
763.48
 31
0
  0
LINE
  5
1C8
100
AcDbEntity
  8
200
100
AcDbLine
370
-1
  6
AUSGEZOGEN
 10
256.4
 20
705.01
 30
0
 11
270.56
 21
700.81
 31
0
  0
LINE
  5
1C9
100
AcDbEntity
  8
200
100
AcDbLine
370
-1
  6
AUSGEZOGEN
 10
244.36
 20
713.02
 30
0
 11
256.4
 21
705.01
 31
0
  0
LINE
  5
1CA
100
AcDbEntity
  8
200
100
AcDbLine
370
-1
  6
AUSGEZOGEN
 10
235.6
 20
724.02
 30
0
 11
244.36
 21
713.02
 31
0
  0
LINE
  5
1CB
100
AcDbEntity
  8
200
100
AcDbLine
370
-1
  6
AUSGEZOGEN
 10
231
 20
736.95
 30
0
 11
235.6
 21
724.02
 31
0
  0
LINE
  5
1CC
100
AcDbEntity
  8
200
100
AcDbLine
370
-1
  6
AUSGEZOGEN
 10
325
 20
750.55
 30
0
 11
325
 21
736.14
 31
0
  0
LINE
  5
1CD
100
AcDbEntity
  8
200
100
AcDbLine
370
-1
  6
AUSGEZOGEN
 10
320.4
 20
723.2
 30
0
 11
325
 21
736.14
 31
0
  0
LINE
  5
1CE
100
AcDbEntity
  8
200
100
AcDbLine
370
-1
  6
AUSGEZOGEN
 10
325
 20
736.95
 30
0
 11
320.4
 21
724.02
 31
0
  0
LINE
  5
1CF
100
AcDbEntity
  8
200
100
AcDbLine
370
-1
  6
AUSGEZOGEN
 10
311.64
 20
712.2
 30
0
 11
320.4
 21
723.2
 31
0
  0
LINE
  5
1D0
100
AcDbEntity
  8
200
100
AcDbLine
370
-1
  6
AUSGEZOGEN
 10
320.4
 20
724.02
 30
0
 11
311.64
 21
713.02
 31
0
  0
LINE
  5
1D1
100
AcDbEntity
  8
200
100
AcDbLine
370
-1
  6
AUSGEZOGEN
 10
299.6
 20
704.2
 30
0
 11
311.64
 21
712.2
 31
0
  0
LINE
  5
1D2
100
AcDbEntity
  8
200
100
AcDbLine
370
-1
  6
AUSGEZOGEN
 10
311.64
 20
713.02
 30
0
 11
299.6
 21
705.01
 31
0
  0
LINE
  5
1D3
100
AcDbEntity
  8
200
100
AcDbLine
370
-1
  6
AUSGEZOGEN
 10
285.44
 20
700
 30
0
 11
299.6
 21
704.2
 31
0
  0
LINE
  5
1D4
100
AcDbEntity
  8
200
100
AcDbLine
370
-1
  6
AUSGEZOGEN
 10
299.6
 20
705.01
 30
0
 11
285.44
 21
700.81
 31
0
  0
LINE
  5
1D5
100
AcDbEntity
  8
200
100
AcDbLine
370
-1
  6
AUSGEZOGEN
 10
270.56
 20
700
 30
0
 11
285.44
 21
700
 31
0
  0
LINE
  5
1D6
100
AcDbEntity
  8
200
100
AcDbLine
370
-1
  6
AUSGEZOGEN
 10
285.44
 20
700.81
 30
0
 11
270.56
 21
700.81
 31
0
  0
LINE
  5
1D7
100
AcDbEntity
  8
200
100
AcDbLine
370
-1
  6
AUSGEZOGEN
 10
256.4
 20
704.2
 30
0
 11
270.56
 21
700
 31
0
  0
LINE
  5
1D8
100
AcDbEntity
  8
200
100
AcDbLine
370
-1
  6
AUSGEZOGEN
 10
244.36
 20
712.2
 30
0
 11
256.4
 21
704.2
 31
0
  0
LINE
  5
1D9
100
AcDbEntity
  8
200
100
AcDbLine
370
-1
  6
AUSGEZOGEN
 10
235.6
 20
723.2
 30
0
 11
244.36
 21
712.2
 31
0
  0
LINE
  5
1DA
100
AcDbEntity
  8
200
100
AcDbLine
370
-1
  6
AUSGEZOGEN
 10
231
 20
736.14
 30
0
 11
235.6
 21
723.2
 31
0
  0
LINE
  5
1DB
100
AcDbEntity
  8
200
100
AcDbLine
370
-1
  6
AUSGEZOGEN
 10
231
 20
750.55
 30
0
 11
231
 21
736.14
 31
0
  0
LINE
  5
1DC
100
AcDbEntity
  8
200
100
AcDbLine
370
-1
  6
AUSGEZOGEN
 10
295
 20
779.94
 30
0
 11
287
 21
782.31
 31
0
  0
LINE
  5
1DD
100
AcDbEntity
  8
200
100
AcDbLine
370
-1
  6
AUSGEZOGEN
 10
304.48
 20
773.63
 30
0
 11
295
 21
779.94
 31
0
  0
LINE
  5
1DE
100
AcDbEntity
  8
200
100
AcDbLine
370
-1
  6
AUSGEZOGEN
 10
311.38
 20
764.97
 30
0
 11
304.48
 21
773.63
 31
0
  0
LINE
  5
1DF
100
AcDbEntity
  8
200
100
AcDbLine
370
-1
  6
AUSGEZOGEN
 10
315
 20
754.8
 30
0
 11
311.38
 21
764.97
 31
0
  0
LINE
  5
1E0
100
AcDbEntity
  8
200
100
AcDbLine
370
-1
  6
AUSGEZOGEN
 10
311.38
 20
733.91
 30
0
 11
315
 21
744.09
 31
0
  0
LINE
  5
1E1
100
AcDbEntity
  8
200
100
AcDbLine
370
-1
  6
AUSGEZOGEN
 10
315
 20
754.8
 30
0
 11
315
 21
738.4
 31
0
  0
LINE
  5
1E2
100
AcDbEntity
  8
200
100
AcDbLine
370
-1
  6
AUSGEZOGEN
 10
311.38
 20
728.22
 30
0
 11
315
 21
738.4
 31
0
  0
LINE
  5
1E3
100
AcDbEntity
  8
200
100
AcDbLine
370
-1
  6
AUSGEZOGEN
 10
304.48
 20
719.56
 30
0
 11
311.38
 21
728.22
 31
0
  0
LINE
  5
1E4
100
AcDbEntity
  8
200
100
AcDbLine
370
-1
  6
AUSGEZOGEN
 10
311.38
 20
733.91
 30
0
 11
304.48
 21
725.25
 31
0
  0
LINE
  5
1E5
100
AcDbEntity
  8
200
100
AcDbLine
370
-1
  6
AUSGEZOGEN
 10
295
 20
713.25
 30
0
 11
304.48
 21
719.56
 31
0
  0
LINE
  5
1E6
100
AcDbEntity
  8
200
100
AcDbLine
370
-1
  6
AUSGEZOGEN
 10
304.48
 20
725.25
 30
0
 11
295
 21
718.95
 31
0
  0
LINE
  5
1E7
100
AcDbEntity
  8
200
100
AcDbLine
370
-1
  6
AUSGEZOGEN
 10
287
 20
710.88
 30
0
 11
295
 21
713.25
 31
0
  0
LINE
  5
1E8
100
AcDbEntity
  8
200
100
AcDbLine
370
-1
  6
AUSGEZOGEN
 10
287
 20
793.15
 30
0
 11
287
 21
701.28
 31
0
  0
LINE
  5
1E9
100
AcDbEntity
  8
200
100
AcDbLine
370
-1
  6
AUSGEZOGEN
 10
295
 20
718.95
 30
0
 11
287
 21
716.57
 31
0
  0
LINE
  5
1EA
100
AcDbEntity
  8
200
100
AcDbLine
370
-1
  6
AUSGEZOGEN
 10
244.62
 20
764.97
 30
0
 11
241
 21
754.8
 31
0
  0
LINE
  5
1EB
100
AcDbEntity
  8
200
100
AcDbLine
370
-1
  6
AUSGEZOGEN
 10
251.52
 20
773.63
 30
0
 11
244.62
 21
764.97
 31
0
  0
LINE
  5
1EC
100
AcDbEntity
  8
200
100
AcDbLine
370
-1
  6
AUSGEZOGEN
 10
261
 20
779.94
 30
0
 11
251.52
 21
773.63
 31
0
  0
LINE
  5
1ED
100
AcDbEntity
  8
200
100
AcDbLine
370
-1
  6
AUSGEZOGEN
 10
269
 20
782.31
 30
0
 11
261
 21
779.94
 31
0
  0
LINE
  5
1EE
100
AcDbEntity
  8
200
100
AcDbLine
370
-1
  6
AUSGEZOGEN
 10
261
 20
718.95
 30
0
 11
269
 21
716.57
 31
0
  0
LINE
  5
1EF
100
AcDbEntity
  8
200
100
AcDbLine
370
-1
  6
AUSGEZOGEN
 10
251.52
 20
725.25
 30
0
 11
261
 21
718.95
 31
0
  0
LINE
  5
1F0
100
AcDbEntity
  8
200
100
AcDbLine
370
-1
  6
AUSGEZOGEN
 10
244.62
 20
733.91
 30
0
 11
251.52
 21
725.25
 31
0
  0
LINE
  5
1F1
100
AcDbEntity
  8
200
100
AcDbLine
370
-1
  6
AUSGEZOGEN
 10
241
 20
744.09
 30
0
 11
244.62
 21
733.91
 31
0
  0
LINE
  5
1F2
100
AcDbEntity
  8
200
100
AcDbLine
370
-1
  6
AUSGEZOGEN
 10
269
 20
710.88
 30
0
 11
261
 21
713.25
 31
0
  0
LINE
  5
1F3
100
AcDbEntity
  8
200
100
AcDbLine
370
-1
  6
AUSGEZOGEN
 10
269
 20
793.15
 30
0
 11
269
 21
701.28
 31
0
  0
LINE
  5
1F4
100
AcDbEntity
  8
200
100
AcDbLine
370
-1
  6
AUSGEZOGEN
 10
251.52
 20
719.56
 30
0
 11
261
 21
713.25
 31
0
  0
LINE
  5
1F5
100
AcDbEntity
  8
200
100
AcDbLine
370
-1
  6
AUSGEZOGEN
 10
244.62
 20
728.22
 30
0
 11
251.52
 21
719.56
 31
0
  0
LINE
  5
1F6
100
AcDbEntity
  8
200
100
AcDbLine
370
-1
  6
AUSGEZOGEN
 10
241
 20
738.4
 30
0
 11
244.62
 21
728.22
 31
0
  0
LINE
  5
1F7
100
AcDbEntity
  8
200
100
AcDbLine
370
-1
  6
AUSGEZOGEN
 10
241
 20
754.8
 30
0
 11
241
 21
738.4
 31
0
  0
LINE
  5
1F8
100
AcDbEntity
  8
200
100
AcDbLine
370
-1
  6
AUSGEZOGEN
 10
504.56
 20
793.61
 30
0
 11
503
 21
793.15
 31
0
  0
LINE
  5
1F9
100
AcDbEntity
  8
200
100
AcDbLine
370
-1
  6
AUSGEZOGEN
 10
519.44
 20
793.61
 30
0
 11
504.56
 21
793.61
 31
0
  0
LINE
  5
1FA
100
AcDbEntity
  8
200
100
AcDbLine
370
-1
  6
AUSGEZOGEN
 10
521
 20
793.15
 30
0
 11
519.44
 21
793.61
 31
0
  0
LINE
  5
1FB
100
AcDbEntity
  8
200
100
AcDbLine
370
-1
  6
AUSGEZOGEN
 10
519.44
 20
715.05
 30
0
 11
521
 21
715.51
 31
0
  0
LINE
  5
1FC
100
AcDbEntity
  8
200
100
AcDbLine
370
-1
  6
AUSGEZOGEN
 10
504.56
 20
715.05
 30
0
 11
519.44
 21
715.05
 31
0
  0
LINE
  5
1FD
100
AcDbEntity
  8
200
100
AcDbLine
370
-1
  6
AUSGEZOGEN
 10
503
 20
715.51
 30
0
 11
504.56
 21
715.05
 31
0
  0
LINE
  5
1FE
100
AcDbEntity
  8
200
100
AcDbLine
370
-1
  6
AUSGEZOGEN
 10
521
 20
701.28
 30
0
 11
519.44
 21
700.81
 31
0
  0
LINE
  5
1FF
100
AcDbEntity
  8
200
100
AcDbLine
370
-1
  6
AUSGEZOGEN
 10
503
 20
701.28
 30
0
 11
504.56
 21
700.81
 31
0
  0
LINE
  5
200
100
AcDbEntity
  8
200
100
AcDbLine
370
-1
  6
AUSGEZOGEN
 10
469.6
 20
763.48
 30
0
 11
465
 21
750.55
 31
0
  0
LINE
  5
201
100
AcDbEntity
  8
200
100
AcDbLine
370
-1
  6
AUSGEZOGEN
 10
478.36
 20
774.48
 30
0
 11
469.6
 21
763.48
 31
0
  0
LINE
  5
202
100
AcDbEntity
  8
200
100
AcDbLine
370
-1
  6
AUSGEZOGEN
 10
490.4
 20
782.48
 30
0
 11
478.36
 21
774.48
 31
0
  0
LINE
  5
203
100
AcDbEntity
  8
200
100
AcDbLine
370
-1
  6
AUSGEZOGEN
 10
503
 20
786.23
 30
0
 11
490.4
 21
782.48
 31
0
  0
LINE
  5
204
100
AcDbEntity
  8
200
100
AcDbLine
370
-1
  6
AUSGEZOGEN
 10
533.6
 20
782.48
 30
0
 11
521
 21
786.23
 31
0
  0
LINE
  5
205
100
AcDbEntity
  8
200
100
AcDbLine
370
-1
  6
AUSGEZOGEN
 10
545.64
 20
774.48
 30
0
 11
533.6
 21
782.48
 31
0
  0
LINE
  5
206
100
AcDbEntity
  8
200
100
AcDbLine
370
-1
  6
AUSGEZOGEN
 10
554.4
 20
763.48
 30
0
 11
545.64
 21
774.48
 31
0
  0
LINE
  5
207
100
AcDbEntity
  8
200
100
AcDbLine
370
-1
  6
AUSGEZOGEN
 10
559
 20
750.55
 30
0
 11
554.4
 21
763.48
 31
0
  0
LINE
  5
208
100
AcDbEntity
  8
200
100
AcDbLine
370
-1
  6
AUSGEZOGEN
 10
490.4
 20
705.01
 30
0
 11
504.56
 21
700.81
 31
0
  0
LINE
  5
209
100
AcDbEntity
  8
200
100
AcDbLine
370
-1
  6
AUSGEZOGEN
 10
478.36
 20
713.02
 30
0
 11
490.4
 21
705.01
 31
0
  0
LINE
  5
20A
100
AcDbEntity
  8
200
100
AcDbLine
370
-1
  6
AUSGEZOGEN
 10
469.6
 20
724.02
 30
0
 11
478.36
 21
713.02
 31
0
  0
LINE
  5
20B
100
AcDbEntity
  8
200
100
AcDbLine
370
-1
  6
AUSGEZOGEN
 10
465
 20
736.95
 30
0
 11
469.6
 21
724.02
 31
0
  0
LINE
  5
20C
100
AcDbEntity
  8
200
100
AcDbLine
370
-1
  6
AUSGEZOGEN
 10
559
 20
750.55
 30
0
 11
559
 21
736.14
 31
0
  0
LINE
  5
20D
100
AcDbEntity
  8
200
100
AcDbLine
370
-1
  6
AUSGEZOGEN
 10
554.4
 20
723.2
 30
0
 11
559
 21
736.14
 31
0
  0
LINE
  5
20E
100
AcDbEntity
  8
200
100
AcDbLine
370
-1
  6
AUSGEZOGEN
 10
559
 20
736.95
 30
0
 11
554.4
 21
724.02
 31
0
  0
LINE
  5
20F
100
AcDbEntity
  8
200
100
AcDbLine
370
-1
  6
AUSGEZOGEN
 10
545.64
 20
712.2
 30
0
 11
554.4
 21
723.2
 31
0
  0
LINE
  5
210
100
AcDbEntity
  8
200
100
AcDbLine
370
-1
  6
AUSGEZOGEN
 10
554.4
 20
724.02
 30
0
 11
545.64
 21
713.02
 31
0
  0
LINE
  5
211
100
AcDbEntity
  8
200
100
AcDbLine
370
-1
  6
AUSGEZOGEN
 10
533.6
 20
704.2
 30
0
 11
545.64
 21
712.2
 31
0
  0
LINE
  5
212
100
AcDbEntity
  8
200
100
AcDbLine
370
-1
  6
AUSGEZOGEN
 10
545.64
 20
713.02
 30
0
 11
533.6
 21
705.01
 31
0
  0
LINE
  5
213
100
AcDbEntity
  8
200
100
AcDbLine
370
-1
  6
AUSGEZOGEN
 10
519.44
 20
700
 30
0
 11
533.6
 21
704.2
 31
0
  0
LINE
  5
214
100
AcDbEntity
  8
200
100
AcDbLine
370
-1
  6
AUSGEZOGEN
 10
533.6
 20
705.01
 30
0
 11
519.44
 21
700.81
 31
0
  0
LINE
  5
215
100
AcDbEntity
  8
200
100
AcDbLine
370
-1
  6
AUSGEZOGEN
 10
504.56
 20
700
 30
0
 11
519.44
 21
700
 31
0
  0
LINE
  5
216
100
AcDbEntity
  8
200
100
AcDbLine
370
-1
  6
AUSGEZOGEN
 10
519.44
 20
700.81
 30
0
 11
504.56
 21
700.81
 31
0
  0
LINE
  5
217
100
AcDbEntity
  8
200
100
AcDbLine
370
-1
  6
AUSGEZOGEN
 10
490.4
 20
704.2
 30
0
 11
504.56
 21
700
 31
0
  0
LINE
  5
218
100
AcDbEntity
  8
200
100
AcDbLine
370
-1
  6
AUSGEZOGEN
 10
478.36
 20
712.2
 30
0
 11
490.4
 21
704.2
 31
0
  0
LINE
  5
219
100
AcDbEntity
  8
200
100
AcDbLine
370
-1
  6
AUSGEZOGEN
 10
469.6
 20
723.2
 30
0
 11
478.36
 21
712.2
 31
0
  0
LINE
  5
21A
100
AcDbEntity
  8
200
100
AcDbLine
370
-1
  6
AUSGEZOGEN
 10
465
 20
736.14
 30
0
 11
469.6
 21
723.2
 31
0
  0
LINE
  5
21B
100
AcDbEntity
  8
200
100
AcDbLine
370
-1
  6
AUSGEZOGEN
 10
465
 20
750.55
 30
0
 11
465
 21
736.14
 31
0
  0
LINE
  5
21C
100
AcDbEntity
  8
200
100
AcDbLine
370
-1
  6
AUSGEZOGEN
 10
529
 20
779.94
 30
0
 11
521
 21
782.31
 31
0
  0
LINE
  5
21D
100
AcDbEntity
  8
200
100
AcDbLine
370
-1
  6
AUSGEZOGEN
 10
538.48
 20
773.63
 30
0
 11
529
 21
779.94
 31
0
  0
LINE
  5
21E
100
AcDbEntity
  8
200
100
AcDbLine
370
-1
  6
AUSGEZOGEN
 10
545.38
 20
764.97
 30
0
 11
538.48
 21
773.63
 31
0
  0
LINE
  5
21F
100
AcDbEntity
  8
200
100
AcDbLine
370
-1
  6
AUSGEZOGEN
 10
549
 20
754.8
 30
0
 11
545.38
 21
764.97
 31
0
  0
LINE
  5
220
100
AcDbEntity
  8
200
100
AcDbLine
370
-1
  6
AUSGEZOGEN
 10
545.38
 20
733.91
 30
0
 11
549
 21
744.09
 31
0
  0
LINE
  5
221
100
AcDbEntity
  8
200
100
AcDbLine
370
-1
  6
AUSGEZOGEN
 10
549
 20
754.8
 30
0
 11
549
 21
738.4
 31
0
  0
LINE
  5
222
100
AcDbEntity
  8
200
100
AcDbLine
370
-1
  6
AUSGEZOGEN
 10
545.38
 20
728.22
 30
0
 11
549
 21
738.4
 31
0
  0
LINE
  5
223
100
AcDbEntity
  8
200
100
AcDbLine
370
-1
  6
AUSGEZOGEN
 10
538.48
 20
719.56
 30
0
 11
545.38
 21
728.22
 31
0
  0
LINE
  5
224
100
AcDbEntity
  8
200
100
AcDbLine
370
-1
  6
AUSGEZOGEN
 10
545.38
 20
733.91
 30
0
 11
538.48
 21
725.25
 31
0
  0
LINE
  5
225
100
AcDbEntity
  8
200
100
AcDbLine
370
-1
  6
AUSGEZOGEN
 10
529
 20
713.25
 30
0
 11
538.48
 21
719.56
 31
0
  0
LINE
  5
226
100
AcDbEntity
  8
200
100
AcDbLine
370
-1
  6
AUSGEZOGEN
 10
538.48
 20
725.25
 30
0
 11
529
 21
718.95
 31
0
  0
LINE
  5
227
100
AcDbEntity
  8
200
100
AcDbLine
370
-1
  6
AUSGEZOGEN
 10
521
 20
710.88
 30
0
 11
529
 21
713.25
 31
0
  0
LINE
  5
228
100
AcDbEntity
  8
200
100
AcDbLine
370
-1
  6
AUSGEZOGEN
 10
521
 20
793.15
 30
0
 11
521
 21
701.28
 31
0
  0
LINE
  5
229
100
AcDbEntity
  8
200
100
AcDbLine
370
-1
  6
AUSGEZOGEN
 10
529
 20
718.95
 30
0
 11
521
 21
716.57
 31
0
  0
LINE
  5
22A
100
AcDbEntity
  8
200
100
AcDbLine
370
-1
  6
AUSGEZOGEN
 10
478.62
 20
764.97
 30
0
 11
475
 21
754.8
 31
0
  0
LINE
  5
22B
100
AcDbEntity
  8
200
100
AcDbLine
370
-1
  6
AUSGEZOGEN
 10
485.52
 20
773.63
 30
0
 11
478.62
 21
764.97
 31
0
  0
LINE
  5
22C
100
AcDbEntity
  8
200
100
AcDbLine
370
-1
  6
AUSGEZOGEN
 10
495
 20
779.94
 30
0
 11
485.52
 21
773.63
 31
0
  0
LINE
  5
22D
100
AcDbEntity
  8
200
100
AcDbLine
370
-1
  6
AUSGEZOGEN
 10
503
 20
782.31
 30
0
 11
495
 21
779.94
 31
0
  0
LINE
  5
22E
100
AcDbEntity
  8
200
100
AcDbLine
370
-1
  6
AUSGEZOGEN
 10
495
 20
718.95
 30
0
 11
503
 21
716.57
 31
0
  0
LINE
  5
22F
100
AcDbEntity
  8
200
100
AcDbLine
370
-1
  6
AUSGEZOGEN
 10
485.52
 20
725.25
 30
0
 11
495
 21
718.95
 31
0
  0
LINE
  5
230
100
AcDbEntity
  8
200
100
AcDbLine
370
-1
  6
AUSGEZOGEN
 10
478.62
 20
733.91
 30
0
 11
485.52
 21
725.25
 31
0
  0
LINE
  5
231
100
AcDbEntity
  8
200
100
AcDbLine
370
-1
  6
AUSGEZOGEN
 10
475
 20
744.09
 30
0
 11
478.62
 21
733.91
 31
0
  0
LINE
  5
232
100
AcDbEntity
  8
200
100
AcDbLine
370
-1
  6
AUSGEZOGEN
 10
503
 20
710.88
 30
0
 11
495
 21
713.25
 31
0
  0
LINE
  5
233
100
AcDbEntity
  8
200
100
AcDbLine
370
-1
  6
AUSGEZOGEN
 10
503
 20
793.15
 30
0
 11
503
 21
701.28
 31
0
  0
LINE
  5
234
100
AcDbEntity
  8
200
100
AcDbLine
370
-1
  6
AUSGEZOGEN
 10
485.52
 20
719.56
 30
0
 11
495
 21
713.25
 31
0
  0
LINE
  5
235
100
AcDbEntity
  8
200
100
AcDbLine
370
-1
  6
AUSGEZOGEN
 10
478.62
 20
728.22
 30
0
 11
485.52
 21
719.56
 31
0
  0
LINE
  5
236
100
AcDbEntity
  8
200
100
AcDbLine
370
-1
  6
AUSGEZOGEN
 10
475
 20
738.4
 30
0
 11
478.62
 21
728.22
 31
0
  0
LINE
  5
237
100
AcDbEntity
  8
200
100
AcDbLine
370
-1
  6
AUSGEZOGEN
 10
475
 20
754.8
 30
0
 11
475
 21
738.4
 31
0
  0
LINE
  5
238
100
AcDbEntity
  8
200
100
AcDbLine
370
-1
  6
AUSGEZOGEN
 10
72.52
 20
759.09
 30
0
 11
76
 21
753.57
 31
0
  0
LINE
  5
239
100
AcDbEntity
  8
200
100
AcDbLine
370
-1
  6
AUSGEZOGEN
 10
58.18
 20
725
 30
0
 11
67.82
 21
725
 31
0
  0
LINE
  5
23A
100
AcDbEntity
  8
200
100
AcDbLine
370
-1
  6
AUSGEZOGEN
 10
45
 20
745.85
 30
0
 11
45
 21
737.04
 31
0
  0
LINE
  5
23B
100
AcDbEntity
  8
200
100
AcDbLine
370
-1
  6
AUSGEZOGEN
 10
50
 20
753.57
 30
0
 11
45
 21
745.85
 31
0
  0
LINE
  5
23C
100
AcDbEntity
  8
200
100
AcDbLine
370
-1
  6
AUSGEZOGEN
 10
81
 20
737.04
 30
0
 11
81
 21
745.85
 31
0
  0
LINE
  5
23D
100
AcDbEntity
  8
200
100
AcDbLine
370
-1
  6
AUSGEZOGEN
 10
76
 20
753.57
 30
0
 11
81
 21
745.85
 31
0
  0
LINE
  5
23E
100
AcDbEntity
  8
200
100
AcDbLine
370
-1
  6
AUSGEZOGEN
 10
67.82
 20
725
 30
0
 11
76.18
 21
729.41
 31
0
  0
LINE
  5
23F
100
AcDbEntity
  8
200
100
AcDbLine
370
-1
  6
AUSGEZOGEN
 10
45
 20
737.04
 30
0
 11
49.82
 21
729.41
 31
0
  0
LINE
  5
240
100
AcDbEntity
  8
200
100
AcDbLine
370
-1
  6
AUSGEZOGEN
 10
50
 20
747.21
 30
0
 11
53.48
 21
741.7
 31
0
  0
LINE
  5
241
100
AcDbEntity
  8
200
100
AcDbLine
370
-1
  6
AUSGEZOGEN
 10
76.18
 20
753.49
 30
0
 11
81
 21
745.85
 31
0
  0
LINE
  5
242
100
AcDbEntity
  8
200
100
AcDbLine
370
-1
  6
AUSGEZOGEN
 10
45
 20
745.85
 30
0
 11
49.82
 21
753.49
 31
0
  0
LINE
  5
243
100
AcDbEntity
  8
200
100
AcDbLine
370
-1
  6
AUSGEZOGEN
 10
76
 20
747.21
 30
0
 11
72.52
 21
741.7
 31
0
  0
LINE
  5
244
100
AcDbEntity
  8
200
100
AcDbLine
370
-1
  6
AUSGEZOGEN
 10
76.18
 20
729.41
 30
0
 11
81
 21
737.04
 31
0
  0
LINE
  5
245
100
AcDbEntity
  8
200
100
AcDbLine
370
-1
  6
AUSGEZOGEN
 10
49.82
 20
729.41
 30
0
 11
58.18
 21
725
 31
0
  0
LINE
  5
246
100
AcDbEntity
  8
200
100
AcDbLine
370
-1
  6
AUSGEZOGEN
 10
59.52
 20
738.52
 30
0
 11
53.48
 21
741.7
 31
0
  0
CIRCLE
  5
247
100
AcDbEntity
  8
200
100
AcDbCircle
370
-1
  6
AUSGEZOGEN
 10
63
 20
751.61
 30
0
 40
9.13
  0
LINE
  5
248
100
AcDbEntity
  8
200
100
AcDbLine
370
-1
  6
AUSGEZOGEN
 10
59.52
 20
738.52
 30
0
 11
66.48
 21
738.52
 31
0
  0
LINE
  5
249
100
AcDbEntity
  8
200
100
AcDbLine
370
-1
  6
AUSGEZOGEN
 10
66.48
 20
762.27
 30
0
 11
59.52
 21
762.27
 31
0
  0
LINE
  5
24A
100
AcDbEntity
  8
200
100
AcDbLine
370
-1
  6
AUSGEZOGEN
 10
50
 20
747.21
 30
0
 11
50
 21
753.57
 31
0
  0
LINE
  5
24B
100
AcDbEntity
  8
200
100
AcDbLine
370
-1
  6
AUSGEZOGEN
 10
76
 20
753.57
 30
0
 11
76
 21
747.21
 31
0
  0
LINE
  5
24C
100
AcDbEntity
  8
200
100
AcDbLine
370
-1
  6
AUSGEZOGEN
 10
66.48
 20
738.52
 30
0
 11
72.52
 21
741.7
 31
0
  0
LINE
  5
24D
100
AcDbEntity
  8
200
100
AcDbLine
370
-1
  6
AUSGEZOGEN
 10
53.48
 20
759.09
 30
0
 11
59.52
 21
762.27
 31
0
  0
LINE
  5
24E
100
AcDbEntity
  8
200
100
AcDbLine
370
-1
  6
AUSGEZOGEN
 10
50
 20
753.57
 30
0
 11
53.48
 21
759.09
 31
0
  0
LINE
  5
24F
100
AcDbEntity
  8
200
100
AcDbLine
370
-1
  6
AUSGEZOGEN
 10
72.52
 20
759.09
 30
0
 11
66.48
 21
762.27
 31
0
  0
LINE
  5
250
100
AcDbEntity
  8
200
100
AcDbLine
370
-1
  6
AUSGEZOGEN
 10
1110.56
 20
793.61
 30
0
 11
1109
 21
793.15
 31
0
  0
LINE
  5
251
100
AcDbEntity
  8
200
100
AcDbLine
370
-1
  6
AUSGEZOGEN
 10
1125.44
 20
793.61
 30
0
 11
1110.56
 21
793.61
 31
0
  0
LINE
  5
252
100
AcDbEntity
  8
200
100
AcDbLine
370
-1
  6
AUSGEZOGEN
 10
1127
 20
793.15
 30
0
 11
1125.44
 21
793.61
 31
0
  0
LINE
  5
253
100
AcDbEntity
  8
200
100
AcDbLine
370
-1
  6
AUSGEZOGEN
 10
1125.44
 20
715.05
 30
0
 11
1127
 21
715.51
 31
0
  0
LINE
  5
254
100
AcDbEntity
  8
200
100
AcDbLine
370
-1
  6
AUSGEZOGEN
 10
1110.56
 20
715.05
 30
0
 11
1125.44
 21
715.05
 31
0
  0
LINE
  5
255
100
AcDbEntity
  8
200
100
AcDbLine
370
-1
  6
AUSGEZOGEN
 10
1109
 20
715.51
 30
0
 11
1110.56
 21
715.05
 31
0
  0
LINE
  5
256
100
AcDbEntity
  8
200
100
AcDbLine
370
-1
  6
AUSGEZOGEN
 10
1127
 20
701.28
 30
0
 11
1125.44
 21
700.81
 31
0
  0
LINE
  5
257
100
AcDbEntity
  8
200
100
AcDbLine
370
-1
  6
AUSGEZOGEN
 10
1109
 20
701.28
 30
0
 11
1110.56
 21
700.81
 31
0
  0
LINE
  5
258
100
AcDbEntity
  8
200
100
AcDbLine
370
-1
  6
AUSGEZOGEN
 10
1075.6
 20
763.48
 30
0
 11
1071
 21
750.55
 31
0
  0
LINE
  5
259
100
AcDbEntity
  8
200
100
AcDbLine
370
-1
  6
AUSGEZOGEN
 10
1084.36
 20
774.48
 30
0
 11
1075.6
 21
763.48
 31
0
  0
LINE
  5
25A
100
AcDbEntity
  8
200
100
AcDbLine
370
-1
  6
AUSGEZOGEN
 10
1096.4
 20
782.48
 30
0
 11
1084.36
 21
774.48
 31
0
  0
LINE
  5
25B
100
AcDbEntity
  8
200
100
AcDbLine
370
-1
  6
AUSGEZOGEN
 10
1109
 20
786.23
 30
0
 11
1096.4
 21
782.48
 31
0
  0
LINE
  5
25C
100
AcDbEntity
  8
200
100
AcDbLine
370
-1
  6
AUSGEZOGEN
 10
1139.6
 20
782.48
 30
0
 11
1127
 21
786.23
 31
0
  0
LINE
  5
25D
100
AcDbEntity
  8
200
100
AcDbLine
370
-1
  6
AUSGEZOGEN
 10
1151.64
 20
774.48
 30
0
 11
1139.6
 21
782.48
 31
0
  0
LINE
  5
25E
100
AcDbEntity
  8
200
100
AcDbLine
370
-1
  6
AUSGEZOGEN
 10
1160.4
 20
763.48
 30
0
 11
1151.64
 21
774.48
 31
0
  0
LINE
  5
25F
100
AcDbEntity
  8
200
100
AcDbLine
370
-1
  6
AUSGEZOGEN
 10
1165
 20
750.55
 30
0
 11
1160.4
 21
763.48
 31
0
  0
LINE
  5
260
100
AcDbEntity
  8
200
100
AcDbLine
370
-1
  6
AUSGEZOGEN
 10
1096.4
 20
705.01
 30
0
 11
1110.56
 21
700.81
 31
0
  0
LINE
  5
261
100
AcDbEntity
  8
200
100
AcDbLine
370
-1
  6
AUSGEZOGEN
 10
1084.36
 20
713.02
 30
0
 11
1096.4
 21
705.01
 31
0
  0
LINE
  5
262
100
AcDbEntity
  8
200
100
AcDbLine
370
-1
  6
AUSGEZOGEN
 10
1075.6
 20
724.02
 30
0
 11
1084.36
 21
713.02
 31
0
  0
LINE
  5
263
100
AcDbEntity
  8
200
100
AcDbLine
370
-1
  6
AUSGEZOGEN
 10
1071
 20
736.95
 30
0
 11
1075.6
 21
724.02
 31
0
  0
LINE
  5
264
100
AcDbEntity
  8
200
100
AcDbLine
370
-1
  6
AUSGEZOGEN
 10
1165
 20
750.55
 30
0
 11
1165
 21
736.14
 31
0
  0
LINE
  5
265
100
AcDbEntity
  8
200
100
AcDbLine
370
-1
  6
AUSGEZOGEN
 10
1160.4
 20
723.2
 30
0
 11
1165
 21
736.14
 31
0
  0
LINE
  5
266
100
AcDbEntity
  8
200
100
AcDbLine
370
-1
  6
AUSGEZOGEN
 10
1165
 20
736.95
 30
0
 11
1160.4
 21
724.02
 31
0
  0
LINE
  5
267
100
AcDbEntity
  8
200
100
AcDbLine
370
-1
  6
AUSGEZOGEN
 10
1151.64
 20
712.2
 30
0
 11
1160.4
 21
723.2
 31
0
  0
LINE
  5
268
100
AcDbEntity
  8
200
100
AcDbLine
370
-1
  6
AUSGEZOGEN
 10
1160.4
 20
724.02
 30
0
 11
1151.64
 21
713.02
 31
0
  0
LINE
  5
269
100
AcDbEntity
  8
200
100
AcDbLine
370
-1
  6
AUSGEZOGEN
 10
1139.6
 20
704.2
 30
0
 11
1151.64
 21
712.2
 31
0
  0
LINE
  5
26A
100
AcDbEntity
  8
200
100
AcDbLine
370
-1
  6
AUSGEZOGEN
 10
1151.64
 20
713.02
 30
0
 11
1139.6
 21
705.01
 31
0
  0
LINE
  5
26B
100
AcDbEntity
  8
200
100
AcDbLine
370
-1
  6
AUSGEZOGEN
 10
1125.44
 20
700
 30
0
 11
1139.6
 21
704.2
 31
0
  0
LINE
  5
26C
100
AcDbEntity
  8
200
100
AcDbLine
370
-1
  6
AUSGEZOGEN
 10
1139.6
 20
705.01
 30
0
 11
1125.44
 21
700.81
 31
0
  0
LINE
  5
26D
100
AcDbEntity
  8
200
100
AcDbLine
370
-1
  6
AUSGEZOGEN
 10
1110.56
 20
700
 30
0
 11
1125.44
 21
700
 31
0
  0
LINE
  5
26E
100
AcDbEntity
  8
200
100
AcDbLine
370
-1
  6
AUSGEZOGEN
 10
1125.44
 20
700.81
 30
0
 11
1110.56
 21
700.81
 31
0
  0
LINE
  5
26F
100
AcDbEntity
  8
200
100
AcDbLine
370
-1
  6
AUSGEZOGEN
 10
1096.4
 20
704.2
 30
0
 11
1110.56
 21
700
 31
0
  0
LINE
  5
270
100
AcDbEntity
  8
200
100
AcDbLine
370
-1
  6
AUSGEZOGEN
 10
1084.36
 20
712.2
 30
0
 11
1096.4
 21
704.2
 31
0
  0
LINE
  5
271
100
AcDbEntity
  8
200
100
AcDbLine
370
-1
  6
AUSGEZOGEN
 10
1075.6
 20
723.2
 30
0
 11
1084.36
 21
712.2
 31
0
  0
LINE
  5
272
100
AcDbEntity
  8
200
100
AcDbLine
370
-1
  6
AUSGEZOGEN
 10
1071
 20
736.14
 30
0
 11
1075.6
 21
723.2
 31
0
  0
LINE
  5
273
100
AcDbEntity
  8
200
100
AcDbLine
370
-1
  6
AUSGEZOGEN
 10
1071
 20
750.55
 30
0
 11
1071
 21
736.14
 31
0
  0
LINE
  5
274
100
AcDbEntity
  8
200
100
AcDbLine
370
-1
  6
AUSGEZOGEN
 10
1135
 20
779.94
 30
0
 11
1127
 21
782.31
 31
0
  0
LINE
  5
275
100
AcDbEntity
  8
200
100
AcDbLine
370
-1
  6
AUSGEZOGEN
 10
1144.48
 20
773.63
 30
0
 11
1135
 21
779.94
 31
0
  0
LINE
  5
276
100
AcDbEntity
  8
200
100
AcDbLine
370
-1
  6
AUSGEZOGEN
 10
1151.38
 20
764.97
 30
0
 11
1144.48
 21
773.63
 31
0
  0
LINE
  5
277
100
AcDbEntity
  8
200
100
AcDbLine
370
-1
  6
AUSGEZOGEN
 10
1155
 20
754.8
 30
0
 11
1151.38
 21
764.97
 31
0
  0
LINE
  5
278
100
AcDbEntity
  8
200
100
AcDbLine
370
-1
  6
AUSGEZOGEN
 10
1151.38
 20
733.91
 30
0
 11
1155
 21
744.09
 31
0
  0
LINE
  5
279
100
AcDbEntity
  8
200
100
AcDbLine
370
-1
  6
AUSGEZOGEN
 10
1155
 20
754.8
 30
0
 11
1155
 21
738.4
 31
0
  0
LINE
  5
27A
100
AcDbEntity
  8
200
100
AcDbLine
370
-1
  6
AUSGEZOGEN
 10
1151.38
 20
728.22
 30
0
 11
1155
 21
738.4
 31
0
  0
LINE
  5
27B
100
AcDbEntity
  8
200
100
AcDbLine
370
-1
  6
AUSGEZOGEN
 10
1144.48
 20
719.56
 30
0
 11
1151.38
 21
728.22
 31
0
  0
LINE
  5
27C
100
AcDbEntity
  8
200
100
AcDbLine
370
-1
  6
AUSGEZOGEN
 10
1151.38
 20
733.91
 30
0
 11
1144.48
 21
725.25
 31
0
  0
LINE
  5
27D
100
AcDbEntity
  8
200
100
AcDbLine
370
-1
  6
AUSGEZOGEN
 10
1135
 20
713.25
 30
0
 11
1144.48
 21
719.56
 31
0
  0
LINE
  5
27E
100
AcDbEntity
  8
200
100
AcDbLine
370
-1
  6
AUSGEZOGEN
 10
1144.48
 20
725.25
 30
0
 11
1135
 21
718.95
 31
0
  0
LINE
  5
27F
100
AcDbEntity
  8
200
100
AcDbLine
370
-1
  6
AUSGEZOGEN
 10
1127
 20
710.88
 30
0
 11
1135
 21
713.25
 31
0
  0
LINE
  5
280
100
AcDbEntity
  8
200
100
AcDbLine
370
-1
  6
AUSGEZOGEN
 10
1127
 20
793.15
 30
0
 11
1127
 21
701.28
 31
0
  0
LINE
  5
281
100
AcDbEntity
  8
200
100
AcDbLine
370
-1
  6
AUSGEZOGEN
 10
1135
 20
718.95
 30
0
 11
1127
 21
716.57
 31
0
  0
LINE
  5
282
100
AcDbEntity
  8
200
100
AcDbLine
370
-1
  6
AUSGEZOGEN
 10
1084.62
 20
764.97
 30
0
 11
1081
 21
754.8
 31
0
  0
LINE
  5
283
100
AcDbEntity
  8
200
100
AcDbLine
370
-1
  6
AUSGEZOGEN
 10
1091.52
 20
773.63
 30
0
 11
1084.62
 21
764.97
 31
0
  0
LINE
  5
284
100
AcDbEntity
  8
200
100
AcDbLine
370
-1
  6
AUSGEZOGEN
 10
1101
 20
779.94
 30
0
 11
1091.52
 21
773.63
 31
0
  0
LINE
  5
285
100
AcDbEntity
  8
200
100
AcDbLine
370
-1
  6
AUSGEZOGEN
 10
1109
 20
782.31
 30
0
 11
1101
 21
779.94
 31
0
  0
LINE
  5
286
100
AcDbEntity
  8
200
100
AcDbLine
370
-1
  6
AUSGEZOGEN
 10
1101
 20
718.95
 30
0
 11
1109
 21
716.57
 31
0
  0
LINE
  5
287
100
AcDbEntity
  8
200
100
AcDbLine
370
-1
  6
AUSGEZOGEN
 10
1091.52
 20
725.25
 30
0
 11
1101
 21
718.95
 31
0
  0
LINE
  5
288
100
AcDbEntity
  8
200
100
AcDbLine
370
-1
  6
AUSGEZOGEN
 10
1084.62
 20
733.91
 30
0
 11
1091.52
 21
725.25
 31
0
  0
LINE
  5
289
100
AcDbEntity
  8
200
100
AcDbLine
370
-1
  6
AUSGEZOGEN
 10
1081
 20
744.09
 30
0
 11
1084.62
 21
733.91
 31
0
  0
LINE
  5
28A
100
AcDbEntity
  8
200
100
AcDbLine
370
-1
  6
AUSGEZOGEN
 10
1109
 20
710.88
 30
0
 11
1101
 21
713.25
 31
0
  0
LINE
  5
28B
100
AcDbEntity
  8
200
100
AcDbLine
370
-1
  6
AUSGEZOGEN
 10
1109
 20
793.15
 30
0
 11
1109
 21
701.28
 31
0
  0
LINE
  5
28C
100
AcDbEntity
  8
200
100
AcDbLine
370
-1
  6
AUSGEZOGEN
 10
1091.52
 20
719.56
 30
0
 11
1101
 21
713.25
 31
0
  0
LINE
  5
28D
100
AcDbEntity
  8
200
100
AcDbLine
370
-1
  6
AUSGEZOGEN
 10
1084.62
 20
728.22
 30
0
 11
1091.52
 21
719.56
 31
0
  0
LINE
  5
28E
100
AcDbEntity
  8
200
100
AcDbLine
370
-1
  6
AUSGEZOGEN
 10
1081
 20
738.4
 30
0
 11
1084.62
 21
728.22
 31
0
  0
LINE
  5
28F
100
AcDbEntity
  8
200
100
AcDbLine
370
-1
  6
AUSGEZOGEN
 10
1081
 20
754.8
 30
0
 11
1081
 21
738.4
 31
0
  0
LINE
  5
290
100
AcDbEntity
  8
200
100
AcDbLine
370
-1
  6
AUSGEZOGEN
 10
1557.48
 20
759.09
 30
0
 11
1554
 21
753.57
 31
0
  0
LINE
  5
291
100
AcDbEntity
  8
200
100
AcDbLine
370
-1
  6
AUSGEZOGEN
 10
1571.82
 20
725
 30
0
 11
1562.18
 21
725
 31
0
  0
LINE
  5
292
100
AcDbEntity
  8
200
100
AcDbLine
370
-1
  6
AUSGEZOGEN
 10
1549
 20
745.85
 30
0
 11
1549
 21
737.04
 31
0
  0
LINE
  5
293
100
AcDbEntity
  8
200
100
AcDbLine
370
-1
  6
AUSGEZOGEN
 10
1554
 20
753.57
 30
0
 11
1549
 21
745.85
 31
0
  0
LINE
  5
294
100
AcDbEntity
  8
200
100
AcDbLine
370
-1
  6
AUSGEZOGEN
 10
1585
 20
737.04
 30
0
 11
1585
 21
745.85
 31
0
  0
LINE
  5
295
100
AcDbEntity
  8
200
100
AcDbLine
370
-1
  6
AUSGEZOGEN
 10
1580
 20
753.57
 30
0
 11
1585
 21
745.85
 31
0
  0
LINE
  5
296
100
AcDbEntity
  8
200
100
AcDbLine
370
-1
  6
AUSGEZOGEN
 10
1571.82
 20
725
 30
0
 11
1580.18
 21
729.41
 31
0
  0
LINE
  5
297
100
AcDbEntity
  8
200
100
AcDbLine
370
-1
  6
AUSGEZOGEN
 10
1576.52
 20
741.7
 30
0
 11
1570.48
 21
738.52
 31
0
  0
LINE
  5
298
100
AcDbEntity
  8
200
100
AcDbLine
370
-1
  6
AUSGEZOGEN
 10
1553.82
 20
729.41
 30
0
 11
1549
 21
737.04
 31
0
  0
LINE
  5
299
100
AcDbEntity
  8
200
100
AcDbLine
370
-1
  6
AUSGEZOGEN
 10
1554
 20
747.21
 30
0
 11
1557.48
 21
741.7
 31
0
  0
LINE
  5
29A
100
AcDbEntity
  8
200
100
AcDbLine
370
-1
  6
AUSGEZOGEN
 10
1580.18
 20
753.49
 30
0
 11
1585
 21
745.85
 31
0
  0
LINE
  5
29B
100
AcDbEntity
  8
200
100
AcDbLine
370
-1
  6
AUSGEZOGEN
 10
1549
 20
745.85
 30
0
 11
1553.82
 21
753.49
 31
0
  0
LINE
  5
29C
100
AcDbEntity
  8
200
100
AcDbLine
370
-1
  6
AUSGEZOGEN
 10
1580
 20
747.21
 30
0
 11
1576.52
 21
741.7
 31
0
  0
LINE
  5
29D
100
AcDbEntity
  8
200
100
AcDbLine
370
-1
  6
AUSGEZOGEN
 10
1580.18
 20
729.41
 30
0
 11
1585
 21
737.04
 31
0
  0
LINE
  5
29E
100
AcDbEntity
  8
200
100
AcDbLine
370
-1
  6
AUSGEZOGEN
 10
1553.82
 20
729.41
 30
0
 11
1562.18
 21
725
 31
0
  0
CIRCLE
  5
29F
100
AcDbEntity
  8
200
100
AcDbCircle
370
-1
  6
AUSGEZOGEN
 10
1567
 20
751.61
 30
0
 40
9.13
  0
LINE
  5
2A0
100
AcDbEntity
  8
200
100
AcDbLine
370
-1
  6
AUSGEZOGEN
 10
1563.52
 20
738.52
 30
0
 11
1570.48
 21
738.52
 31
0
  0
LINE
  5
2A1
100
AcDbEntity
  8
200
100
AcDbLine
370
-1
  6
AUSGEZOGEN
 10
1570.48
 20
762.27
 30
0
 11
1563.52
 21
762.27
 31
0
  0
LINE
  5
2A2
100
AcDbEntity
  8
200
100
AcDbLine
370
-1
  6
AUSGEZOGEN
 10
1554
 20
747.21
 30
0
 11
1554
 21
753.57
 31
0
  0
LINE
  5
2A3
100
AcDbEntity
  8
200
100
AcDbLine
370
-1
  6
AUSGEZOGEN
 10
1580
 20
753.57
 30
0
 11
1580
 21
747.21
 31
0
  0
LINE
  5
2A4
100
AcDbEntity
  8
200
100
AcDbLine
370
-1
  6
AUSGEZOGEN
 10
1557.48
 20
759.09
 30
0
 11
1563.52
 21
762.27
 31
0
  0
LINE
  5
2A5
100
AcDbEntity
  8
200
100
AcDbLine
370
-1
  6
AUSGEZOGEN
 10
1563.52
 20
738.52
 30
0
 11
1557.48
 21
741.7
 31
0
  0
LINE
  5
2A6
100
AcDbEntity
  8
200
100
AcDbLine
370
-1
  6
AUSGEZOGEN
 10
1576.52
 20
759.09
 30
0
 11
1570.48
 21
762.27
 31
0
  0
ATTDEF
  5
2A8
100
AcDbEntity
  8
0
100
AcDbText
370
-1
 10
0
 20
0
 30
0
 40
1
  1

 50
0
 41
1
 51
0
  7
STANDARD
 71
0
 72
0
 11
0
 21
0
 31
0
100
AcDbAttributeDefinition
  3

  2

 70
0
 74
0
1001
AcDbAttr
1070
0
1070
0
  0
ENDBLK
  5
2C5
100
AcDbEntity
  8
0
100
AcDbBlockEnd
  0
BLOCK
  5
2AE
100
AcDbEntity
  8
450
100
AcDbBlockBegin
  2
INST_BLOCK_00001
 70
2
 10
0
 20
0
 30
0
  3
INST_BLOCK_00001
  1

  0
CIRCLE
  5
20
100
AcDbEntity
  8
450
100
AcDbCircle
370
-1
  6
AUSGEZOGEN
 10
75
 20
450
 30
0
 40
50
  0
LINE
  5
21
100
AcDbEntity
  8
450
100
AcDbLine
370
-1
  6
AUSGEZOGEN
 10
0
 20
450
 30
0
 11
75
 21
450
 31
0
  0
LINE
  5
22
100
AcDbEntity
  8
450
100
AcDbLine
370
-1
  6
AUSGEZOGEN
 10
150
 20
450
 30
0
 11
75
 21
450
 31
0
  0
LINE
  5
23
100
AcDbEntity
  8
450
100
AcDbLine
370
-1
  6
AUSGEZOGEN
 10
75
 20
375
 30
0
 11
75
 21
450
 31
0
  0
LINE
  5
24
100
AcDbEntity
  8
450
100
AcDbLine
370
-1
  6
AUSGEZOGEN
 10
75
 20
525
 30
0
 11
75
 21
450
 31
0
  0
ATTDEF
  5
2AD
100
AcDbEntity
  8
0
100
AcDbText
370
-1
 10
0
 20
0
 30
0
 40
1
  1

 50
0
 41
1
 51
0
  7
STANDARD
 71
0
 72
0
 11
0
 21
0
 31
0
100
AcDbAttributeDefinition
  3

  2

 70
0
 74
0
1001
AcDbAttr
1070
0
1070
0
  0
ENDBLK
  5
2C6
100
AcDbEntity
  8
0
100
AcDbBlockEnd
  0
ENDSEC
  0
SECTION
  2
ENTITIES
  0
LINE
  5
1C
100
AcDbEntity
  8
450
100
AcDbLine
370
-1
  6
AUSGEZOGEN
 10
75
 20
450
 30
0
 11
2001.5
 21
823.5
 31
0
  0
LINE
  5
1F
100
AcDbEntity
  8
450
100
AcDbLine
370
-1
  6
AUSGEZOGEN
 10
2465.44
 20
823.5
 30
0
 11
2001.5
 21
823.5
 31
0
  0
TEXT
  5
2A7
100
AcDbEntity
  8
450
100
AcDbText
370
-1
 10
2015
 20
837
 30
0
 40
45
  1
Ga: DN15 1/2" 60kW
 50
0
 41
0.600000023841858
 51
0
  7
STANDARD
 71
0
 72
0
 11
0
 21
0
 31
0
100
AcDbText
 73
0
  0
INSERT
  5
2AC
100
AcDbEntity
  8
200
100
AcDbBlockReference
370
-1
  6
BYLAYER
 66
1
  2
GER_BLOCK_00001
 10
0
 20
0
 30
0
 41
1
 42
1
 43
1
  0
ATTRIB
  5
2AB
100
AcDbEntity
  8
0
100
AcDbText
370
-1
 10
0
 20
0
 30
0
 40
20
  1

 50
0
 41
1
 51
0
  7
STANDARD
 71
0
 72
0
 11
0
 21
0
 31
0
100
AcDbAttribute
  2

 70
0
 74
0
1001
AcDbAttr
1070
0
1070
0
  0
SEQEND
  5
2C7
100
AcDbEntity
  8
0
  0
INSERT
  5
2B1
100
AcDbEntity
  8
450
100
AcDbBlockReference
370
-1
  6
BYLAYER
 66
1
  2
INST_BLOCK_00001
 10
0
 20
0
 30
0
 41
1
 42
1
 43
1
  0
ATTRIB
  5
2B0
100
AcDbEntity
  8
0
100
AcDbText
370
-1
 10
0
 20
0
 30
0
 40
20
  1

 50
0
 41
1
 51
0
  7
STANDARD
 71
0
 72
0
 11
0
 21
0
 31
0
100
AcDbAttribute
  2

 70
0
 74
0
1001
AcDbAttr
1070
0
1070
0
  0
SEQEND
  5
2C8
100
AcDbEntity
  8
0
  0
ATTDEF
  5
2B2
100
AcDbEntity
  8
550
100
AcDbText
370
-1
 10
10
 20
100
 30
0
 40
30
  1

 50
0
 41
1
 51
0
  7
STANDARD
 71
0
 72
0
 11
0
 21
0
 31
0
100
AcDbAttributeDefinition
  3
KBS-10521420
  2
KBS-10521420
 70
1
 74
0
1001
AcDbAttr
1070
0
1070
0
  0
TEXT
  5
2B3
100
AcDbEntity
  8
510
100
AcDbText
370
-1
 10
10
 20
-45
 30
0
 40
30
  1

 50
0
 41
1
 51
0
  7
STANDARD
 71
0
 72
0
 11
0
 21
0
 31
0
100
AcDbText
 73
0
  0
ENDSEC
  0
SECTION
  2
OBJECTS
  0
DICTIONARY
  5
2C9
100
AcDbDictionary
  3
ACAD_GROUP
350
2CA
  3
ACAD_MATERIAL
350
2CB
  3
ACAD_WIPEOUT_VARS
350
2CC
  3
ACAD_MLINESTYLE
350
2CD
  3
ACAD_LAYOUT
350
2CE
  0
DICTIONARY
  5
2CA
330
2C9
100
AcDbDictionary
  0
DICTIONARY
  5
2CB
330
2C9
100
AcDbDictionary
  0
WIPEOUTVARIABLES
  5
2CC
330
2C9
100
AcDbWipeoutVariables
 70
1
  0
DICTIONARY
  5
2CD
330
2C9
100
AcDbDictionary
  3
STANDARD
350
2CF
  0
MLINESTYLE
  5
2CF
100
AcDbMlineStyle
  2
STANDARD
 70
0
  3

 62
256
 51
90
 52
90
 71
2
 49
0.5
 62
256
  6
ByLayer
 49
-0.5
 62
256
  6
ByLayer
  0
DICTIONARY
  5
2CE
100
AcDbDictionary
281
1
  3
Model
350
2B4
  0
LAYOUT
  5
2B4
102
{ACAD_REACTORS
330
2CE
102
}
330
2CE
100
AcDbPlotSettings
  1

  2
none_device
  4

  6

 40
0
 41
0
 42
0
 43
0
 44
0
 45
0
 46
0
 47
0
 48
0
 49
0
 70
1712
 72
1
 73
0
 74
5
 75
16
 76
0
 77
0
 78
100
140
0
141
0
142
1
143
1
147
1
148
0
149
0
100
AcDbLayout
  1
Model
 70
1
 71
1
 10
0
 20
0
 11
2465.44
 21
956.11
 12
0
 22
0
 32
0
 14
0
 24
0
 34
0
 15
2465.44
 25
956.11
 35
0
146
0
 13
0
 23
0
 33
0
 16
1
 26
0
 36
0
 17
0
 27
1
 37
0
 76
0
330
1E
  0
DICTIONARY
  5
2D0
100
AcDbDictionary
280
1
  3
XINFO
360
2D1
  0
XRECORD
  5
2D1
102
{ACAD_REACTORS
330
2D0
102
}
330
2D0
100
AcDbXrecord
280
0
310
8F24010003000900
311
3D4F39617F8CFF0C
  0
ENDSEC
  0
EOF
