999
     Created by SWS GmbH, Paderborn, Germany, www.sws-online.de
999
     and  Soft Gold Ltd. www.cadsofttools.com
999

999
SWS-intern Ausgabemassstab:
999
   0.0500
999

999
SWS-intern Koordinatenwerte 1:1:
999
1
999

  0
SECTION
  2
HEADER
  9
$ACADVER
  1
AC1018
  9
$DWGCODEPAGE
  3
ANSI_1252
  9
$CLAYER
  8
0
  9
$CELTYPE
  6
BYLAYER
  9
$CELTSCALE
 40
1
  9
$CELWEIGHT
370
-1
  9
$DIMALT
 70
0
  9
$DIMALTF
 40
1
  9
$DIMPOST
  1

  9
$DIMAPOST
  1

  9
$DIMSCALE
 40
1
  9
$DIMASZ
 40
0.18
  9
$DIMCLRD
 70
0
  9
$DIMCLRE
 70
0
  9
$DIMCLRT
 70
0
  9
$DIMEXE
 40
0.18
  9
$DIMEXO
 40
0.0625
  9
$DIMGAP
 40
0.0625
  9
$DIMLFAC
 40
1
  9
$DIMDEC
 70
4
  9
$DIMTAD
 70
0
  9
$DIMCEN
 40
0.09
  9
$DIMTIH
 70
1
  9
$DIMTIX
 70
0
  9
$DIMTOH
 70
1
  9
$DIMSE1
 70
0
  9
$DIMSE2
 70
0
  9
$DIMSD1
 70
0
  9
$DIMSD2
 70
0
  9
$DIMLWD
 70
-1
  9
$DIMLWE
 70
-1
  9
$DIMSAH
 70
0
  9
$DIMBLK
  1

  9
$DIMBLK1
  1

  9
$DIMBLK2
  1

  9
$DIMLDRBLK
  1

  9
$DIMSTYLE
  2
STANDARD
  9
$DIMTP
 40
0
  9
$DIMTM
 40
0
  9
$DIMTXT
 40
0.18
  9
$DIMLUNIT
 70
2
  9
$DIMDSEP
 70
46
  9
$DIMTXSTY
  7
STANDARD
  9
$TEXTSIZE
 40
0.18
  9
$TEXTSTYLE
  7
STANDARD
  9
$HANDSEED
  5
0000000000000262
  9
$FILLETRAD
 40
0.5
  9
$INSUNITS
 70
4
  9
$LIMMIN
 10
-183.75
 20
-122.5
  9
$LIMMAX
 10
1653.75
 20
1102.5
  9
$FILLMODE
 70
1
  9
$LTSCALE
 40
1
  9
$PSLTSCALE
 70
0
  9
$MEASUREMENT
 70
0
  9
$ATTMODE
 70
1
  9
$PDMODE
 70
0
  9
$PDSIZE
 40
0
  9
$TILEMODE
 70
1
  9
$UCSORG
 10
0
 20
0
 30
0
  9
$UCSXDIR
 10
1
 20
0
 30
0
  9
$UCSYDIR
 10
0
 20
1
 30
0
  9
$INSBASE
 10
0
 20
0
 30
0
  9
$XCLIPFRAME
290
1
  9
$DIMASSOC
280
2
  9
$TDCREATE
 40
2459104.64824248
  9
$TDINDWG
 40
1.27314814814815E-7
  9
$TDUPDATE
 40
2459104.6482426
  0
ENDSEC
  0
SECTION
  2
CLASSES
  0
CLASS
  1
IMAGE
  2
AcDbRasterImage
  3
ISM
 90
2175
 91
1
280
0
281
1
  0
CLASS
  1
IMAGEDEF
  2
AcDbRasterImageDef
  3
ISM
 90
0
 91
1
280
0
281
0
  0
CLASS
  1
WIPEOUT
  2
AcDbWipeout
  3
"WipeOut"
 90
2175
 91
1
280
0
281
1
  0
CLASS
  1
WIPEOUTVARIABLES
  2
AcDbWipeoutVariables
  3
"WipeOut"
 90
0
 91
1
280
0
281
0
  0
CLASS
  1
MPOLYGON
  2
AcDbMPolygon
  3
"AcMPolygonObj15"
 90
3071
 91
1
280
0
281
1
  0
ENDSEC
  0
SECTION
  2
TABLES
  0
TABLE
  2
APPID
  5
245
100
AcDbSymbolTable
  0
APPID
  5
246
100
AcDbSymbolTableRecord
100
AcDbRegAppTableRecord
  2
ACAD
 70
0
  0
APPID
  5
12
100
AcDbSymbolTableRecord
100
AcDbRegAppTableRecord
  2
CSTINVENTORY
 70
0
  0
APPID
  5
247
100
AcDbSymbolTableRecord
100
AcDbRegAppTableRecord
  2
AcDbAttr
 70
0
  0
APPID
  5
248
100
AcDbSymbolTableRecord
100
AcDbRegAppTableRecord
  2
PE_URL
 70
0
  0
ENDTAB
  0
TABLE
  2
BLOCK_RECORD
  5
249
100
AcDbSymbolTable
  0
BLOCK_RECORD
  5
1E
100
AcDbSymbolTableRecord
100
AcDbBlockTableRecord
  2
*MODEL_SPACE
  0
BLOCK_RECORD
  5
24A
100
AcDbSymbolTableRecord
100
AcDbBlockTableRecord
  2
*PAPER_SPACE
  0
BLOCK_RECORD
  5
10
100
AcDbSymbolTableRecord
100
AcDbBlockTableRecord
  2
_CLOSEDFILLED
  0
BLOCK_RECORD
  5
23A
100
AcDbSymbolTableRecord
100
AcDbBlockTableRecord
  2
GER_BLOCK_00001
  0
BLOCK_RECORD
  5
23F
100
AcDbSymbolTableRecord
100
AcDbBlockTableRecord
  2
INST_BLOCK_00001
  0
ENDTAB
  0
TABLE
  2
STYLE
  5
3
100
AcDbSymbolTable
  0
STYLE
  5
A
100
AcDbSymbolTableRecord
100
AcDbTextStyleTableRecord
  2
STANDARD
 70
0
 40
0
 41
1
 50
0
 71
0
 42
30
  3
TXT.SHX
  4

1001
ACAD
1000
txt
1071
0
  0
ENDTAB
  0
TABLE
  2
LTYPE
  5
1
100
AcDbSymbolTable
  0
LTYPE
  5
9
100
AcDbSymbolTableRecord
100
AcDbLinetypeTableRecord
  2
CONTINUOUS
 70
0
  3

 72
65
 73
0
 40
0
  0
LTYPE
  5
7
100
AcDbSymbolTableRecord
100
AcDbLinetypeTableRecord
  2
BYLAYER
 70
0
  3

 72
65
 73
0
 40
0
  0
LTYPE
  5
8
100
AcDbSymbolTableRecord
100
AcDbLinetypeTableRecord
  2
BYBLOCK
 70
0
  3

 72
65
 73
0
 40
0
  0
LTYPE
  5
13
100
AcDbSymbolTableRecord
100
AcDbLinetypeTableRecord
  2
AUSGEZOGEN
 70
0
  3
.
 72
65
 73
1
 40
0
 49
0
 74
0
  0
LTYPE
  5
14
100
AcDbSymbolTableRecord
100
AcDbLinetypeTableRecord
  2
PUNKTIERT
 70
0
  3
. 
 72
65
 73
2
 40
30
 49
0
 74
0
 49
-30
 74
0
  0
LTYPE
  5
15
100
AcDbSymbolTableRecord
100
AcDbLinetypeTableRecord
  2
GESTRICHELT
 70
0
  3
_ 
 72
65
 73
2
 40
80
 49
50
 74
0
 49
-30
 74
0
  0
LTYPE
  5
16
100
AcDbSymbolTableRecord
100
AcDbLinetypeTableRecord
  2
STRICHPUNKT
 70
0
  3
_ . 
 72
65
 73
4
 40
160
 49
100
 74
0
 49
-30
 74
0
 49
0
 74
0
 49
-30
 74
0
  0
LTYPE
  5
17
100
AcDbSymbolTableRecord
100
AcDbLinetypeTableRecord
  2
GETRENNT
 70
0
  3
_ . . 
 72
65
 73
6
 40
190
 49
100
 74
0
 49
-30
 74
0
 49
0
 74
0
 49
-30
 74
0
 49
0
 74
0
 49
-30
 74
0
  0
ENDTAB
  0
TABLE
  2
LAYER
  5
2
100
AcDbSymbolTable
  0
LAYER
  5
E
100
AcDbSymbolTableRecord
100
AcDbLayerTableRecord
  2
0
 70
0
 62
1
420
16711680
  6
AUSGEZOGEN
290
1
370
-3
390
0
  0
LAYER
  5
18
100
AcDbSymbolTableRecord
100
AcDbLayerTableRecord
  2
550
 70
0
 62
2
420
16776960
  6
AUSGEZOGEN
290
1
370
-3
390
0
  0
LAYER
  5
19
100
AcDbSymbolTableRecord
100
AcDbLayerTableRecord
  2
510
 70
0
 62
2
420
16776960
  6
AUSGEZOGEN
290
1
370
-3
390
0
  0
LAYER
  5
1A
100
AcDbSymbolTableRecord
100
AcDbLayerTableRecord
  2
200
 70
0
 62
7
  6
AUSGEZOGEN
290
1
370
-3
390
0
  0
LAYER
  5
1B
100
AcDbSymbolTableRecord
100
AcDbLayerTableRecord
  2
450
 70
0
 62
2
420
16776960
  6
AUSGEZOGEN
290
1
370
-3
390
0
  0
ENDTAB
  0
TABLE
  2
VPORT
  5
24B
100
AcDbSymbolTable
  0
VPORT
  5
24D
100
AcDbSymbolTableRecord
100
AcDbViewportTableRecord
  2
*ACTIVE
 70
0
 10
0
 20
0
 11
1
 21
1
 12
735
 22
490
 32
0
 13
0
 23
0
 14
1
 24
1
 15
1
 25
1
 16
0
 26
0
 36
1
 17
0
 27
0
 37
0
 40
980
 41
1.5
 42
50
 43
0
 44
0
 50
0
 51
0
 71
0
 72
100
 73
1
 74
1
 75
0
 76
0
 77
0
 78
0
  0
ENDTAB
  0
TABLE
  2
VIEW
  5
24E
100
AcDbSymbolTable
  0
ENDTAB
  0
TABLE
  2
UCS
  5
24F
100
AcDbSymbolTable
  0
ENDTAB
  0
TABLE
  2
DIMSTYLE
  5
4
100
AcDbSymbolTable
 70
1
100
AcDbDimStyleTable
 71
0
  0
DIMSTYLE
105
B
100
AcDbSymbolTableRecord
100
AcDbDimStyleTableRecord
  2
STANDARD
 70
0
  3

 40
1
 41
0.18
 42
0.0625
 44
0.18
 47
0
 48
0
 73
1
 74
1
 75
0
 76
0
 77
0
140
0.18
141
0.09
144
1
147
0.0625
173
0
174
0
176
0
177
0
178
0
277
2
278
46
281
0
282
0
271
4
340
A
371
-1
372
-1
  0
ENDTAB
  0
ENDSEC
  0
SECTION
  2
BLOCKS
  0
BLOCK
  5
250
100
AcDbEntity
  8
0
100
AcDbBlockBegin
  2
*MODEL_SPACE
 70
0
 10
0
 20
0
  0
ENDBLK
  5
251
100
AcDbEntity
  8
0
100
AcDbBlockEnd
  0
BLOCK
  5
252
100
AcDbEntity
  8
0
100
AcDbBlockBegin
  2
*PAPER_SPACE
 70
0
 10
0
 20
0
  0
ENDBLK
  5
253
100
AcDbEntity
  8
0
100
AcDbBlockEnd
  0
BLOCK
  5
F
100
AcDbEntity
  8
0
100
AcDbBlockBegin
  2
_CLOSEDFILLED
 70
0
 10
0
 20
0
 30
0
  3
_CLOSEDFILLED
  1

  0
SOLID
  5
C
100
AcDbEntity
  8
0
100
AcDbTrace
370
-2
 62
0
 10
-1
 20
0.166666666666667
 30
0
 11
0
 21
0
 31
0
 12
-1
 22
0.166666666666667
 32
0
 13
-1
 23
-0.166666666666667
 33
0
  0
LINE
  5
D
100
AcDbEntity
  8
0
100
AcDbLine
370
-2
 62
0
 10
-1
 20
0
 30
0
 11
-2
 21
0
 31
0
  0
ENDBLK
  5
254
100
AcDbEntity
  8
0
100
AcDbBlockEnd
  0
BLOCK
  5
239
100
AcDbEntity
  8
200
100
AcDbBlockBegin
  2
GER_BLOCK_00001
 70
2
 10
0
 20
0
 30
0
  3
GER_BLOCK_00001
  1

  0
LINE
  5
25
100
AcDbEntity
  8
200
100
AcDbLine
370
-1
  6
AUSGEZOGEN
 10
161
 20
0.21
 30
0
 11
161
 21
22
 31
0
  0
LINE
  5
26
100
AcDbEntity
  8
200
100
AcDbLine
370
-1
  6
AUSGEZOGEN
 10
159.44
 20
0
 30
0
 11
161
 21
0.21
 31
0
  0
LINE
  5
27
100
AcDbEntity
  8
200
100
AcDbLine
370
-1
  6
AUSGEZOGEN
 10
144.56
 20
0
 30
0
 11
159.44
 21
0
 31
0
  0
LINE
  5
28
100
AcDbEntity
  8
200
100
AcDbLine
370
-1
  6
AUSGEZOGEN
 10
143
 20
0.21
 30
0
 11
144.56
 21
0
 31
0
  0
LINE
  5
29
100
AcDbEntity
  8
200
100
AcDbLine
370
-1
  6
AUSGEZOGEN
 10
143
 20
22
 30
0
 11
143
 21
0.21
 31
0
  0
LINE
  5
2A
100
AcDbEntity
  8
200
100
AcDbLine
370
-1
  6
AUSGEZOGEN
 10
287
 20
0.21
 30
0
 11
287
 21
22
 31
0
  0
LINE
  5
2B
100
AcDbEntity
  8
200
100
AcDbLine
370
-1
  6
AUSGEZOGEN
 10
285.44
 20
0
 30
0
 11
287
 21
0.21
 31
0
  0
LINE
  5
2C
100
AcDbEntity
  8
200
100
AcDbLine
370
-1
  6
AUSGEZOGEN
 10
270.56
 20
0
 30
0
 11
285.44
 21
0
 31
0
  0
LINE
  5
2D
100
AcDbEntity
  8
200
100
AcDbLine
370
-1
  6
AUSGEZOGEN
 10
269
 20
0.21
 30
0
 11
270.56
 21
0
 31
0
  0
LINE
  5
2E
100
AcDbEntity
  8
200
100
AcDbLine
370
-1
  6
AUSGEZOGEN
 10
269
 20
22
 30
0
 11
269
 21
0.21
 31
0
  0
LINE
  5
2F
100
AcDbEntity
  8
200
100
AcDbLine
370
-1
  6
AUSGEZOGEN
 10
561
 20
0.21
 30
0
 11
561
 21
22
 31
0
  0
LINE
  5
30
100
AcDbEntity
  8
200
100
AcDbLine
370
-1
  6
AUSGEZOGEN
 10
559.44
 20
0
 30
0
 11
561
 21
0.21
 31
0
  0
LINE
  5
31
100
AcDbEntity
  8
200
100
AcDbLine
370
-1
  6
AUSGEZOGEN
 10
544.56
 20
0
 30
0
 11
559.44
 21
0
 31
0
  0
LINE
  5
32
100
AcDbEntity
  8
200
100
AcDbLine
370
-1
  6
AUSGEZOGEN
 10
543
 20
0.21
 30
0
 11
544.56
 21
0
 31
0
  0
LINE
  5
33
100
AcDbEntity
  8
200
100
AcDbLine
370
-1
  6
AUSGEZOGEN
 10
543
 20
22
 30
0
 11
543
 21
0.21
 31
0
  0
LINE
  5
34
100
AcDbEntity
  8
200
100
AcDbLine
370
-1
  6
AUSGEZOGEN
 10
687
 20
0.21
 30
0
 11
687
 21
22
 31
0
  0
LINE
  5
35
100
AcDbEntity
  8
200
100
AcDbLine
370
-1
  6
AUSGEZOGEN
 10
685.44
 20
0
 30
0
 11
687
 21
0.21
 31
0
  0
LINE
  5
36
100
AcDbEntity
  8
200
100
AcDbLine
370
-1
  6
AUSGEZOGEN
 10
670.56
 20
0
 30
0
 11
685.44
 21
0
 31
0
  0
LINE
  5
37
100
AcDbEntity
  8
200
100
AcDbLine
370
-1
  6
AUSGEZOGEN
 10
669
 20
0.21
 30
0
 11
670.56
 21
0
 31
0
  0
LINE
  5
38
100
AcDbEntity
  8
200
100
AcDbLine
370
-1
  6
AUSGEZOGEN
 10
669
 20
22
 30
0
 11
669
 21
0.21
 31
0
  0
LINE
  5
39
100
AcDbEntity
  8
200
100
AcDbLine
370
-1
  6
AUSGEZOGEN
 10
76
 20
390.96
 30
0
 11
76
 21
294
 31
0
  0
LINE
  5
3A
100
AcDbEntity
  8
200
100
AcDbLine
370
-1
  6
AUSGEZOGEN
 10
76
 20
189.04
 30
0
 11
76
 21
286
 31
0
  0
LINE
  5
3B
100
AcDbEntity
  8
200
100
AcDbLine
370
-1
  6
AUSGEZOGEN
 10
46
 20
396.92
 30
0
 11
46
 21
294
 31
0
  0
LINE
  5
3C
100
AcDbEntity
  8
200
100
AcDbLine
370
-1
  6
AUSGEZOGEN
 10
46
 20
183.08
 30
0
 11
46
 21
286
 31
0
  0
LINE
  5
3D
100
AcDbEntity
  8
200
100
AcDbLine
370
-1
  6
AUSGEZOGEN
 10
354
 20
286
 30
0
 11
354
 21
189.04
 31
0
  0
LINE
  5
3E
100
AcDbEntity
  8
200
100
AcDbLine
370
-1
  6
AUSGEZOGEN
 10
354
 20
390.96
 30
0
 11
354
 21
294
 31
0
  0
LINE
  5
3F
100
AcDbEntity
  8
200
100
AcDbLine
370
-1
  6
AUSGEZOGEN
 10
384
 20
183.08
 30
0
 11
384
 21
286
 31
0
  0
LINE
  5
40
100
AcDbEntity
  8
200
100
AcDbLine
370
-1
  6
AUSGEZOGEN
 10
384
 20
396.92
 30
0
 11
384
 21
294
 31
0
  0
LINE
  5
41
100
AcDbEntity
  8
200
100
AcDbLine
370
-1
  6
AUSGEZOGEN
 10
108.04
 20
157
 30
0
 11
211
 21
157
 31
0
  0
LINE
  5
42
100
AcDbEntity
  8
200
100
AcDbLine
370
-1
  6
AUSGEZOGEN
 10
321.96
 20
157
 30
0
 11
219
 21
157
 31
0
  0
LINE
  5
43
100
AcDbEntity
  8
200
100
AcDbLine
370
-1
  6
AUSGEZOGEN
 10
102.08
 20
127
 30
0
 11
211
 21
127
 31
0
  0
LINE
  5
44
100
AcDbEntity
  8
200
100
AcDbLine
370
-1
  6
AUSGEZOGEN
 10
327.92
 20
127
 30
0
 11
219
 21
127
 31
0
  0
LINE
  5
45
100
AcDbEntity
  8
200
100
AcDbLine
370
-1
  6
AUSGEZOGEN
 10
219
 20
423
 30
0
 11
321.96
 21
423
 31
0
  0
LINE
  5
46
100
AcDbEntity
  8
200
100
AcDbLine
370
-1
  6
AUSGEZOGEN
 10
108.04
 20
423
 30
0
 11
211
 21
423
 31
0
  0
LINE
  5
47
100
AcDbEntity
  8
200
100
AcDbLine
370
-1
  6
AUSGEZOGEN
 10
327.92
 20
453
 30
0
 11
219
 21
453
 31
0
  0
LINE
  5
48
100
AcDbEntity
  8
200
100
AcDbLine
370
-1
  6
AUSGEZOGEN
 10
102.08
 20
453
 30
0
 11
211
 21
453
 31
0
  0
LINE
  5
49
100
AcDbEntity
  8
200
100
AcDbLine
370
-1
  6
AUSGEZOGEN
 10
84.88
 20
171.54
 30
0
 11
82.08
 21
174.34
 31
0
  0
LINE
  5
4A
100
AcDbEntity
  8
200
100
AcDbLine
370
-1
  6
AUSGEZOGEN
 10
93.34
 20
163.08
 30
0
 11
90.54
 21
165.88
 31
0
  0
LINE
  5
4B
100
AcDbEntity
  8
200
100
AcDbLine
370
-1
  6
AUSGEZOGEN
 10
63.67
 20
150.33
 30
0
 11
56.66
 21
157.34
 31
0
  0
LINE
  5
4C
100
AcDbEntity
  8
200
100
AcDbLine
370
-1
  6
AUSGEZOGEN
 10
76.34
 20
137.66
 30
0
 11
69.33
 21
144.67
 31
0
  0
LINE
  5
4D
100
AcDbEntity
  8
200
100
AcDbLine
370
-1
  6
AUSGEZOGEN
 10
345.12
 20
408.46
 30
0
 11
347.92
 21
405.66
 31
0
  0
LINE
  5
4E
100
AcDbEntity
  8
200
100
AcDbLine
370
-1
  6
AUSGEZOGEN
 10
336.66
 20
416.92
 30
0
 11
339.46
 21
414.12
 31
0
  0
LINE
  5
4F
100
AcDbEntity
  8
200
100
AcDbLine
370
-1
  6
AUSGEZOGEN
 10
366.33
 20
429.67
 30
0
 11
373.34
 21
422.66
 31
0
  0
LINE
  5
50
100
AcDbEntity
  8
200
100
AcDbLine
370
-1
  6
AUSGEZOGEN
 10
353.66
 20
442.34
 30
0
 11
360.67
 21
435.33
 31
0
  0
LINE
  5
51
100
AcDbEntity
  8
200
100
AcDbLine
370
-1
  6
AUSGEZOGEN
 10
336.66
 20
163.08
 30
0
 11
339.46
 21
165.88
 31
0
  0
LINE
  5
52
100
AcDbEntity
  8
200
100
AcDbLine
370
-1
  6
AUSGEZOGEN
 10
347.92
 20
174.34
 30
0
 11
345.12
 21
171.54
 31
0
  0
LINE
  5
53
100
AcDbEntity
  8
200
100
AcDbLine
370
-1
  6
AUSGEZOGEN
 10
360.67
 20
144.67
 30
0
 11
353.66
 21
137.66
 31
0
  0
LINE
  5
54
100
AcDbEntity
  8
200
100
AcDbLine
370
-1
  6
AUSGEZOGEN
 10
373.34
 20
157.34
 30
0
 11
366.33
 21
150.33
 31
0
  0
LINE
  5
55
100
AcDbEntity
  8
200
100
AcDbLine
370
-1
  6
AUSGEZOGEN
 10
90.54
 20
414.12
 30
0
 11
93.34
 21
416.92
 31
0
  0
LINE
  5
56
100
AcDbEntity
  8
200
100
AcDbLine
370
-1
  6
AUSGEZOGEN
 10
82.08
 20
405.66
 30
0
 11
84.88
 21
408.46
 31
0
  0
LINE
  5
57
100
AcDbEntity
  8
200
100
AcDbLine
370
-1
  6
AUSGEZOGEN
 10
69.33
 20
435.33
 30
0
 11
76.34
 21
442.34
 31
0
  0
LINE
  5
58
100
AcDbEntity
  8
200
100
AcDbLine
370
-1
  6
AUSGEZOGEN
 10
56.66
 20
422.66
 30
0
 11
63.67
 21
429.67
 31
0
  0
LINE
  5
59
100
AcDbEntity
  8
200
100
AcDbLine
370
-1
  6
AUSGEZOGEN
 10
82.1
 20
174.34
 30
0
 11
76
 21
189.04
 31
0
  0
LINE
  5
5A
100
AcDbEntity
  8
200
100
AcDbLine
370
-1
  6
AUSGEZOGEN
 10
46
 20
183.08
 30
0
 11
56.66
 21
157.36
 31
0
  0
LINE
  5
5B
100
AcDbEntity
  8
200
100
AcDbLine
370
-1
  6
AUSGEZOGEN
 10
347.9
 20
405.66
 30
0
 11
354
 21
390.96
 31
0
  0
LINE
  5
5C
100
AcDbEntity
  8
200
100
AcDbLine
370
-1
  6
AUSGEZOGEN
 10
384
 20
396.92
 30
0
 11
373.34
 21
422.64
 31
0
  0
LINE
  5
5D
100
AcDbEntity
  8
200
100
AcDbLine
370
-1
  6
AUSGEZOGEN
 10
321.96
 20
157
 30
0
 11
336.66
 21
163.1
 31
0
  0
LINE
  5
5E
100
AcDbEntity
  8
200
100
AcDbLine
370
-1
  6
AUSGEZOGEN
 10
353.64
 20
137.66
 30
0
 11
327.92
 21
127
 31
0
  0
LINE
  5
5F
100
AcDbEntity
  8
200
100
AcDbLine
370
-1
  6
AUSGEZOGEN
 10
93.34
 20
416.9
 30
0
 11
108.04
 21
423
 31
0
  0
LINE
  5
60
100
AcDbEntity
  8
200
100
AcDbLine
370
-1
  6
AUSGEZOGEN
 10
102.08
 20
453
 30
0
 11
76.36
 21
442.34
 31
0
  0
LINE
  5
61
100
AcDbEntity
  8
200
100
AcDbLine
370
-1
  6
AUSGEZOGEN
 10
108.04
 20
157
 30
0
 11
93.34
 21
163.08
 31
0
  0
LINE
  5
62
100
AcDbEntity
  8
200
100
AcDbLine
370
-1
  6
AUSGEZOGEN
 10
76.36
 20
137.66
 30
0
 11
102.06
 21
127
 31
0
  0
LINE
  5
63
100
AcDbEntity
  8
200
100
AcDbLine
370
-1
  6
AUSGEZOGEN
 10
336.66
 20
416.92
 30
0
 11
321.96
 21
423
 31
0
  0
LINE
  5
64
100
AcDbEntity
  8
200
100
AcDbLine
370
-1
  6
AUSGEZOGEN
 10
327.94
 20
453
 30
0
 11
353.64
 21
442.34
 31
0
  0
LINE
  5
65
100
AcDbEntity
  8
200
100
AcDbLine
370
-1
  6
AUSGEZOGEN
 10
347.92
 20
174.34
 30
0
 11
354
 21
189.04
 31
0
  0
LINE
  5
66
100
AcDbEntity
  8
200
100
AcDbLine
370
-1
  6
AUSGEZOGEN
 10
384
 20
183.06
 30
0
 11
373.34
 21
157.36
 31
0
  0
LINE
  5
67
100
AcDbEntity
  8
200
100
AcDbLine
370
-1
  6
AUSGEZOGEN
 10
82.08
 20
405.66
 30
0
 11
76
 21
390.96
 31
0
  0
LINE
  5
68
100
AcDbEntity
  8
200
100
AcDbLine
370
-1
  6
AUSGEZOGEN
 10
46
 20
396.94
 30
0
 11
56.66
 21
422.64
 31
0
  0
LINE
  5
69
100
AcDbEntity
  8
200
100
AcDbLine
370
-1
  6
AUSGEZOGEN
 10
264
 20
286
 30
0
 11
264
 21
294
 31
0
  0
LINE
  5
6A
100
AcDbEntity
  8
200
100
AcDbLine
370
-1
  6
AUSGEZOGEN
 10
394
 20
294
 30
0
 11
264
 21
294
 31
0
  0
LINE
  5
6B
100
AcDbEntity
  8
200
100
AcDbLine
370
-1
  6
AUSGEZOGEN
 10
264
 20
286
 30
0
 11
394
 21
286
 31
0
  0
LINE
  5
6C
100
AcDbEntity
  8
200
100
AcDbLine
370
-1
  6
AUSGEZOGEN
 10
166
 20
294
 30
0
 11
166
 21
286
 31
0
  0
LINE
  5
6D
100
AcDbEntity
  8
200
100
AcDbLine
370
-1
  6
AUSGEZOGEN
 10
36
 20
286
 30
0
 11
166
 21
286
 31
0
  0
LINE
  5
6E
100
AcDbEntity
  8
200
100
AcDbLine
370
-1
  6
AUSGEZOGEN
 10
166
 20
294
 30
0
 11
36
 21
294
 31
0
  0
LINE
  5
6F
100
AcDbEntity
  8
200
100
AcDbLine
370
-1
  6
AUSGEZOGEN
 10
219
 20
363
 30
0
 11
211
 21
363
 31
0
  0
LINE
  5
70
100
AcDbEntity
  8
200
100
AcDbLine
370
-1
  6
AUSGEZOGEN
 10
211
 20
217
 30
0
 11
219
 21
217
 31
0
  0
LINE
  5
71
100
AcDbEntity
  8
200
100
AcDbLine
370
-1
  6
AUSGEZOGEN
 10
219
 20
117
 30
0
 11
219
 21
217
 31
0
  0
LINE
  5
72
100
AcDbEntity
  8
200
100
AcDbLine
370
-1
  6
AUSGEZOGEN
 10
211
 20
217
 30
0
 11
211
 21
117
 31
0
  0
LINE
  5
73
100
AcDbEntity
  8
200
100
AcDbLine
370
-1
  6
AUSGEZOGEN
 10
352.26
 20
164.4
 30
0
 11
313.08
 21
203.58
 31
0
  0
LINE
  5
74
100
AcDbEntity
  8
200
100
AcDbLine
370
-1
  6
AUSGEZOGEN
 10
307.42
 20
197.92
 30
0
 11
346.6
 21
158.74
 31
0
  0
LINE
  5
75
100
AcDbEntity
  8
200
100
AcDbLine
370
-1
  6
AUSGEZOGEN
 10
313.08
 20
203.58
 30
0
 11
307.42
 21
197.92
 31
0
  0
LINE
  5
76
100
AcDbEntity
  8
200
100
AcDbLine
370
-1
  6
AUSGEZOGEN
 10
363.42
 20
153.24
 30
0
 11
352.26
 21
164.4
 31
0
  0
LINE
  5
77
100
AcDbEntity
  8
200
100
AcDbLine
370
-1
  6
AUSGEZOGEN
 10
346.6
 20
158.74
 30
0
 11
357.76
 21
147.58
 31
0
  0
LINE
  5
78
100
AcDbEntity
  8
200
100
AcDbLine
370
-1
  6
AUSGEZOGEN
 10
394
 20
122.66
 30
0
 11
363.42
 21
153.24
 31
0
  0
LINE
  5
79
100
AcDbEntity
  8
200
100
AcDbLine
370
-1
  6
AUSGEZOGEN
 10
357.76
 20
147.58
 30
0
 11
388.34
 21
117
 31
0
  0
LINE
  5
7A
100
AcDbEntity
  8
200
100
AcDbLine
370
-1
  6
AUSGEZOGEN
 10
116.92
 20
203.58
 30
0
 11
122.58
 21
197.92
 31
0
  0
LINE
  5
7B
100
AcDbEntity
  8
200
100
AcDbLine
370
-1
  6
AUSGEZOGEN
 10
83.4
 20
158.74
 30
0
 11
122.58
 21
197.92
 31
0
  0
LINE
  5
7C
100
AcDbEntity
  8
200
100
AcDbLine
370
-1
  6
AUSGEZOGEN
 10
116.92
 20
203.58
 30
0
 11
77.74
 21
164.4
 31
0
  0
LINE
  5
7D
100
AcDbEntity
  8
200
100
AcDbLine
370
-1
  6
AUSGEZOGEN
 10
72.24
 20
147.58
 30
0
 11
83.4
 21
158.74
 31
0
  0
LINE
  5
7E
100
AcDbEntity
  8
200
100
AcDbLine
370
-1
  6
AUSGEZOGEN
 10
77.74
 20
164.4
 30
0
 11
66.58
 21
153.24
 31
0
  0
LINE
  5
7F
100
AcDbEntity
  8
200
100
AcDbLine
370
-1
  6
AUSGEZOGEN
 10
41.66
 20
117
 30
0
 11
72.24
 21
147.58
 31
0
  0
LINE
  5
80
100
AcDbEntity
  8
200
100
AcDbLine
370
-1
  6
AUSGEZOGEN
 10
394
 20
117
 30
0
 11
36
 21
117
 31
0
  0
LINE
  5
81
100
AcDbEntity
  8
200
100
AcDbLine
370
-1
  6
AUSGEZOGEN
 10
66.58
 20
153.24
 30
0
 11
36
 21
122.66
 31
0
  0
LINE
  5
82
100
AcDbEntity
  8
200
100
AcDbLine
370
-1
  6
AUSGEZOGEN
 10
307.42
 20
382.08
 30
0
 11
313.08
 21
376.42
 31
0
  0
LINE
  5
83
100
AcDbEntity
  8
200
100
AcDbLine
370
-1
  6
AUSGEZOGEN
 10
346.6
 20
421.26
 30
0
 11
307.42
 21
382.08
 31
0
  0
LINE
  5
84
100
AcDbEntity
  8
200
100
AcDbLine
370
-1
  6
AUSGEZOGEN
 10
313.08
 20
376.42
 30
0
 11
352.26
 21
415.6
 31
0
  0
LINE
  5
85
100
AcDbEntity
  8
200
100
AcDbLine
370
-1
  6
AUSGEZOGEN
 10
357.76
 20
432.42
 30
0
 11
346.6
 21
421.26
 31
0
  0
LINE
  5
86
100
AcDbEntity
  8
200
100
AcDbLine
370
-1
  6
AUSGEZOGEN
 10
352.26
 20
415.6
 30
0
 11
363.42
 21
426.76
 31
0
  0
LINE
  5
87
100
AcDbEntity
  8
200
100
AcDbLine
370
-1
  6
AUSGEZOGEN
 10
388.34
 20
463
 30
0
 11
357.76
 21
432.42
 31
0
  0
LINE
  5
88
100
AcDbEntity
  8
200
100
AcDbLine
370
-1
  6
AUSGEZOGEN
 10
363.42
 20
426.76
 30
0
 11
394
 21
457.34
 31
0
  0
LINE
  5
89
100
AcDbEntity
  8
200
100
AcDbLine
370
-1
  6
AUSGEZOGEN
 10
77.74
 20
415.6
 30
0
 11
116.92
 21
376.42
 31
0
  0
LINE
  5
8A
100
AcDbEntity
  8
200
100
AcDbLine
370
-1
  6
AUSGEZOGEN
 10
122.58
 20
382.08
 30
0
 11
83.4
 21
421.26
 31
0
  0
LINE
  5
8B
100
AcDbEntity
  8
200
100
AcDbLine
370
-1
  6
AUSGEZOGEN
 10
116.92
 20
376.42
 30
0
 11
122.58
 21
382.08
 31
0
  0
LINE
  5
8C
100
AcDbEntity
  8
200
100
AcDbLine
370
-1
  6
AUSGEZOGEN
 10
66.58
 20
426.76
 30
0
 11
77.74
 21
415.6
 31
0
  0
LINE
  5
8D
100
AcDbEntity
  8
200
100
AcDbLine
370
-1
  6
AUSGEZOGEN
 10
83.4
 20
421.26
 30
0
 11
72.24
 21
432.42
 31
0
  0
LINE
  5
8E
100
AcDbEntity
  8
200
100
AcDbLine
370
-1
  6
AUSGEZOGEN
 10
41.66
 20
463
 30
0
 11
69.55
 21
435.11
 31
0
  0
LINE
  5
8F
100
AcDbEntity
  8
200
100
AcDbLine
370
-1
  6
AUSGEZOGEN
 10
63.89
 20
429.45
 30
0
 11
36
 21
457.34
 31
0
  0
LINE
  5
90
100
AcDbEntity
  8
200
100
AcDbLine
370
-1
  6
AUSGEZOGEN
 10
36
 20
457.34
 30
0
 11
66.58
 21
426.76
 31
0
  0
LINE
  5
91
100
AcDbEntity
  8
200
100
AcDbLine
370
-1
  6
AUSGEZOGEN
 10
72.24
 20
432.42
 30
0
 11
41.66
 21
463
 31
0
  0
LINE
  5
92
100
AcDbEntity
  8
200
100
AcDbLine
370
-1
  6
AUSGEZOGEN
 10
225.93
 20
345
 30
0
 11
204.07
 21
345
 31
0
  0
LINE
  5
93
100
AcDbEntity
  8
200
100
AcDbLine
370
-1
  6
AUSGEZOGEN
 10
204.06
 20
235
 30
0
 11
225.96
 21
235
 31
0
  0
LINE
  5
94
100
AcDbEntity
  8
200
100
AcDbLine
370
-1
  6
AUSGEZOGEN
 10
160
 20
286
 30
0
 11
160
 21
279.06
 31
0
  0
LINE
  5
95
100
AcDbEntity
  8
200
100
AcDbLine
370
-1
  6
AUSGEZOGEN
 10
160
 20
300.93
 30
0
 11
160
 21
294
 31
0
  0
LINE
  5
96
100
AcDbEntity
  8
200
100
AcDbLine
370
-1
  6
AUSGEZOGEN
 10
270
 20
294
 30
0
 11
270
 21
300.96
 31
0
  0
LINE
  5
97
100
AcDbEntity
  8
200
100
AcDbLine
370
-1
  6
AUSGEZOGEN
 10
270
 20
279.04
 30
0
 11
270
 21
286
 31
0
  0
LINE
  5
98
100
AcDbEntity
  8
200
100
AcDbLine
370
-1
  6
AUSGEZOGEN
 10
183.85
 20
336.63
 30
0
 11
168.38
 21
321.15
 31
0
  0
LINE
  5
99
100
AcDbEntity
  8
200
100
AcDbLine
370
-1
  6
AUSGEZOGEN
 10
246.15
 20
243.36
 30
0
 11
261.64
 21
258.85
 31
0
  0
LINE
  5
9A
100
AcDbEntity
  8
200
100
AcDbLine
370
-1
  6
AUSGEZOGEN
 10
168.37
 20
258.84
 30
0
 11
183.85
 21
243.37
 31
0
  0
LINE
  5
9B
100
AcDbEntity
  8
200
100
AcDbLine
370
-1
  6
AUSGEZOGEN
 10
261.63
 20
321.15
 30
0
 11
246.16
 21
336.62
 31
0
  0
LINE
  5
9C
100
AcDbEntity
  8
200
100
AcDbLine
370
-1
  6
AUSGEZOGEN
 10
160
 20
300.93
 30
0
 11
168.38
 21
321.15
 31
0
  0
LINE
  5
9D
100
AcDbEntity
  8
200
100
AcDbLine
370
-1
  6
AUSGEZOGEN
 10
261.64
 20
258.85
 30
0
 11
270
 21
279.04
 31
0
  0
LINE
  5
9E
100
AcDbEntity
  8
200
100
AcDbLine
370
-1
  6
AUSGEZOGEN
 10
183.85
 20
243.37
 30
0
 11
204.06
 21
235
 31
0
  0
LINE
  5
9F
100
AcDbEntity
  8
200
100
AcDbLine
370
-1
  6
AUSGEZOGEN
 10
246.16
 20
336.62
 30
0
 11
225.93
 21
345
 31
0
  0
LINE
  5
A0
100
AcDbEntity
  8
200
100
AcDbLine
370
-1
  6
AUSGEZOGEN
 10
270
 20
300.96
 30
0
 11
261.63
 21
321.15
 31
0
  0
LINE
  5
A1
100
AcDbEntity
  8
200
100
AcDbLine
370
-1
  6
AUSGEZOGEN
 10
168.37
 20
258.84
 30
0
 11
160
 21
279.06
 31
0
  0
LINE
  5
A2
100
AcDbEntity
  8
200
100
AcDbLine
370
-1
  6
AUSGEZOGEN
 10
204.07
 20
345
 30
0
 11
183.85
 21
336.63
 31
0
  0
LINE
  5
A3
100
AcDbEntity
  8
200
100
AcDbLine
370
-1
  6
AUSGEZOGEN
 10
246.15
 20
243.36
 30
0
 11
225.96
 21
235
 31
0
  0
LINE
  5
A4
100
AcDbEntity
  8
200
100
AcDbLine
370
-1
  6
AUSGEZOGEN
 10
221.56
 20
323
 30
0
 11
233.69
 21
317.98
 31
0
  0
LINE
  5
A5
100
AcDbEntity
  8
200
100
AcDbLine
370
-1
  6
AUSGEZOGEN
 10
242.98
 20
308.69
 30
0
 11
233.69
 21
317.98
 31
0
  0
LINE
  5
A6
100
AcDbEntity
  8
200
100
AcDbLine
370
-1
  6
AUSGEZOGEN
 10
248
 20
296.57
 30
0
 11
242.98
 21
308.69
 31
0
  0
LINE
  5
A7
100
AcDbEntity
  8
200
100
AcDbLine
370
-1
  6
AUSGEZOGEN
 10
248
 20
283.43
 30
0
 11
248
 21
296.57
 31
0
  0
LINE
  5
A8
100
AcDbEntity
  8
200
100
AcDbLine
370
-1
  6
AUSGEZOGEN
 10
242.98
 20
271.31
 30
0
 11
248
 21
283.43
 31
0
  0
LINE
  5
A9
100
AcDbEntity
  8
200
100
AcDbLine
370
-1
  6
AUSGEZOGEN
 10
233.69
 20
262.02
 30
0
 11
242.98
 21
271.31
 31
0
  0
LINE
  5
AA
100
AcDbEntity
  8
200
100
AcDbLine
370
-1
  6
AUSGEZOGEN
 10
221.57
 20
257
 30
0
 11
233.69
 21
262.02
 31
0
  0
LINE
  5
AB
100
AcDbEntity
  8
200
100
AcDbLine
370
-1
  6
AUSGEZOGEN
 10
208.43
 20
257
 30
0
 11
221.57
 21
257
 31
0
  0
LINE
  5
AC
100
AcDbEntity
  8
200
100
AcDbLine
370
-1
  6
AUSGEZOGEN
 10
196.31
 20
262.02
 30
0
 11
208.43
 21
257
 31
0
  0
LINE
  5
AD
100
AcDbEntity
  8
200
100
AcDbLine
370
-1
  6
AUSGEZOGEN
 10
187.02
 20
271.31
 30
0
 11
196.31
 21
262.02
 31
0
  0
LINE
  5
AE
100
AcDbEntity
  8
200
100
AcDbLine
370
-1
  6
AUSGEZOGEN
 10
182
 20
283.43
 30
0
 11
187.02
 21
271.31
 31
0
  0
LINE
  5
AF
100
AcDbEntity
  8
200
100
AcDbLine
370
-1
  6
AUSGEZOGEN
 10
187.02
 20
308.69
 30
0
 11
182
 21
296.57
 31
0
  0
LINE
  5
B0
100
AcDbEntity
  8
200
100
AcDbLine
370
-1
  6
AUSGEZOGEN
 10
196.31
 20
317.98
 30
0
 11
187.02
 21
308.69
 31
0
  0
LINE
  5
B1
100
AcDbEntity
  8
200
100
AcDbLine
370
-1
  6
AUSGEZOGEN
 10
208.43
 20
323
 30
0
 11
196.31
 21
317.98
 31
0
  0
LINE
  5
B2
100
AcDbEntity
  8
200
100
AcDbLine
370
-1
  6
AUSGEZOGEN
 10
182
 20
283.43
 30
0
 11
182
 21
296.57
 31
0
  0
LINE
  5
B3
100
AcDbEntity
  8
200
100
AcDbLine
370
-1
  6
AUSGEZOGEN
 10
221.56
 20
323
 30
0
 11
208.43
 21
323
 31
0
  0
LINE
  5
B4
100
AcDbEntity
  8
200
100
AcDbLine
370
-1
  6
AUSGEZOGEN
 10
76
 20
736.96
 30
0
 11
76
 21
640
 31
0
  0
LINE
  5
B5
100
AcDbEntity
  8
200
100
AcDbLine
370
-1
  6
AUSGEZOGEN
 10
76
 20
535.04
 30
0
 11
76
 21
632
 31
0
  0
LINE
  5
B6
100
AcDbEntity
  8
200
100
AcDbLine
370
-1
  6
AUSGEZOGEN
 10
46
 20
742.92
 30
0
 11
46
 21
640
 31
0
  0
LINE
  5
B7
100
AcDbEntity
  8
200
100
AcDbLine
370
-1
  6
AUSGEZOGEN
 10
46
 20
529.08
 30
0
 11
46
 21
632
 31
0
  0
LINE
  5
B8
100
AcDbEntity
  8
200
100
AcDbLine
370
-1
  6
AUSGEZOGEN
 10
354
 20
632
 30
0
 11
354
 21
535.04
 31
0
  0
LINE
  5
B9
100
AcDbEntity
  8
200
100
AcDbLine
370
-1
  6
AUSGEZOGEN
 10
354
 20
736.96
 30
0
 11
354
 21
640
 31
0
  0
LINE
  5
BA
100
AcDbEntity
  8
200
100
AcDbLine
370
-1
  6
AUSGEZOGEN
 10
384
 20
529.08
 30
0
 11
384
 21
632
 31
0
  0
LINE
  5
BB
100
AcDbEntity
  8
200
100
AcDbLine
370
-1
  6
AUSGEZOGEN
 10
384
 20
742.92
 30
0
 11
384
 21
640
 31
0
  0
LINE
  5
BC
100
AcDbEntity
  8
200
100
AcDbLine
370
-1
  6
AUSGEZOGEN
 10
108.04
 20
503
 30
0
 11
211
 21
503
 31
0
  0
LINE
  5
BD
100
AcDbEntity
  8
200
100
AcDbLine
370
-1
  6
AUSGEZOGEN
 10
321.96
 20
503
 30
0
 11
219
 21
503
 31
0
  0
LINE
  5
BE
100
AcDbEntity
  8
200
100
AcDbLine
370
-1
  6
AUSGEZOGEN
 10
102.08
 20
473
 30
0
 11
211
 21
473
 31
0
  0
LINE
  5
BF
100
AcDbEntity
  8
200
100
AcDbLine
370
-1
  6
AUSGEZOGEN
 10
327.92
 20
473
 30
0
 11
219
 21
473
 31
0
  0
LINE
  5
C0
100
AcDbEntity
  8
200
100
AcDbLine
370
-1
  6
AUSGEZOGEN
 10
219
 20
769
 30
0
 11
321.96
 21
769
 31
0
  0
LINE
  5
C1
100
AcDbEntity
  8
200
100
AcDbLine
370
-1
  6
AUSGEZOGEN
 10
108.04
 20
769
 30
0
 11
211
 21
769
 31
0
  0
LINE
  5
C2
100
AcDbEntity
  8
200
100
AcDbLine
370
-1
  6
AUSGEZOGEN
 10
327.92
 20
799
 30
0
 11
219
 21
799
 31
0
  0
LINE
  5
C3
100
AcDbEntity
  8
200
100
AcDbLine
370
-1
  6
AUSGEZOGEN
 10
102.08
 20
799
 30
0
 11
211
 21
799
 31
0
  0
LINE
  5
C4
100
AcDbEntity
  8
200
100
AcDbLine
370
-1
  6
AUSGEZOGEN
 10
84.88
 20
517.54
 30
0
 11
82.08
 21
520.34
 31
0
  0
LINE
  5
C5
100
AcDbEntity
  8
200
100
AcDbLine
370
-1
  6
AUSGEZOGEN
 10
93.34
 20
509.08
 30
0
 11
90.54
 21
511.88
 31
0
  0
LINE
  5
C6
100
AcDbEntity
  8
200
100
AcDbLine
370
-1
  6
AUSGEZOGEN
 10
63.67
 20
496.33
 30
0
 11
56.66
 21
503.34
 31
0
  0
LINE
  5
C7
100
AcDbEntity
  8
200
100
AcDbLine
370
-1
  6
AUSGEZOGEN
 10
76.34
 20
483.66
 30
0
 11
69.33
 21
490.67
 31
0
  0
LINE
  5
C8
100
AcDbEntity
  8
200
100
AcDbLine
370
-1
  6
AUSGEZOGEN
 10
345.12
 20
754.46
 30
0
 11
347.92
 21
751.66
 31
0
  0
LINE
  5
C9
100
AcDbEntity
  8
200
100
AcDbLine
370
-1
  6
AUSGEZOGEN
 10
336.66
 20
762.92
 30
0
 11
339.46
 21
760.12
 31
0
  0
LINE
  5
CA
100
AcDbEntity
  8
200
100
AcDbLine
370
-1
  6
AUSGEZOGEN
 10
366.33
 20
775.67
 30
0
 11
373.34
 21
768.66
 31
0
  0
LINE
  5
CB
100
AcDbEntity
  8
200
100
AcDbLine
370
-1
  6
AUSGEZOGEN
 10
353.66
 20
788.34
 30
0
 11
360.67
 21
781.33
 31
0
  0
LINE
  5
CC
100
AcDbEntity
  8
200
100
AcDbLine
370
-1
  6
AUSGEZOGEN
 10
336.66
 20
509.08
 30
0
 11
339.46
 21
511.88
 31
0
  0
LINE
  5
CD
100
AcDbEntity
  8
200
100
AcDbLine
370
-1
  6
AUSGEZOGEN
 10
347.92
 20
520.34
 30
0
 11
345.12
 21
517.54
 31
0
  0
LINE
  5
CE
100
AcDbEntity
  8
200
100
AcDbLine
370
-1
  6
AUSGEZOGEN
 10
360.67
 20
490.67
 30
0
 11
353.66
 21
483.66
 31
0
  0
LINE
  5
CF
100
AcDbEntity
  8
200
100
AcDbLine
370
-1
  6
AUSGEZOGEN
 10
373.34
 20
503.34
 30
0
 11
366.33
 21
496.33
 31
0
  0
LINE
  5
D0
100
AcDbEntity
  8
200
100
AcDbLine
370
-1
  6
AUSGEZOGEN
 10
90.54
 20
760.12
 30
0
 11
93.34
 21
762.92
 31
0
  0
LINE
  5
D1
100
AcDbEntity
  8
200
100
AcDbLine
370
-1
  6
AUSGEZOGEN
 10
82.08
 20
751.66
 30
0
 11
84.88
 21
754.46
 31
0
  0
LINE
  5
D2
100
AcDbEntity
  8
200
100
AcDbLine
370
-1
  6
AUSGEZOGEN
 10
69.33
 20
781.33
 30
0
 11
76.34
 21
788.34
 31
0
  0
LINE
  5
D3
100
AcDbEntity
  8
200
100
AcDbLine
370
-1
  6
AUSGEZOGEN
 10
56.66
 20
768.66
 30
0
 11
63.67
 21
775.67
 31
0
  0
LINE
  5
D4
100
AcDbEntity
  8
200
100
AcDbLine
370
-1
  6
AUSGEZOGEN
 10
82.1
 20
520.34
 30
0
 11
76
 21
535.04
 31
0
  0
LINE
  5
D5
100
AcDbEntity
  8
200
100
AcDbLine
370
-1
  6
AUSGEZOGEN
 10
46
 20
529.08
 30
0
 11
56.66
 21
503.36
 31
0
  0
LINE
  5
D6
100
AcDbEntity
  8
200
100
AcDbLine
370
-1
  6
AUSGEZOGEN
 10
347.9
 20
751.66
 30
0
 11
354
 21
736.96
 31
0
  0
LINE
  5
D7
100
AcDbEntity
  8
200
100
AcDbLine
370
-1
  6
AUSGEZOGEN
 10
384
 20
742.92
 30
0
 11
373.34
 21
768.64
 31
0
  0
LINE
  5
D8
100
AcDbEntity
  8
200
100
AcDbLine
370
-1
  6
AUSGEZOGEN
 10
321.96
 20
503
 30
0
 11
336.66
 21
509.1
 31
0
  0
LINE
  5
D9
100
AcDbEntity
  8
200
100
AcDbLine
370
-1
  6
AUSGEZOGEN
 10
353.64
 20
483.66
 30
0
 11
327.92
 21
473
 31
0
  0
LINE
  5
DA
100
AcDbEntity
  8
200
100
AcDbLine
370
-1
  6
AUSGEZOGEN
 10
93.34
 20
762.9
 30
0
 11
108.04
 21
769
 31
0
  0
LINE
  5
DB
100
AcDbEntity
  8
200
100
AcDbLine
370
-1
  6
AUSGEZOGEN
 10
102.08
 20
799
 30
0
 11
76.36
 21
788.34
 31
0
  0
LINE
  5
DC
100
AcDbEntity
  8
200
100
AcDbLine
370
-1
  6
AUSGEZOGEN
 10
108.04
 20
503
 30
0
 11
93.34
 21
509.08
 31
0
  0
LINE
  5
DD
100
AcDbEntity
  8
200
100
AcDbLine
370
-1
  6
AUSGEZOGEN
 10
76.36
 20
483.66
 30
0
 11
102.06
 21
473
 31
0
  0
LINE
  5
DE
100
AcDbEntity
  8
200
100
AcDbLine
370
-1
  6
AUSGEZOGEN
 10
336.66
 20
762.92
 30
0
 11
321.96
 21
769
 31
0
  0
LINE
  5
DF
100
AcDbEntity
  8
200
100
AcDbLine
370
-1
  6
AUSGEZOGEN
 10
327.94
 20
799
 30
0
 11
353.64
 21
788.34
 31
0
  0
LINE
  5
E0
100
AcDbEntity
  8
200
100
AcDbLine
370
-1
  6
AUSGEZOGEN
 10
347.92
 20
520.34
 30
0
 11
354
 21
535.04
 31
0
  0
LINE
  5
E1
100
AcDbEntity
  8
200
100
AcDbLine
370
-1
  6
AUSGEZOGEN
 10
384
 20
529.06
 30
0
 11
373.34
 21
503.36
 31
0
  0
LINE
  5
E2
100
AcDbEntity
  8
200
100
AcDbLine
370
-1
  6
AUSGEZOGEN
 10
82.08
 20
751.66
 30
0
 11
76
 21
736.96
 31
0
  0
LINE
  5
E3
100
AcDbEntity
  8
200
100
AcDbLine
370
-1
  6
AUSGEZOGEN
 10
46
 20
742.94
 30
0
 11
56.66
 21
768.64
 31
0
  0
LINE
  5
E4
100
AcDbEntity
  8
200
100
AcDbLine
370
-1
  6
AUSGEZOGEN
 10
264
 20
632
 30
0
 11
264
 21
640
 31
0
  0
LINE
  5
E5
100
AcDbEntity
  8
200
100
AcDbLine
370
-1
  6
AUSGEZOGEN
 10
394
 20
640
 30
0
 11
264
 21
640
 31
0
  0
LINE
  5
E6
100
AcDbEntity
  8
200
100
AcDbLine
370
-1
  6
AUSGEZOGEN
 10
264
 20
632
 30
0
 11
394
 21
632
 31
0
  0
LINE
  5
E7
100
AcDbEntity
  8
200
100
AcDbLine
370
-1
  6
AUSGEZOGEN
 10
166
 20
640
 30
0
 11
166
 21
632
 31
0
  0
LINE
  5
E8
100
AcDbEntity
  8
200
100
AcDbLine
370
-1
  6
AUSGEZOGEN
 10
36
 20
632
 30
0
 11
166
 21
632
 31
0
  0
LINE
  5
E9
100
AcDbEntity
  8
200
100
AcDbLine
370
-1
  6
AUSGEZOGEN
 10
166
 20
640
 30
0
 11
36
 21
640
 31
0
  0
LINE
  5
EA
100
AcDbEntity
  8
200
100
AcDbLine
370
-1
  6
AUSGEZOGEN
 10
219
 20
709
 30
0
 11
211
 21
709
 31
0
  0
LINE
  5
EB
100
AcDbEntity
  8
200
100
AcDbLine
370
-1
  6
AUSGEZOGEN
 10
211
 20
809
 30
0
 11
211
 21
709
 31
0
  0
LINE
  5
EC
100
AcDbEntity
  8
200
100
AcDbLine
370
-1
  6
AUSGEZOGEN
 10
219
 20
709
 30
0
 11
219
 21
809
 31
0
  0
LINE
  5
ED
100
AcDbEntity
  8
200
100
AcDbLine
370
-1
  6
AUSGEZOGEN
 10
211
 20
563
 30
0
 11
219
 21
563
 31
0
  0
LINE
  5
EE
100
AcDbEntity
  8
200
100
AcDbLine
370
-1
  6
AUSGEZOGEN
 10
219
 20
363
 30
0
 11
219
 21
563
 31
0
  0
LINE
  5
EF
100
AcDbEntity
  8
200
100
AcDbLine
370
-1
  6
AUSGEZOGEN
 10
211
 20
563
 30
0
 11
211
 21
363
 31
0
  0
LINE
  5
F0
100
AcDbEntity
  8
200
100
AcDbLine
370
-1
  6
AUSGEZOGEN
 10
352.26
 20
510.4
 30
0
 11
313.08
 21
549.58
 31
0
  0
LINE
  5
F1
100
AcDbEntity
  8
200
100
AcDbLine
370
-1
  6
AUSGEZOGEN
 10
307.42
 20
543.92
 30
0
 11
346.6
 21
504.74
 31
0
  0
LINE
  5
F2
100
AcDbEntity
  8
200
100
AcDbLine
370
-1
  6
AUSGEZOGEN
 10
313.08
 20
549.58
 30
0
 11
307.42
 21
543.92
 31
0
  0
LINE
  5
F3
100
AcDbEntity
  8
200
100
AcDbLine
370
-1
  6
AUSGEZOGEN
 10
363.42
 20
499.24
 30
0
 11
352.26
 21
510.4
 31
0
  0
LINE
  5
F4
100
AcDbEntity
  8
200
100
AcDbLine
370
-1
  6
AUSGEZOGEN
 10
346.6
 20
504.74
 30
0
 11
357.76
 21
493.58
 31
0
  0
LINE
  5
F5
100
AcDbEntity
  8
200
100
AcDbLine
370
-1
  6
AUSGEZOGEN
 10
394
 20
468.66
 30
0
 11
363.42
 21
499.24
 31
0
  0
LINE
  5
F6
100
AcDbEntity
  8
200
100
AcDbLine
370
-1
  6
AUSGEZOGEN
 10
357.76
 20
493.58
 30
0
 11
388.34
 21
463
 31
0
  0
LINE
  5
F7
100
AcDbEntity
  8
200
100
AcDbLine
370
-1
  6
AUSGEZOGEN
 10
116.92
 20
549.58
 30
0
 11
122.58
 21
543.92
 31
0
  0
LINE
  5
F8
100
AcDbEntity
  8
200
100
AcDbLine
370
-1
  6
AUSGEZOGEN
 10
83.4
 20
504.74
 30
0
 11
122.58
 21
543.92
 31
0
  0
LINE
  5
F9
100
AcDbEntity
  8
200
100
AcDbLine
370
-1
  6
AUSGEZOGEN
 10
116.92
 20
549.58
 30
0
 11
77.74
 21
510.4
 31
0
  0
LINE
  5
FA
100
AcDbEntity
  8
200
100
AcDbLine
370
-1
  6
AUSGEZOGEN
 10
72.24
 20
493.58
 30
0
 11
83.4
 21
504.74
 31
0
  0
LINE
  5
FB
100
AcDbEntity
  8
200
100
AcDbLine
370
-1
  6
AUSGEZOGEN
 10
77.74
 20
510.4
 30
0
 11
66.58
 21
499.24
 31
0
  0
LINE
  5
FC
100
AcDbEntity
  8
200
100
AcDbLine
370
-1
  6
AUSGEZOGEN
 10
41.66
 20
463
 30
0
 11
69.55
 21
490.89
 31
0
  0
LINE
  5
FD
100
AcDbEntity
  8
200
100
AcDbLine
370
-1
  6
AUSGEZOGEN
 10
63.89
 20
496.55
 30
0
 11
36
 21
468.66
 31
0
  0
LINE
  5
FE
100
AcDbEntity
  8
200
100
AcDbLine
370
-1
  6
AUSGEZOGEN
 10
41.66
 20
463
 30
0
 11
72.24
 21
493.58
 31
0
  0
LINE
  5
FF
100
AcDbEntity
  8
200
100
AcDbLine
370
-1
  6
AUSGEZOGEN
 10
394
 20
463
 30
0
 11
36
 21
463
 31
0
  0
LINE
  5
100
100
AcDbEntity
  8
200
100
AcDbLine
370
-1
  6
AUSGEZOGEN
 10
66.58
 20
499.24
 30
0
 11
36
 21
468.66
 31
0
  0
LINE
  5
101
100
AcDbEntity
  8
200
100
AcDbLine
370
-1
  6
AUSGEZOGEN
 10
307.42
 20
728.08
 30
0
 11
313.08
 21
722.42
 31
0
  0
LINE
  5
102
100
AcDbEntity
  8
200
100
AcDbLine
370
-1
  6
AUSGEZOGEN
 10
346.6
 20
767.26
 30
0
 11
307.42
 21
728.08
 31
0
  0
LINE
  5
103
100
AcDbEntity
  8
200
100
AcDbLine
370
-1
  6
AUSGEZOGEN
 10
313.08
 20
722.42
 30
0
 11
352.26
 21
761.6
 31
0
  0
LINE
  5
104
100
AcDbEntity
  8
200
100
AcDbLine
370
-1
  6
AUSGEZOGEN
 10
357.76
 20
778.42
 30
0
 11
346.6
 21
767.26
 31
0
  0
LINE
  5
105
100
AcDbEntity
  8
200
100
AcDbLine
370
-1
  6
AUSGEZOGEN
 10
352.26
 20
761.6
 30
0
 11
363.42
 21
772.76
 31
0
  0
LINE
  5
106
100
AcDbEntity
  8
200
100
AcDbLine
370
-1
  6
AUSGEZOGEN
 10
388.34
 20
809
 30
0
 11
360.45
 21
781.11
 31
0
  0
LINE
  5
107
100
AcDbEntity
  8
200
100
AcDbLine
370
-1
  6
AUSGEZOGEN
 10
357.76
 20
778.42
 30
0
 11
388.34
 21
809
 31
0
  0
LINE
  5
108
100
AcDbEntity
  8
200
100
AcDbLine
370
-1
  6
AUSGEZOGEN
 10
394
 20
117
 30
0
 11
394
 21
809
 31
0
  0
LINE
  5
109
100
AcDbEntity
  8
200
100
AcDbLine
370
-1
  6
AUSGEZOGEN
 10
363.42
 20
772.76
 30
0
 11
394
 21
803.34
 31
0
  0
LINE
  5
10A
100
AcDbEntity
  8
200
100
AcDbLine
370
-1
  6
AUSGEZOGEN
 10
77.74
 20
761.6
 30
0
 11
116.92
 21
722.42
 31
0
  0
LINE
  5
10B
100
AcDbEntity
  8
200
100
AcDbLine
370
-1
  6
AUSGEZOGEN
 10
122.58
 20
728.08
 30
0
 11
83.4
 21
767.26
 31
0
  0
LINE
  5
10C
100
AcDbEntity
  8
200
100
AcDbLine
370
-1
  6
AUSGEZOGEN
 10
116.92
 20
722.42
 30
0
 11
122.58
 21
728.08
 31
0
  0
LINE
  5
10D
100
AcDbEntity
  8
200
100
AcDbLine
370
-1
  6
AUSGEZOGEN
 10
66.58
 20
772.76
 30
0
 11
77.74
 21
761.6
 31
0
  0
LINE
  5
10E
100
AcDbEntity
  8
200
100
AcDbLine
370
-1
  6
AUSGEZOGEN
 10
83.4
 20
767.26
 30
0
 11
72.24
 21
778.42
 31
0
  0
LINE
  5
10F
100
AcDbEntity
  8
200
100
AcDbLine
370
-1
  6
AUSGEZOGEN
 10
48
 20
802.66
 30
0
 11
69.55
 21
781.11
 31
0
  0
LINE
  5
110
100
AcDbEntity
  8
200
100
AcDbLine
370
-1
  6
AUSGEZOGEN
 10
66.58
 20
772.76
 30
0
 11
36
 21
803.34
 31
0
  0
LINE
  5
111
100
AcDbEntity
  8
200
100
AcDbLine
370
-1
  6
AUSGEZOGEN
 10
36
 20
117
 30
0
 11
36
 21
809
 31
0
  0
LINE
  5
112
100
AcDbEntity
  8
200
100
AcDbLine
370
-1
  6
AUSGEZOGEN
 10
394
 20
809
 30
0
 11
36
 21
809
 31
0
  0
LINE
  5
113
100
AcDbEntity
  8
200
100
AcDbLine
370
-1
  6
AUSGEZOGEN
 10
72.24
 20
778.42
 30
0
 11
41.66
 21
809
 31
0
  0
LINE
  5
114
100
AcDbEntity
  8
200
100
AcDbLine
370
-1
  6
AUSGEZOGEN
 10
225.93
 20
691
 30
0
 11
204.07
 21
691
 31
0
  0
LINE
  5
115
100
AcDbEntity
  8
200
100
AcDbLine
370
-1
  6
AUSGEZOGEN
 10
204.06
 20
581
 30
0
 11
225.96
 21
581
 31
0
  0
LINE
  5
116
100
AcDbEntity
  8
200
100
AcDbLine
370
-1
  6
AUSGEZOGEN
 10
160
 20
632
 30
0
 11
160
 21
625.06
 31
0
  0
LINE
  5
117
100
AcDbEntity
  8
200
100
AcDbLine
370
-1
  6
AUSGEZOGEN
 10
160
 20
646.93
 30
0
 11
160
 21
640
 31
0
  0
LINE
  5
118
100
AcDbEntity
  8
200
100
AcDbLine
370
-1
  6
AUSGEZOGEN
 10
270
 20
640
 30
0
 11
270
 21
646.96
 31
0
  0
LINE
  5
119
100
AcDbEntity
  8
200
100
AcDbLine
370
-1
  6
AUSGEZOGEN
 10
270
 20
625.04
 30
0
 11
270
 21
632
 31
0
  0
LINE
  5
11A
100
AcDbEntity
  8
200
100
AcDbLine
370
-1
  6
AUSGEZOGEN
 10
183.85
 20
682.63
 30
0
 11
168.38
 21
667.15
 31
0
  0
LINE
  5
11B
100
AcDbEntity
  8
200
100
AcDbLine
370
-1
  6
AUSGEZOGEN
 10
246.15
 20
589.36
 30
0
 11
261.64
 21
604.85
 31
0
  0
LINE
  5
11C
100
AcDbEntity
  8
200
100
AcDbLine
370
-1
  6
AUSGEZOGEN
 10
168.37
 20
604.84
 30
0
 11
183.85
 21
589.37
 31
0
  0
LINE
  5
11D
100
AcDbEntity
  8
200
100
AcDbLine
370
-1
  6
AUSGEZOGEN
 10
261.63
 20
667.15
 30
0
 11
246.16
 21
682.62
 31
0
  0
LINE
  5
11E
100
AcDbEntity
  8
200
100
AcDbLine
370
-1
  6
AUSGEZOGEN
 10
160
 20
646.93
 30
0
 11
168.38
 21
667.15
 31
0
  0
LINE
  5
11F
100
AcDbEntity
  8
200
100
AcDbLine
370
-1
  6
AUSGEZOGEN
 10
261.64
 20
604.85
 30
0
 11
270
 21
625.04
 31
0
  0
LINE
  5
120
100
AcDbEntity
  8
200
100
AcDbLine
370
-1
  6
AUSGEZOGEN
 10
183.85
 20
589.37
 30
0
 11
204.06
 21
581
 31
0
  0
LINE
  5
121
100
AcDbEntity
  8
200
100
AcDbLine
370
-1
  6
AUSGEZOGEN
 10
246.16
 20
682.62
 30
0
 11
225.93
 21
691
 31
0
  0
LINE
  5
122
100
AcDbEntity
  8
200
100
AcDbLine
370
-1
  6
AUSGEZOGEN
 10
270
 20
646.96
 30
0
 11
261.63
 21
667.15
 31
0
  0
LINE
  5
123
100
AcDbEntity
  8
200
100
AcDbLine
370
-1
  6
AUSGEZOGEN
 10
168.37
 20
604.84
 30
0
 11
160
 21
625.06
 31
0
  0
LINE
  5
124
100
AcDbEntity
  8
200
100
AcDbLine
370
-1
  6
AUSGEZOGEN
 10
204.07
 20
691
 30
0
 11
183.85
 21
682.63
 31
0
  0
LINE
  5
125
100
AcDbEntity
  8
200
100
AcDbLine
370
-1
  6
AUSGEZOGEN
 10
246.15
 20
589.36
 30
0
 11
225.96
 21
581
 31
0
  0
LINE
  5
126
100
AcDbEntity
  8
200
100
AcDbLine
370
-1
  6
AUSGEZOGEN
 10
224.54
 20
684
 30
0
 11
242.19
 21
676.7
 31
0
  0
LINE
  5
127
100
AcDbEntity
  8
200
100
AcDbLine
370
-1
  6
AUSGEZOGEN
 10
255.7
 20
663.19
 30
0
 11
242.19
 21
676.7
 31
0
  0
LINE
  5
128
100
AcDbEntity
  8
200
100
AcDbLine
370
-1
  6
AUSGEZOGEN
 10
263
 20
645.56
 30
0
 11
255.7
 21
663.19
 31
0
  0
LINE
  5
129
100
AcDbEntity
  8
200
100
AcDbLine
370
-1
  6
AUSGEZOGEN
 10
263
 20
626.44
 30
0
 11
263
 21
645.56
 31
0
  0
LINE
  5
12A
100
AcDbEntity
  8
200
100
AcDbLine
370
-1
  6
AUSGEZOGEN
 10
255.7
 20
608.81
 30
0
 11
263
 21
626.44
 31
0
  0
LINE
  5
12B
100
AcDbEntity
  8
200
100
AcDbLine
370
-1
  6
AUSGEZOGEN
 10
242.19
 20
595.3
 30
0
 11
255.7
 21
608.81
 31
0
  0
LINE
  5
12C
100
AcDbEntity
  8
200
100
AcDbLine
370
-1
  6
AUSGEZOGEN
 10
224.56
 20
588
 30
0
 11
242.19
 21
595.3
 31
0
  0
LINE
  5
12D
100
AcDbEntity
  8
200
100
AcDbLine
370
-1
  6
AUSGEZOGEN
 10
205.44
 20
588
 30
0
 11
224.56
 21
588
 31
0
  0
LINE
  5
12E
100
AcDbEntity
  8
200
100
AcDbLine
370
-1
  6
AUSGEZOGEN
 10
187.81
 20
595.3
 30
0
 11
205.44
 21
588
 31
0
  0
LINE
  5
12F
100
AcDbEntity
  8
200
100
AcDbLine
370
-1
  6
AUSGEZOGEN
 10
174.3
 20
608.81
 30
0
 11
187.81
 21
595.3
 31
0
  0
LINE
  5
130
100
AcDbEntity
  8
200
100
AcDbLine
370
-1
  6
AUSGEZOGEN
 10
167
 20
626.44
 30
0
 11
174.3
 21
608.81
 31
0
  0
LINE
  5
131
100
AcDbEntity
  8
200
100
AcDbLine
370
-1
  6
AUSGEZOGEN
 10
174.3
 20
663.19
 30
0
 11
167
 21
645.56
 31
0
  0
LINE
  5
132
100
AcDbEntity
  8
200
100
AcDbLine
370
-1
  6
AUSGEZOGEN
 10
187.81
 20
676.7
 30
0
 11
174.3
 21
663.19
 31
0
  0
LINE
  5
133
100
AcDbEntity
  8
200
100
AcDbLine
370
-1
  6
AUSGEZOGEN
 10
205.44
 20
684
 30
0
 11
187.81
 21
676.7
 31
0
  0
LINE
  5
134
100
AcDbEntity
  8
200
100
AcDbLine
370
-1
  6
AUSGEZOGEN
 10
167
 20
626.44
 30
0
 11
167
 21
645.56
 31
0
  0
LINE
  5
135
100
AcDbEntity
  8
200
100
AcDbLine
370
-1
  6
AUSGEZOGEN
 10
224.54
 20
684
 30
0
 11
205.44
 21
684
 31
0
  0
LINE
  5
136
100
AcDbEntity
  8
200
100
AcDbLine
370
-1
  6
AUSGEZOGEN
 10
815
 20
22
 30
0
 11
15
 21
22
 31
0
  0
LINE
  5
137
100
AcDbEntity
  8
200
100
AcDbLine
370
-1
  6
AUSGEZOGEN
 10
15
 20
867
 30
0
 11
815
 21
867
 31
0
  0
LINE
  5
138
100
AcDbEntity
  8
200
100
AcDbLine
370
-1
  6
AUSGEZOGEN
 10
784
 20
294
 30
0
 11
784
 21
396.92
 31
0
  0
LINE
  5
139
100
AcDbEntity
  8
200
100
AcDbLine
370
-1
  6
AUSGEZOGEN
 10
784
 20
183.08
 30
0
 11
784
 21
286
 31
0
  0
LINE
  5
13A
100
AcDbEntity
  8
200
100
AcDbLine
370
-1
  6
AUSGEZOGEN
 10
754
 20
286
 30
0
 11
754
 21
189.04
 31
0
  0
LINE
  5
13B
100
AcDbEntity
  8
200
100
AcDbLine
370
-1
  6
AUSGEZOGEN
 10
754
 20
390.96
 30
0
 11
754
 21
294
 31
0
  0
LINE
  5
13C
100
AcDbEntity
  8
200
100
AcDbLine
370
-1
  6
AUSGEZOGEN
 10
446
 20
183.08
 30
0
 11
446
 21
286
 31
0
  0
LINE
  5
13D
100
AcDbEntity
  8
200
100
AcDbLine
370
-1
  6
AUSGEZOGEN
 10
446
 20
396.92
 30
0
 11
446
 21
294
 31
0
  0
LINE
  5
13E
100
AcDbEntity
  8
200
100
AcDbLine
370
-1
  6
AUSGEZOGEN
 10
476
 20
294
 30
0
 11
476
 21
390.96
 31
0
  0
LINE
  5
13F
100
AcDbEntity
  8
200
100
AcDbLine
370
-1
  6
AUSGEZOGEN
 10
476
 20
189.04
 30
0
 11
476
 21
286
 31
0
  0
LINE
  5
140
100
AcDbEntity
  8
200
100
AcDbLine
370
-1
  6
AUSGEZOGEN
 10
727.92
 20
127
 30
0
 11
619
 21
127
 31
0
  0
LINE
  5
141
100
AcDbEntity
  8
200
100
AcDbLine
370
-1
  6
AUSGEZOGEN
 10
502.08
 20
127
 30
0
 11
611
 21
127
 31
0
  0
LINE
  5
142
100
AcDbEntity
  8
200
100
AcDbLine
370
-1
  6
AUSGEZOGEN
 10
611
 20
157
 30
0
 11
508.04
 21
157
 31
0
  0
LINE
  5
143
100
AcDbEntity
  8
200
100
AcDbLine
370
-1
  6
AUSGEZOGEN
 10
721.96
 20
157
 30
0
 11
619
 21
157
 31
0
  0
LINE
  5
144
100
AcDbEntity
  8
200
100
AcDbLine
370
-1
  6
AUSGEZOGEN
 10
502.08
 20
453
 30
0
 11
611
 21
453
 31
0
  0
LINE
  5
145
100
AcDbEntity
  8
200
100
AcDbLine
370
-1
  6
AUSGEZOGEN
 10
727.92
 20
453
 30
0
 11
619
 21
453
 31
0
  0
LINE
  5
146
100
AcDbEntity
  8
200
100
AcDbLine
370
-1
  6
AUSGEZOGEN
 10
619
 20
423
 30
0
 11
721.96
 21
423
 31
0
  0
LINE
  5
147
100
AcDbEntity
  8
200
100
AcDbLine
370
-1
  6
AUSGEZOGEN
 10
508.04
 20
423
 30
0
 11
611
 21
423
 31
0
  0
LINE
  5
148
100
AcDbEntity
  8
200
100
AcDbLine
370
-1
  6
AUSGEZOGEN
 10
739.46
 20
165.88
 30
0
 11
736.66
 21
163.08
 31
0
  0
LINE
  5
149
100
AcDbEntity
  8
200
100
AcDbLine
370
-1
  6
AUSGEZOGEN
 10
747.92
 20
174.34
 30
0
 11
745.12
 21
171.54
 31
0
  0
LINE
  5
14A
100
AcDbEntity
  8
200
100
AcDbLine
370
-1
  6
AUSGEZOGEN
 10
760.67
 20
144.67
 30
0
 11
753.66
 21
137.66
 31
0
  0
LINE
  5
14B
100
AcDbEntity
  8
200
100
AcDbLine
370
-1
  6
AUSGEZOGEN
 10
773.34
 20
157.34
 30
0
 11
766.33
 21
150.33
 31
0
  0
LINE
  5
14C
100
AcDbEntity
  8
200
100
AcDbLine
370
-1
  6
AUSGEZOGEN
 10
490.54
 20
414.12
 30
0
 11
493.34
 21
416.92
 31
0
  0
LINE
  5
14D
100
AcDbEntity
  8
200
100
AcDbLine
370
-1
  6
AUSGEZOGEN
 10
482.08
 20
405.66
 30
0
 11
484.88
 21
408.46
 31
0
  0
LINE
  5
14E
100
AcDbEntity
  8
200
100
AcDbLine
370
-1
  6
AUSGEZOGEN
 10
469.33
 20
435.33
 30
0
 11
476.34
 21
442.34
 31
0
  0
LINE
  5
14F
100
AcDbEntity
  8
200
100
AcDbLine
370
-1
  6
AUSGEZOGEN
 10
456.66
 20
422.66
 30
0
 11
463.67
 21
429.67
 31
0
  0
LINE
  5
150
100
AcDbEntity
  8
200
100
AcDbLine
370
-1
  6
AUSGEZOGEN
 10
484.88
 20
171.54
 30
0
 11
482.08
 21
174.34
 31
0
  0
LINE
  5
151
100
AcDbEntity
  8
200
100
AcDbLine
370
-1
  6
AUSGEZOGEN
 10
493.34
 20
163.08
 30
0
 11
490.54
 21
165.88
 31
0
  0
LINE
  5
152
100
AcDbEntity
  8
200
100
AcDbLine
370
-1
  6
AUSGEZOGEN
 10
463.67
 20
150.33
 30
0
 11
456.66
 21
157.34
 31
0
  0
LINE
  5
153
100
AcDbEntity
  8
200
100
AcDbLine
370
-1
  6
AUSGEZOGEN
 10
476.34
 20
137.66
 30
0
 11
469.33
 21
144.67
 31
0
  0
LINE
  5
154
100
AcDbEntity
  8
200
100
AcDbLine
370
-1
  6
AUSGEZOGEN
 10
745.12
 20
408.46
 30
0
 11
747.92
 21
405.66
 31
0
  0
LINE
  5
155
100
AcDbEntity
  8
200
100
AcDbLine
370
-1
  6
AUSGEZOGEN
 10
736.66
 20
416.92
 30
0
 11
739.46
 21
414.12
 31
0
  0
LINE
  5
156
100
AcDbEntity
  8
200
100
AcDbLine
370
-1
  6
AUSGEZOGEN
 10
766.33
 20
429.67
 30
0
 11
773.34
 21
422.66
 31
0
  0
LINE
  5
157
100
AcDbEntity
  8
200
100
AcDbLine
370
-1
  6
AUSGEZOGEN
 10
753.66
 20
442.34
 30
0
 11
760.67
 21
435.33
 31
0
  0
LINE
  5
158
100
AcDbEntity
  8
200
100
AcDbLine
370
-1
  6
AUSGEZOGEN
 10
747.9
 20
174.34
 30
0
 11
754
 21
189.04
 31
0
  0
LINE
  5
159
100
AcDbEntity
  8
200
100
AcDbLine
370
-1
  6
AUSGEZOGEN
 10
784
 20
183.08
 30
0
 11
773.34
 21
157.36
 31
0
  0
LINE
  5
15A
100
AcDbEntity
  8
200
100
AcDbLine
370
-1
  6
AUSGEZOGEN
 10
482.1
 20
405.66
 30
0
 11
476
 21
390.96
 31
0
  0
LINE
  5
15B
100
AcDbEntity
  8
200
100
AcDbLine
370
-1
  6
AUSGEZOGEN
 10
446
 20
396.92
 30
0
 11
456.66
 21
422.64
 31
0
  0
LINE
  5
15C
100
AcDbEntity
  8
200
100
AcDbLine
370
-1
  6
AUSGEZOGEN
 10
508.04
 20
157
 30
0
 11
493.34
 21
163.1
 31
0
  0
LINE
  5
15D
100
AcDbEntity
  8
200
100
AcDbLine
370
-1
  6
AUSGEZOGEN
 10
476.36
 20
137.66
 30
0
 11
502.08
 21
127
 31
0
  0
LINE
  5
15E
100
AcDbEntity
  8
200
100
AcDbLine
370
-1
  6
AUSGEZOGEN
 10
736.66
 20
416.9
 30
0
 11
721.96
 21
423
 31
0
  0
LINE
  5
15F
100
AcDbEntity
  8
200
100
AcDbLine
370
-1
  6
AUSGEZOGEN
 10
727.92
 20
453
 30
0
 11
753.64
 21
442.34
 31
0
  0
LINE
  5
160
100
AcDbEntity
  8
200
100
AcDbLine
370
-1
  6
AUSGEZOGEN
 10
721.96
 20
157
 30
0
 11
736.66
 21
163.08
 31
0
  0
LINE
  5
161
100
AcDbEntity
  8
200
100
AcDbLine
370
-1
  6
AUSGEZOGEN
 10
753.64
 20
137.66
 30
0
 11
727.94
 21
127
 31
0
  0
LINE
  5
162
100
AcDbEntity
  8
200
100
AcDbLine
370
-1
  6
AUSGEZOGEN
 10
493.34
 20
416.92
 30
0
 11
508.04
 21
423
 31
0
  0
LINE
  5
163
100
AcDbEntity
  8
200
100
AcDbLine
370
-1
  6
AUSGEZOGEN
 10
502.06
 20
453
 30
0
 11
476.36
 21
442.34
 31
0
  0
LINE
  5
164
100
AcDbEntity
  8
200
100
AcDbLine
370
-1
  6
AUSGEZOGEN
 10
482.08
 20
174.34
 30
0
 11
476
 21
189.04
 31
0
  0
LINE
  5
165
100
AcDbEntity
  8
200
100
AcDbLine
370
-1
  6
AUSGEZOGEN
 10
446
 20
183.06
 30
0
 11
456.66
 21
157.36
 31
0
  0
LINE
  5
166
100
AcDbEntity
  8
200
100
AcDbLine
370
-1
  6
AUSGEZOGEN
 10
747.92
 20
405.66
 30
0
 11
754
 21
390.96
 31
0
  0
LINE
  5
167
100
AcDbEntity
  8
200
100
AcDbLine
370
-1
  6
AUSGEZOGEN
 10
784
 20
396.94
 30
0
 11
773.34
 21
422.64
 31
0
  0
LINE
  5
168
100
AcDbEntity
  8
200
100
AcDbLine
370
-1
  6
AUSGEZOGEN
 10
566
 20
286
 30
0
 11
566
 21
294
 31
0
  0
LINE
  5
169
100
AcDbEntity
  8
200
100
AcDbLine
370
-1
  6
AUSGEZOGEN
 10
436
 20
286
 30
0
 11
566
 21
286
 31
0
  0
LINE
  5
16A
100
AcDbEntity
  8
200
100
AcDbLine
370
-1
  6
AUSGEZOGEN
 10
566
 20
294
 30
0
 11
436
 21
294
 31
0
  0
LINE
  5
16B
100
AcDbEntity
  8
200
100
AcDbLine
370
-1
  6
AUSGEZOGEN
 10
664
 20
286
 30
0
 11
664
 21
294
 31
0
  0
LINE
  5
16C
100
AcDbEntity
  8
200
100
AcDbLine
370
-1
  6
AUSGEZOGEN
 10
794
 20
294
 30
0
 11
664
 21
294
 31
0
  0
LINE
  5
16D
100
AcDbEntity
  8
200
100
AcDbLine
370
-1
  6
AUSGEZOGEN
 10
664
 20
286
 30
0
 11
794
 21
286
 31
0
  0
LINE
  5
16E
100
AcDbEntity
  8
200
100
AcDbLine
370
-1
  6
AUSGEZOGEN
 10
611
 20
363
 30
0
 11
619
 21
363
 31
0
  0
LINE
  5
16F
100
AcDbEntity
  8
200
100
AcDbLine
370
-1
  6
AUSGEZOGEN
 10
619
 20
217
 30
0
 11
611
 21
217
 31
0
  0
LINE
  5
170
100
AcDbEntity
  8
200
100
AcDbLine
370
-1
  6
AUSGEZOGEN
 10
619
 20
117
 30
0
 11
619
 21
217
 31
0
  0
LINE
  5
171
100
AcDbEntity
  8
200
100
AcDbLine
370
-1
  6
AUSGEZOGEN
 10
611
 20
217
 30
0
 11
611
 21
117
 31
0
  0
LINE
  5
172
100
AcDbEntity
  8
200
100
AcDbLine
370
-1
  6
AUSGEZOGEN
 10
522.58
 20
197.92
 30
0
 11
516.92
 21
203.58
 31
0
  0
LINE
  5
173
100
AcDbEntity
  8
200
100
AcDbLine
370
-1
  6
AUSGEZOGEN
 10
483.4
 20
158.74
 30
0
 11
522.58
 21
197.92
 31
0
  0
LINE
  5
174
100
AcDbEntity
  8
200
100
AcDbLine
370
-1
  6
AUSGEZOGEN
 10
516.92
 20
203.58
 30
0
 11
477.74
 21
164.4
 31
0
  0
LINE
  5
175
100
AcDbEntity
  8
200
100
AcDbLine
370
-1
  6
AUSGEZOGEN
 10
472.24
 20
147.58
 30
0
 11
483.4
 21
158.74
 31
0
  0
LINE
  5
176
100
AcDbEntity
  8
200
100
AcDbLine
370
-1
  6
AUSGEZOGEN
 10
477.74
 20
164.4
 30
0
 11
466.58
 21
153.24
 31
0
  0
LINE
  5
177
100
AcDbEntity
  8
200
100
AcDbLine
370
-1
  6
AUSGEZOGEN
 10
441.66
 20
117
 30
0
 11
472.24
 21
147.58
 31
0
  0
LINE
  5
178
100
AcDbEntity
  8
200
100
AcDbLine
370
-1
  6
AUSGEZOGEN
 10
466.58
 20
153.24
 30
0
 11
436
 21
122.66
 31
0
  0
LINE
  5
179
100
AcDbEntity
  8
200
100
AcDbLine
370
-1
  6
AUSGEZOGEN
 10
752.26
 20
164.4
 30
0
 11
713.08
 21
203.58
 31
0
  0
LINE
  5
17A
100
AcDbEntity
  8
200
100
AcDbLine
370
-1
  6
AUSGEZOGEN
 10
707.42
 20
197.92
 30
0
 11
746.6
 21
158.74
 31
0
  0
LINE
  5
17B
100
AcDbEntity
  8
200
100
AcDbLine
370
-1
  6
AUSGEZOGEN
 10
713.08
 20
203.58
 30
0
 11
707.42
 21
197.92
 31
0
  0
LINE
  5
17C
100
AcDbEntity
  8
200
100
AcDbLine
370
-1
  6
AUSGEZOGEN
 10
763.42
 20
153.24
 30
0
 11
752.26
 21
164.4
 31
0
  0
LINE
  5
17D
100
AcDbEntity
  8
200
100
AcDbLine
370
-1
  6
AUSGEZOGEN
 10
746.6
 20
158.74
 30
0
 11
757.76
 21
147.58
 31
0
  0
LINE
  5
17E
100
AcDbEntity
  8
200
100
AcDbLine
370
-1
  6
AUSGEZOGEN
 10
436
 20
117
 30
0
 11
794
 21
117
 31
0
  0
LINE
  5
17F
100
AcDbEntity
  8
200
100
AcDbLine
370
-1
  6
AUSGEZOGEN
 10
794
 20
122.66
 30
0
 11
763.42
 21
153.24
 31
0
  0
LINE
  5
180
100
AcDbEntity
  8
200
100
AcDbLine
370
-1
  6
AUSGEZOGEN
 10
757.76
 20
147.58
 30
0
 11
788.34
 21
117
 31
0
  0
LINE
  5
181
100
AcDbEntity
  8
200
100
AcDbLine
370
-1
  6
AUSGEZOGEN
 10
477.74
 20
415.6
 30
0
 11
516.92
 21
376.42
 31
0
  0
LINE
  5
182
100
AcDbEntity
  8
200
100
AcDbLine
370
-1
  6
AUSGEZOGEN
 10
522.58
 20
382.08
 30
0
 11
483.4
 21
421.26
 31
0
  0
LINE
  5
183
100
AcDbEntity
  8
200
100
AcDbLine
370
-1
  6
AUSGEZOGEN
 10
516.92
 20
376.42
 30
0
 11
522.58
 21
382.08
 31
0
  0
LINE
  5
184
100
AcDbEntity
  8
200
100
AcDbLine
370
-1
  6
AUSGEZOGEN
 10
466.58
 20
426.76
 30
0
 11
477.74
 21
415.6
 31
0
  0
LINE
  5
185
100
AcDbEntity
  8
200
100
AcDbLine
370
-1
  6
AUSGEZOGEN
 10
483.4
 20
421.26
 30
0
 11
472.24
 21
432.42
 31
0
  0
LINE
  5
186
100
AcDbEntity
  8
200
100
AcDbLine
370
-1
  6
AUSGEZOGEN
 10
437.94
 20
455.4
 30
0
 11
463.89
 21
429.45
 31
0
  0
LINE
  5
187
100
AcDbEntity
  8
200
100
AcDbLine
370
-1
  6
AUSGEZOGEN
 10
466.58
 20
426.76
 30
0
 11
436
 21
457.34
 31
0
  0
LINE
  5
188
100
AcDbEntity
  8
200
100
AcDbLine
370
-1
  6
AUSGEZOGEN
 10
441.66
 20
463
 30
0
 11
472.24
 21
432.42
 31
0
  0
LINE
  5
189
100
AcDbEntity
  8
200
100
AcDbLine
370
-1
  6
AUSGEZOGEN
 10
713.08
 20
376.42
 30
0
 11
707.42
 21
382.08
 31
0
  0
LINE
  5
18A
100
AcDbEntity
  8
200
100
AcDbLine
370
-1
  6
AUSGEZOGEN
 10
746.6
 20
421.26
 30
0
 11
707.42
 21
382.08
 31
0
  0
LINE
  5
18B
100
AcDbEntity
  8
200
100
AcDbLine
370
-1
  6
AUSGEZOGEN
 10
713.08
 20
376.42
 30
0
 11
752.26
 21
415.6
 31
0
  0
LINE
  5
18C
100
AcDbEntity
  8
200
100
AcDbLine
370
-1
  6
AUSGEZOGEN
 10
757.76
 20
432.42
 30
0
 11
746.6
 21
421.26
 31
0
  0
LINE
  5
18D
100
AcDbEntity
  8
200
100
AcDbLine
370
-1
  6
AUSGEZOGEN
 10
752.26
 20
415.6
 30
0
 11
763.42
 21
426.76
 31
0
  0
LINE
  5
18E
100
AcDbEntity
  8
200
100
AcDbLine
370
-1
  6
AUSGEZOGEN
 10
788.34
 20
463
 30
0
 11
760.45
 21
435.11
 31
0
  0
LINE
  5
18F
100
AcDbEntity
  8
200
100
AcDbLine
370
-1
  6
AUSGEZOGEN
 10
766.11
 20
429.45
 30
0
 11
794
 21
457.34
 31
0
  0
LINE
  5
190
100
AcDbEntity
  8
200
100
AcDbLine
370
-1
  6
AUSGEZOGEN
 10
788.34
 20
463
 30
0
 11
757.76
 21
432.42
 31
0
  0
LINE
  5
191
100
AcDbEntity
  8
200
100
AcDbLine
370
-1
  6
AUSGEZOGEN
 10
763.42
 20
426.76
 30
0
 11
794
 21
457.34
 31
0
  0
LINE
  5
192
100
AcDbEntity
  8
200
100
AcDbLine
370
-1
  6
AUSGEZOGEN
 10
604.07
 20
345
 30
0
 11
625.93
 21
345
 31
0
  0
LINE
  5
193
100
AcDbEntity
  8
200
100
AcDbLine
370
-1
  6
AUSGEZOGEN
 10
625.94
 20
235
 30
0
 11
604.04
 21
235
 31
0
  0
LINE
  5
194
100
AcDbEntity
  8
200
100
AcDbLine
370
-1
  6
AUSGEZOGEN
 10
670
 20
300.93
 30
0
 11
670
 21
294
 31
0
  0
LINE
  5
195
100
AcDbEntity
  8
200
100
AcDbLine
370
-1
  6
AUSGEZOGEN
 10
670
 20
279.06
 30
0
 11
670
 21
286
 31
0
  0
LINE
  5
196
100
AcDbEntity
  8
200
100
AcDbLine
370
-1
  6
AUSGEZOGEN
 10
560
 20
286
 30
0
 11
560
 21
279.04
 31
0
  0
LINE
  5
197
100
AcDbEntity
  8
200
100
AcDbLine
370
-1
  6
AUSGEZOGEN
 10
560
 20
300.96
 30
0
 11
560
 21
294
 31
0
  0
LINE
  5
198
100
AcDbEntity
  8
200
100
AcDbLine
370
-1
  6
AUSGEZOGEN
 10
646.15
 20
336.63
 30
0
 11
661.62
 21
321.15
 31
0
  0
LINE
  5
199
100
AcDbEntity
  8
200
100
AcDbLine
370
-1
  6
AUSGEZOGEN
 10
568.36
 20
258.85
 30
0
 11
583.85
 21
243.36
 31
0
  0
LINE
  5
19A
100
AcDbEntity
  8
200
100
AcDbLine
370
-1
  6
AUSGEZOGEN
 10
661.63
 20
258.84
 30
0
 11
646.15
 21
243.37
 31
0
  0
LINE
  5
19B
100
AcDbEntity
  8
200
100
AcDbLine
370
-1
  6
AUSGEZOGEN
 10
583.84
 20
336.62
 30
0
 11
568.37
 21
321.15
 31
0
  0
LINE
  5
19C
100
AcDbEntity
  8
200
100
AcDbLine
370
-1
  6
AUSGEZOGEN
 10
670
 20
300.93
 30
0
 11
661.62
 21
321.15
 31
0
  0
LINE
  5
19D
100
AcDbEntity
  8
200
100
AcDbLine
370
-1
  6
AUSGEZOGEN
 10
568.36
 20
258.85
 30
0
 11
560
 21
279.04
 31
0
  0
LINE
  5
19E
100
AcDbEntity
  8
200
100
AcDbLine
370
-1
  6
AUSGEZOGEN
 10
646.15
 20
243.37
 30
0
 11
625.94
 21
235
 31
0
  0
LINE
  5
19F
100
AcDbEntity
  8
200
100
AcDbLine
370
-1
  6
AUSGEZOGEN
 10
583.84
 20
336.62
 30
0
 11
604.07
 21
345
 31
0
  0
LINE
  5
1A0
100
AcDbEntity
  8
200
100
AcDbLine
370
-1
  6
AUSGEZOGEN
 10
560
 20
300.96
 30
0
 11
568.37
 21
321.15
 31
0
  0
LINE
  5
1A1
100
AcDbEntity
  8
200
100
AcDbLine
370
-1
  6
AUSGEZOGEN
 10
661.63
 20
258.84
 30
0
 11
670
 21
279.06
 31
0
  0
LINE
  5
1A2
100
AcDbEntity
  8
200
100
AcDbLine
370
-1
  6
AUSGEZOGEN
 10
625.93
 20
345
 30
0
 11
646.15
 21
336.63
 31
0
  0
LINE
  5
1A3
100
AcDbEntity
  8
200
100
AcDbLine
370
-1
  6
AUSGEZOGEN
 10
583.85
 20
243.36
 30
0
 11
604.04
 21
235
 31
0
  0
LINE
  5
1A4
100
AcDbEntity
  8
200
100
AcDbLine
370
-1
  6
AUSGEZOGEN
 10
633.69
 20
317.98
 30
0
 11
621.57
 21
323
 31
0
  0
LINE
  5
1A5
100
AcDbEntity
  8
200
100
AcDbLine
370
-1
  6
AUSGEZOGEN
 10
642.98
 20
308.69
 30
0
 11
633.69
 21
317.98
 31
0
  0
LINE
  5
1A6
100
AcDbEntity
  8
200
100
AcDbLine
370
-1
  6
AUSGEZOGEN
 10
648
 20
296.57
 30
0
 11
642.98
 21
308.69
 31
0
  0
LINE
  5
1A7
100
AcDbEntity
  8
200
100
AcDbLine
370
-1
  6
AUSGEZOGEN
 10
642.98
 20
271.31
 30
0
 11
648
 21
283.43
 31
0
  0
LINE
  5
1A8
100
AcDbEntity
  8
200
100
AcDbLine
370
-1
  6
AUSGEZOGEN
 10
633.69
 20
262.02
 30
0
 11
642.98
 21
271.31
 31
0
  0
LINE
  5
1A9
100
AcDbEntity
  8
200
100
AcDbLine
370
-1
  6
AUSGEZOGEN
 10
621.57
 20
257
 30
0
 11
633.69
 21
262.02
 31
0
  0
LINE
  5
1AA
100
AcDbEntity
  8
200
100
AcDbLine
370
-1
  6
AUSGEZOGEN
 10
596.31
 20
262.02
 30
0
 11
608.43
 21
257
 31
0
  0
LINE
  5
1AB
100
AcDbEntity
  8
200
100
AcDbLine
370
-1
  6
AUSGEZOGEN
 10
587.02
 20
271.31
 30
0
 11
596.31
 21
262.02
 31
0
  0
LINE
  5
1AC
100
AcDbEntity
  8
200
100
AcDbLine
370
-1
  6
AUSGEZOGEN
 10
582
 20
283.43
 30
0
 11
587.02
 21
271.31
 31
0
  0
LINE
  5
1AD
100
AcDbEntity
  8
200
100
AcDbLine
370
-1
  6
AUSGEZOGEN
 10
582
 20
296.57
 30
0
 11
582
 21
283.43
 31
0
  0
LINE
  5
1AE
100
AcDbEntity
  8
200
100
AcDbLine
370
-1
  6
AUSGEZOGEN
 10
587.02
 20
308.69
 30
0
 11
582
 21
296.57
 31
0
  0
LINE
  5
1AF
100
AcDbEntity
  8
200
100
AcDbLine
370
-1
  6
AUSGEZOGEN
 10
596.31
 20
317.98
 30
0
 11
587.02
 21
308.69
 31
0
  0
LINE
  5
1B0
100
AcDbEntity
  8
200
100
AcDbLine
370
-1
  6
AUSGEZOGEN
 10
608.44
 20
323
 30
0
 11
596.31
 21
317.98
 31
0
  0
LINE
  5
1B1
100
AcDbEntity
  8
200
100
AcDbLine
370
-1
  6
AUSGEZOGEN
 10
621.57
 20
323
 30
0
 11
608.44
 21
323
 31
0
  0
LINE
  5
1B2
100
AcDbEntity
  8
200
100
AcDbLine
370
-1
  6
AUSGEZOGEN
 10
648
 20
283.43
 30
0
 11
648
 21
296.57
 31
0
  0
LINE
  5
1B3
100
AcDbEntity
  8
200
100
AcDbLine
370
-1
  6
AUSGEZOGEN
 10
608.43
 20
257
 30
0
 11
621.57
 21
257
 31
0
  0
LINE
  5
1B4
100
AcDbEntity
  8
200
100
AcDbLine
370
-1
  6
AUSGEZOGEN
 10
784
 20
742.92
 30
0
 11
784
 21
640
 31
0
  0
LINE
  5
1B5
100
AcDbEntity
  8
200
100
AcDbLine
370
-1
  6
AUSGEZOGEN
 10
784
 20
529.08
 30
0
 11
784
 21
632
 31
0
  0
LINE
  5
1B6
100
AcDbEntity
  8
200
100
AcDbLine
370
-1
  6
AUSGEZOGEN
 10
754
 20
632
 30
0
 11
754
 21
535.04
 31
0
  0
LINE
  5
1B7
100
AcDbEntity
  8
200
100
AcDbLine
370
-1
  6
AUSGEZOGEN
 10
754
 20
736.96
 30
0
 11
754
 21
640
 31
0
  0
LINE
  5
1B8
100
AcDbEntity
  8
200
100
AcDbLine
370
-1
  6
AUSGEZOGEN
 10
446
 20
529.08
 30
0
 11
446
 21
632
 31
0
  0
LINE
  5
1B9
100
AcDbEntity
  8
200
100
AcDbLine
370
-1
  6
AUSGEZOGEN
 10
446
 20
742.92
 30
0
 11
446
 21
640
 31
0
  0
LINE
  5
1BA
100
AcDbEntity
  8
200
100
AcDbLine
370
-1
  6
AUSGEZOGEN
 10
476
 20
640
 30
0
 11
476
 21
736.96
 31
0
  0
LINE
  5
1BB
100
AcDbEntity
  8
200
100
AcDbLine
370
-1
  6
AUSGEZOGEN
 10
476
 20
535.04
 30
0
 11
476
 21
632
 31
0
  0
LINE
  5
1BC
100
AcDbEntity
  8
200
100
AcDbLine
370
-1
  6
AUSGEZOGEN
 10
727.92
 20
473
 30
0
 11
619
 21
473
 31
0
  0
LINE
  5
1BD
100
AcDbEntity
  8
200
100
AcDbLine
370
-1
  6
AUSGEZOGEN
 10
502.08
 20
473
 30
0
 11
611
 21
473
 31
0
  0
LINE
  5
1BE
100
AcDbEntity
  8
200
100
AcDbLine
370
-1
  6
AUSGEZOGEN
 10
611
 20
503
 30
0
 11
508.04
 21
503
 31
0
  0
LINE
  5
1BF
100
AcDbEntity
  8
200
100
AcDbLine
370
-1
  6
AUSGEZOGEN
 10
721.96
 20
503
 30
0
 11
619
 21
503
 31
0
  0
LINE
  5
1C0
100
AcDbEntity
  8
200
100
AcDbLine
370
-1
  6
AUSGEZOGEN
 10
502.08
 20
799
 30
0
 11
611
 21
799
 31
0
  0
LINE
  5
1C1
100
AcDbEntity
  8
200
100
AcDbLine
370
-1
  6
AUSGEZOGEN
 10
727.92
 20
799
 30
0
 11
619
 21
799
 31
0
  0
LINE
  5
1C2
100
AcDbEntity
  8
200
100
AcDbLine
370
-1
  6
AUSGEZOGEN
 10
619
 20
769
 30
0
 11
721.96
 21
769
 31
0
  0
LINE
  5
1C3
100
AcDbEntity
  8
200
100
AcDbLine
370
-1
  6
AUSGEZOGEN
 10
508.04
 20
769
 30
0
 11
611
 21
769
 31
0
  0
LINE
  5
1C4
100
AcDbEntity
  8
200
100
AcDbLine
370
-1
  6
AUSGEZOGEN
 10
739.46
 20
511.88
 30
0
 11
736.66
 21
509.08
 31
0
  0
LINE
  5
1C5
100
AcDbEntity
  8
200
100
AcDbLine
370
-1
  6
AUSGEZOGEN
 10
747.92
 20
520.34
 30
0
 11
745.12
 21
517.54
 31
0
  0
LINE
  5
1C6
100
AcDbEntity
  8
200
100
AcDbLine
370
-1
  6
AUSGEZOGEN
 10
760.67
 20
490.67
 30
0
 11
753.66
 21
483.66
 31
0
  0
LINE
  5
1C7
100
AcDbEntity
  8
200
100
AcDbLine
370
-1
  6
AUSGEZOGEN
 10
773.34
 20
503.34
 30
0
 11
766.33
 21
496.33
 31
0
  0
LINE
  5
1C8
100
AcDbEntity
  8
200
100
AcDbLine
370
-1
  6
AUSGEZOGEN
 10
490.54
 20
760.12
 30
0
 11
493.34
 21
762.92
 31
0
  0
LINE
  5
1C9
100
AcDbEntity
  8
200
100
AcDbLine
370
-1
  6
AUSGEZOGEN
 10
482.08
 20
751.66
 30
0
 11
484.88
 21
754.46
 31
0
  0
LINE
  5
1CA
100
AcDbEntity
  8
200
100
AcDbLine
370
-1
  6
AUSGEZOGEN
 10
469.33
 20
781.33
 30
0
 11
476.34
 21
788.34
 31
0
  0
LINE
  5
1CB
100
AcDbEntity
  8
200
100
AcDbLine
370
-1
  6
AUSGEZOGEN
 10
456.66
 20
768.66
 30
0
 11
463.67
 21
775.67
 31
0
  0
LINE
  5
1CC
100
AcDbEntity
  8
200
100
AcDbLine
370
-1
  6
AUSGEZOGEN
 10
484.88
 20
517.54
 30
0
 11
482.08
 21
520.34
 31
0
  0
LINE
  5
1CD
100
AcDbEntity
  8
200
100
AcDbLine
370
-1
  6
AUSGEZOGEN
 10
493.34
 20
509.08
 30
0
 11
490.54
 21
511.88
 31
0
  0
LINE
  5
1CE
100
AcDbEntity
  8
200
100
AcDbLine
370
-1
  6
AUSGEZOGEN
 10
463.67
 20
496.33
 30
0
 11
456.66
 21
503.34
 31
0
  0
LINE
  5
1CF
100
AcDbEntity
  8
200
100
AcDbLine
370
-1
  6
AUSGEZOGEN
 10
476.34
 20
483.66
 30
0
 11
469.33
 21
490.67
 31
0
  0
LINE
  5
1D0
100
AcDbEntity
  8
200
100
AcDbLine
370
-1
  6
AUSGEZOGEN
 10
745.12
 20
754.46
 30
0
 11
747.92
 21
751.66
 31
0
  0
LINE
  5
1D1
100
AcDbEntity
  8
200
100
AcDbLine
370
-1
  6
AUSGEZOGEN
 10
736.66
 20
762.92
 30
0
 11
739.46
 21
760.12
 31
0
  0
LINE
  5
1D2
100
AcDbEntity
  8
200
100
AcDbLine
370
-1
  6
AUSGEZOGEN
 10
766.33
 20
775.67
 30
0
 11
773.34
 21
768.66
 31
0
  0
LINE
  5
1D3
100
AcDbEntity
  8
200
100
AcDbLine
370
-1
  6
AUSGEZOGEN
 10
753.66
 20
788.34
 30
0
 11
760.67
 21
781.33
 31
0
  0
LINE
  5
1D4
100
AcDbEntity
  8
200
100
AcDbLine
370
-1
  6
AUSGEZOGEN
 10
747.9
 20
520.34
 30
0
 11
754
 21
535.04
 31
0
  0
LINE
  5
1D5
100
AcDbEntity
  8
200
100
AcDbLine
370
-1
  6
AUSGEZOGEN
 10
784
 20
529.08
 30
0
 11
773.34
 21
503.36
 31
0
  0
LINE
  5
1D6
100
AcDbEntity
  8
200
100
AcDbLine
370
-1
  6
AUSGEZOGEN
 10
482.1
 20
751.66
 30
0
 11
476
 21
736.96
 31
0
  0
LINE
  5
1D7
100
AcDbEntity
  8
200
100
AcDbLine
370
-1
  6
AUSGEZOGEN
 10
446
 20
742.92
 30
0
 11
456.66
 21
768.64
 31
0
  0
LINE
  5
1D8
100
AcDbEntity
  8
200
100
AcDbLine
370
-1
  6
AUSGEZOGEN
 10
508.04
 20
503
 30
0
 11
493.34
 21
509.1
 31
0
  0
LINE
  5
1D9
100
AcDbEntity
  8
200
100
AcDbLine
370
-1
  6
AUSGEZOGEN
 10
476.36
 20
483.66
 30
0
 11
502.08
 21
473
 31
0
  0
LINE
  5
1DA
100
AcDbEntity
  8
200
100
AcDbLine
370
-1
  6
AUSGEZOGEN
 10
736.66
 20
762.9
 30
0
 11
721.96
 21
769
 31
0
  0
LINE
  5
1DB
100
AcDbEntity
  8
200
100
AcDbLine
370
-1
  6
AUSGEZOGEN
 10
727.92
 20
799
 30
0
 11
753.64
 21
788.34
 31
0
  0
LINE
  5
1DC
100
AcDbEntity
  8
200
100
AcDbLine
370
-1
  6
AUSGEZOGEN
 10
721.96
 20
503
 30
0
 11
736.66
 21
509.08
 31
0
  0
LINE
  5
1DD
100
AcDbEntity
  8
200
100
AcDbLine
370
-1
  6
AUSGEZOGEN
 10
753.64
 20
483.66
 30
0
 11
727.94
 21
473
 31
0
  0
LINE
  5
1DE
100
AcDbEntity
  8
200
100
AcDbLine
370
-1
  6
AUSGEZOGEN
 10
493.34
 20
762.92
 30
0
 11
508.04
 21
769
 31
0
  0
LINE
  5
1DF
100
AcDbEntity
  8
200
100
AcDbLine
370
-1
  6
AUSGEZOGEN
 10
502.06
 20
799
 30
0
 11
476.36
 21
788.34
 31
0
  0
LINE
  5
1E0
100
AcDbEntity
  8
200
100
AcDbLine
370
-1
  6
AUSGEZOGEN
 10
482.08
 20
520.34
 30
0
 11
476
 21
535.04
 31
0
  0
LINE
  5
1E1
100
AcDbEntity
  8
200
100
AcDbLine
370
-1
  6
AUSGEZOGEN
 10
446
 20
529.06
 30
0
 11
456.66
 21
503.36
 31
0
  0
LINE
  5
1E2
100
AcDbEntity
  8
200
100
AcDbLine
370
-1
  6
AUSGEZOGEN
 10
747.92
 20
751.66
 30
0
 11
754
 21
736.96
 31
0
  0
LINE
  5
1E3
100
AcDbEntity
  8
200
100
AcDbLine
370
-1
  6
AUSGEZOGEN
 10
784
 20
742.94
 30
0
 11
773.34
 21
768.64
 31
0
  0
LINE
  5
1E4
100
AcDbEntity
  8
200
100
AcDbLine
370
-1
  6
AUSGEZOGEN
 10
566
 20
632
 30
0
 11
566
 21
640
 31
0
  0
LINE
  5
1E5
100
AcDbEntity
  8
200
100
AcDbLine
370
-1
  6
AUSGEZOGEN
 10
436
 20
632
 30
0
 11
566
 21
632
 31
0
  0
LINE
  5
1E6
100
AcDbEntity
  8
200
100
AcDbLine
370
-1
  6
AUSGEZOGEN
 10
566
 20
640
 30
0
 11
436
 21
640
 31
0
  0
LINE
  5
1E7
100
AcDbEntity
  8
200
100
AcDbLine
370
-1
  6
AUSGEZOGEN
 10
664
 20
632
 30
0
 11
664
 21
640
 31
0
  0
LINE
  5
1E8
100
AcDbEntity
  8
200
100
AcDbLine
370
-1
  6
AUSGEZOGEN
 10
794
 20
640
 30
0
 11
664
 21
640
 31
0
  0
LINE
  5
1E9
100
AcDbEntity
  8
200
100
AcDbLine
370
-1
  6
AUSGEZOGEN
 10
664
 20
632
 30
0
 11
794
 21
632
 31
0
  0
LINE
  5
1EA
100
AcDbEntity
  8
200
100
AcDbLine
370
-1
  6
AUSGEZOGEN
 10
611
 20
709
 30
0
 11
619
 21
709
 31
0
  0
LINE
  5
1EB
100
AcDbEntity
  8
200
100
AcDbLine
370
-1
  6
AUSGEZOGEN
 10
611
 20
809
 30
0
 11
611
 21
709
 31
0
  0
LINE
  5
1EC
100
AcDbEntity
  8
200
100
AcDbLine
370
-1
  6
AUSGEZOGEN
 10
619
 20
709
 30
0
 11
619
 21
809
 31
0
  0
LINE
  5
1ED
100
AcDbEntity
  8
200
100
AcDbLine
370
-1
  6
AUSGEZOGEN
 10
611
 20
563
 30
0
 11
619
 21
563
 31
0
  0
LINE
  5
1EE
100
AcDbEntity
  8
200
100
AcDbLine
370
-1
  6
AUSGEZOGEN
 10
619
 20
363
 30
0
 11
619
 21
563
 31
0
  0
LINE
  5
1EF
100
AcDbEntity
  8
200
100
AcDbLine
370
-1
  6
AUSGEZOGEN
 10
611
 20
563
 30
0
 11
611
 21
363
 31
0
  0
LINE
  5
1F0
100
AcDbEntity
  8
200
100
AcDbLine
370
-1
  6
AUSGEZOGEN
 10
522.58
 20
543.92
 30
0
 11
516.92
 21
549.58
 31
0
  0
LINE
  5
1F1
100
AcDbEntity
  8
200
100
AcDbLine
370
-1
  6
AUSGEZOGEN
 10
483.4
 20
504.74
 30
0
 11
522.58
 21
543.92
 31
0
  0
LINE
  5
1F2
100
AcDbEntity
  8
200
100
AcDbLine
370
-1
  6
AUSGEZOGEN
 10
516.92
 20
549.58
 30
0
 11
477.74
 21
510.4
 31
0
  0
LINE
  5
1F3
100
AcDbEntity
  8
200
100
AcDbLine
370
-1
  6
AUSGEZOGEN
 10
472.24
 20
493.58
 30
0
 11
483.4
 21
504.74
 31
0
  0
LINE
  5
1F4
100
AcDbEntity
  8
200
100
AcDbLine
370
-1
  6
AUSGEZOGEN
 10
477.74
 20
510.4
 30
0
 11
466.58
 21
499.24
 31
0
  0
LINE
  5
1F5
100
AcDbEntity
  8
200
100
AcDbLine
370
-1
  6
AUSGEZOGEN
 10
441.66
 20
463
 30
0
 11
472.24
 21
493.58
 31
0
  0
LINE
  5
1F6
100
AcDbEntity
  8
200
100
AcDbLine
370
-1
  6
AUSGEZOGEN
 10
466.58
 20
499.24
 30
0
 11
436
 21
468.66
 31
0
  0
LINE
  5
1F7
100
AcDbEntity
  8
200
100
AcDbLine
370
-1
  6
AUSGEZOGEN
 10
752.26
 20
510.4
 30
0
 11
713.08
 21
549.58
 31
0
  0
LINE
  5
1F8
100
AcDbEntity
  8
200
100
AcDbLine
370
-1
  6
AUSGEZOGEN
 10
707.42
 20
543.92
 30
0
 11
746.6
 21
504.74
 31
0
  0
LINE
  5
1F9
100
AcDbEntity
  8
200
100
AcDbLine
370
-1
  6
AUSGEZOGEN
 10
713.08
 20
549.58
 30
0
 11
707.42
 21
543.92
 31
0
  0
LINE
  5
1FA
100
AcDbEntity
  8
200
100
AcDbLine
370
-1
  6
AUSGEZOGEN
 10
763.42
 20
499.24
 30
0
 11
752.26
 21
510.4
 31
0
  0
LINE
  5
1FB
100
AcDbEntity
  8
200
100
AcDbLine
370
-1
  6
AUSGEZOGEN
 10
746.6
 20
504.74
 30
0
 11
757.76
 21
493.58
 31
0
  0
LINE
  5
1FC
100
AcDbEntity
  8
200
100
AcDbLine
370
-1
  6
AUSGEZOGEN
 10
436
 20
463
 30
0
 11
794
 21
463
 31
0
  0
LINE
  5
1FD
100
AcDbEntity
  8
200
100
AcDbLine
370
-1
  6
AUSGEZOGEN
 10
794
 20
468.66
 30
0
 11
763.42
 21
499.24
 31
0
  0
LINE
  5
1FE
100
AcDbEntity
  8
200
100
AcDbLine
370
-1
  6
AUSGEZOGEN
 10
757.76
 20
493.58
 30
0
 11
788.34
 21
463
 31
0
  0
LINE
  5
1FF
100
AcDbEntity
  8
200
100
AcDbLine
370
-1
  6
AUSGEZOGEN
 10
477.74
 20
761.6
 30
0
 11
516.92
 21
722.42
 31
0
  0
LINE
  5
200
100
AcDbEntity
  8
200
100
AcDbLine
370
-1
  6
AUSGEZOGEN
 10
522.58
 20
728.08
 30
0
 11
483.4
 21
767.26
 31
0
  0
LINE
  5
201
100
AcDbEntity
  8
200
100
AcDbLine
370
-1
  6
AUSGEZOGEN
 10
516.92
 20
722.42
 30
0
 11
522.58
 21
728.08
 31
0
  0
LINE
  5
202
100
AcDbEntity
  8
200
100
AcDbLine
370
-1
  6
AUSGEZOGEN
 10
466.58
 20
772.76
 30
0
 11
477.74
 21
761.6
 31
0
  0
LINE
  5
203
100
AcDbEntity
  8
200
100
AcDbLine
370
-1
  6
AUSGEZOGEN
 10
483.4
 20
767.26
 30
0
 11
472.24
 21
778.42
 31
0
  0
LINE
  5
204
100
AcDbEntity
  8
200
100
AcDbLine
370
-1
  6
AUSGEZOGEN
 10
441.66
 20
809
 30
0
 11
469.55
 21
781.11
 31
0
  0
LINE
  5
205
100
AcDbEntity
  8
200
100
AcDbLine
370
-1
  6
AUSGEZOGEN
 10
466.58
 20
772.76
 30
0
 11
436
 21
803.34
 31
0
  0
LINE
  5
206
100
AcDbEntity
  8
200
100
AcDbLine
370
-1
  6
AUSGEZOGEN
 10
436
 20
117
 30
0
 11
436
 21
809
 31
0
  0
LINE
  5
207
100
AcDbEntity
  8
200
100
AcDbLine
370
-1
  6
AUSGEZOGEN
 10
472.24
 20
778.42
 30
0
 11
441.66
 21
809
 31
0
  0
LINE
  5
208
100
AcDbEntity
  8
200
100
AcDbLine
370
-1
  6
AUSGEZOGEN
 10
713.08
 20
722.42
 30
0
 11
707.42
 21
728.08
 31
0
  0
LINE
  5
209
100
AcDbEntity
  8
200
100
AcDbLine
370
-1
  6
AUSGEZOGEN
 10
746.6
 20
767.26
 30
0
 11
707.42
 21
728.08
 31
0
  0
LINE
  5
20A
100
AcDbEntity
  8
200
100
AcDbLine
370
-1
  6
AUSGEZOGEN
 10
713.08
 20
722.42
 30
0
 11
752.26
 21
761.6
 31
0
  0
LINE
  5
20B
100
AcDbEntity
  8
200
100
AcDbLine
370
-1
  6
AUSGEZOGEN
 10
757.76
 20
778.42
 30
0
 11
746.6
 21
767.26
 31
0
  0
LINE
  5
20C
100
AcDbEntity
  8
200
100
AcDbLine
370
-1
  6
AUSGEZOGEN
 10
752.26
 20
761.6
 30
0
 11
763.42
 21
772.76
 31
0
  0
LINE
  5
20D
100
AcDbEntity
  8
200
100
AcDbLine
370
-1
  6
AUSGEZOGEN
 10
436
 20
809
 30
0
 11
794
 21
809
 31
0
  0
LINE
  5
20E
100
AcDbEntity
  8
200
100
AcDbLine
370
-1
  6
AUSGEZOGEN
 10
782
 20
802.66
 30
0
 11
760.45
 21
781.11
 31
0
  0
LINE
  5
20F
100
AcDbEntity
  8
200
100
AcDbLine
370
-1
  6
AUSGEZOGEN
 10
757.76
 20
778.42
 30
0
 11
788.34
 21
809
 31
0
  0
LINE
  5
210
100
AcDbEntity
  8
200
100
AcDbLine
370
-1
  6
AUSGEZOGEN
 10
794
 20
117
 30
0
 11
794
 21
809
 31
0
  0
LINE
  5
211
100
AcDbEntity
  8
200
100
AcDbLine
370
-1
  6
AUSGEZOGEN
 10
763.42
 20
772.76
 30
0
 11
794
 21
803.34
 31
0
  0
LINE
  5
212
100
AcDbEntity
  8
200
100
AcDbLine
370
-1
  6
AUSGEZOGEN
 10
604.07
 20
691
 30
0
 11
625.93
 21
691
 31
0
  0
LINE
  5
213
100
AcDbEntity
  8
200
100
AcDbLine
370
-1
  6
AUSGEZOGEN
 10
625.94
 20
581
 30
0
 11
604.04
 21
581
 31
0
  0
LINE
  5
214
100
AcDbEntity
  8
200
100
AcDbLine
370
-1
  6
AUSGEZOGEN
 10
670
 20
646.93
 30
0
 11
670
 21
640
 31
0
  0
LINE
  5
215
100
AcDbEntity
  8
200
100
AcDbLine
370
-1
  6
AUSGEZOGEN
 10
670
 20
625.06
 30
0
 11
670
 21
632
 31
0
  0
LINE
  5
216
100
AcDbEntity
  8
200
100
AcDbLine
370
-1
  6
AUSGEZOGEN
 10
560
 20
632
 30
0
 11
560
 21
625.04
 31
0
  0
LINE
  5
217
100
AcDbEntity
  8
200
100
AcDbLine
370
-1
  6
AUSGEZOGEN
 10
560
 20
646.96
 30
0
 11
560
 21
640
 31
0
  0
LINE
  5
218
100
AcDbEntity
  8
200
100
AcDbLine
370
-1
  6
AUSGEZOGEN
 10
646.15
 20
682.63
 30
0
 11
661.62
 21
667.15
 31
0
  0
LINE
  5
219
100
AcDbEntity
  8
200
100
AcDbLine
370
-1
  6
AUSGEZOGEN
 10
568.36
 20
604.85
 30
0
 11
583.85
 21
589.36
 31
0
  0
LINE
  5
21A
100
AcDbEntity
  8
200
100
AcDbLine
370
-1
  6
AUSGEZOGEN
 10
661.63
 20
604.84
 30
0
 11
646.15
 21
589.37
 31
0
  0
LINE
  5
21B
100
AcDbEntity
  8
200
100
AcDbLine
370
-1
  6
AUSGEZOGEN
 10
583.84
 20
682.62
 30
0
 11
568.37
 21
667.15
 31
0
  0
LINE
  5
21C
100
AcDbEntity
  8
200
100
AcDbLine
370
-1
  6
AUSGEZOGEN
 10
670
 20
646.93
 30
0
 11
661.62
 21
667.15
 31
0
  0
LINE
  5
21D
100
AcDbEntity
  8
200
100
AcDbLine
370
-1
  6
AUSGEZOGEN
 10
568.36
 20
604.85
 30
0
 11
560
 21
625.04
 31
0
  0
LINE
  5
21E
100
AcDbEntity
  8
200
100
AcDbLine
370
-1
  6
AUSGEZOGEN
 10
646.15
 20
589.37
 30
0
 11
625.94
 21
581
 31
0
  0
LINE
  5
21F
100
AcDbEntity
  8
200
100
AcDbLine
370
-1
  6
AUSGEZOGEN
 10
583.84
 20
682.62
 30
0
 11
604.07
 21
691
 31
0
  0
LINE
  5
220
100
AcDbEntity
  8
200
100
AcDbLine
370
-1
  6
AUSGEZOGEN
 10
560
 20
646.96
 30
0
 11
568.37
 21
667.15
 31
0
  0
LINE
  5
221
100
AcDbEntity
  8
200
100
AcDbLine
370
-1
  6
AUSGEZOGEN
 10
661.63
 20
604.84
 30
0
 11
670
 21
625.06
 31
0
  0
LINE
  5
222
100
AcDbEntity
  8
200
100
AcDbLine
370
-1
  6
AUSGEZOGEN
 10
625.93
 20
691
 30
0
 11
646.15
 21
682.63
 31
0
  0
LINE
  5
223
100
AcDbEntity
  8
200
100
AcDbLine
370
-1
  6
AUSGEZOGEN
 10
583.85
 20
589.36
 30
0
 11
604.04
 21
581
 31
0
  0
LINE
  5
224
100
AcDbEntity
  8
200
100
AcDbLine
370
-1
  6
AUSGEZOGEN
 10
633.69
 20
663.98
 30
0
 11
621.57
 21
669
 31
0
  0
LINE
  5
225
100
AcDbEntity
  8
200
100
AcDbLine
370
-1
  6
AUSGEZOGEN
 10
642.98
 20
654.69
 30
0
 11
633.69
 21
663.98
 31
0
  0
LINE
  5
226
100
AcDbEntity
  8
200
100
AcDbLine
370
-1
  6
AUSGEZOGEN
 10
648
 20
642.57
 30
0
 11
642.98
 21
654.69
 31
0
  0
LINE
  5
227
100
AcDbEntity
  8
200
100
AcDbLine
370
-1
  6
AUSGEZOGEN
 10
642.98
 20
617.31
 30
0
 11
648
 21
629.43
 31
0
  0
LINE
  5
228
100
AcDbEntity
  8
200
100
AcDbLine
370
-1
  6
AUSGEZOGEN
 10
633.69
 20
608.02
 30
0
 11
642.98
 21
617.31
 31
0
  0
LINE
  5
229
100
AcDbEntity
  8
200
100
AcDbLine
370
-1
  6
AUSGEZOGEN
 10
621.57
 20
603
 30
0
 11
633.69
 21
608.02
 31
0
  0
LINE
  5
22A
100
AcDbEntity
  8
200
100
AcDbLine
370
-1
  6
AUSGEZOGEN
 10
596.31
 20
608.02
 30
0
 11
608.43
 21
603
 31
0
  0
LINE
  5
22B
100
AcDbEntity
  8
200
100
AcDbLine
370
-1
  6
AUSGEZOGEN
 10
587.02
 20
617.31
 30
0
 11
596.31
 21
608.02
 31
0
  0
LINE
  5
22C
100
AcDbEntity
  8
200
100
AcDbLine
370
-1
  6
AUSGEZOGEN
 10
582
 20
629.43
 30
0
 11
587.02
 21
617.31
 31
0
  0
LINE
  5
22D
100
AcDbEntity
  8
200
100
AcDbLine
370
-1
  6
AUSGEZOGEN
 10
582
 20
642.57
 30
0
 11
582
 21
629.43
 31
0
  0
LINE
  5
22E
100
AcDbEntity
  8
200
100
AcDbLine
370
-1
  6
AUSGEZOGEN
 10
587.02
 20
654.69
 30
0
 11
582
 21
642.57
 31
0
  0
LINE
  5
22F
100
AcDbEntity
  8
200
100
AcDbLine
370
-1
  6
AUSGEZOGEN
 10
596.31
 20
663.98
 30
0
 11
587.02
 21
654.69
 31
0
  0
LINE
  5
230
100
AcDbEntity
  8
200
100
AcDbLine
370
-1
  6
AUSGEZOGEN
 10
608.44
 20
669
 30
0
 11
596.31
 21
663.98
 31
0
  0
LINE
  5
231
100
AcDbEntity
  8
200
100
AcDbLine
370
-1
  6
AUSGEZOGEN
 10
621.57
 20
669
 30
0
 11
608.44
 21
669
 31
0
  0
LINE
  5
232
100
AcDbEntity
  8
200
100
AcDbLine
370
-1
  6
AUSGEZOGEN
 10
648
 20
629.43
 30
0
 11
648
 21
642.57
 31
0
  0
LINE
  5
233
100
AcDbEntity
  8
200
100
AcDbLine
370
-1
  6
AUSGEZOGEN
 10
608.43
 20
603
 30
0
 11
621.57
 21
603
 31
0
  0
LINE
  5
234
100
AcDbEntity
  8
200
100
AcDbLine
370
-1
  6
AUSGEZOGEN
 10
15
 20
942
 30
0
 11
815
 21
942
 31
0
  0
LINE
  5
235
100
AcDbEntity
  8
200
100
AcDbLine
370
-1
  6
AUSGEZOGEN
 10
15
 20
22
 30
0
 11
15
 21
942
 31
0
  0
LINE
  5
236
100
AcDbEntity
  8
200
100
AcDbLine
370
-1
  6
AUSGEZOGEN
 10
815
 20
942
 30
0
 11
815
 21
22
 31
0
  0
ATTDEF
  5
238
100
AcDbEntity
  8
0
100
AcDbText
370
-1
 10
0
 20
0
 30
0
 40
1
  1

 50
0
 41
1
 51
0
  7
STANDARD
 71
0
 72
0
 11
0
 21
0
 31
0
100
AcDbAttributeDefinition
  3

  2

 70
0
 74
0
1001
AcDbAttr
1070
0
1070
0
  0
ENDBLK
  5
255
100
AcDbEntity
  8
0
100
AcDbBlockEnd
  0
BLOCK
  5
23E
100
AcDbEntity
  8
450
100
AcDbBlockBegin
  2
INST_BLOCK_00001
 70
2
 10
0
 20
0
 30
0
  3
INST_BLOCK_00001
  1

  0
CIRCLE
  5
20
100
AcDbEntity
  8
450
100
AcDbCircle
370
-1
  6
AUSGEZOGEN
 10
75
 20
905
 30
0
 40
50
  0
LINE
  5
21
100
AcDbEntity
  8
450
100
AcDbLine
370
-1
  6
AUSGEZOGEN
 10
150
 20
905
 30
0
 11
75
 21
905
 31
0
  0
LINE
  5
22
100
AcDbEntity
  8
450
100
AcDbLine
370
-1
  6
AUSGEZOGEN
 10
0
 20
905
 30
0
 11
75
 21
905
 31
0
  0
LINE
  5
23
100
AcDbEntity
  8
450
100
AcDbLine
370
-1
  6
AUSGEZOGEN
 10
75
 20
980
 30
0
 11
75
 21
905
 31
0
  0
LINE
  5
24
100
AcDbEntity
  8
450
100
AcDbLine
370
-1
  6
AUSGEZOGEN
 10
75
 20
830
 30
0
 11
75
 21
905
 31
0
  0
ATTDEF
  5
23D
100
AcDbEntity
  8
0
100
AcDbText
370
-1
 10
0
 20
0
 30
0
 40
1
  1

 50
0
 41
1
 51
0
  7
STANDARD
 71
0
 72
0
 11
0
 21
0
 31
0
100
AcDbAttributeDefinition
  3

  2

 70
0
 74
0
1001
AcDbAttr
1070
0
1070
0
  0
ENDBLK
  5
256
100
AcDbEntity
  8
0
100
AcDbBlockEnd
  0
ENDSEC
  0
SECTION
  2
ENTITIES
  0
LINE
  5
1C
100
AcDbEntity
  8
450
100
AcDbLine
370
-1
  6
AUSGEZOGEN
 10
75
 20
905
 30
0
 11
1001.5
 21
808.5
 31
0
  0
LINE
  5
1F
100
AcDbEntity
  8
450
100
AcDbLine
370
-1
  6
AUSGEZOGEN
 10
1470
 20
808.5
 30
0
 11
1001.5
 21
808.5
 31
0
  0
TEXT
  5
237
100
AcDbEntity
  8
450
100
AcDbText
370
-1
 10
1015
 20
822
 30
0
 40
45
  1
Ga: DN15 1/2" 27kW
 50
0
 41
0.600000023841858
 51
0
  7
STANDARD
 71
0
 72
0
 11
0
 21
0
 31
0
100
AcDbText
 73
0
  0
INSERT
  5
23C
100
AcDbEntity
  8
200
100
AcDbBlockReference
370
-1
  6
BYLAYER
 66
1
  2
GER_BLOCK_00001
 10
0
 20
0
 30
0
 41
1
 42
1
 43
1
  0
ATTRIB
  5
23B
100
AcDbEntity
  8
0
100
AcDbText
370
-1
 10
0
 20
0
 30
0
 40
20
  1

 50
0
 41
1
 51
0
  7
STANDARD
 71
0
 72
0
 11
0
 21
0
 31
0
100
AcDbAttribute
  2

 70
0
 74
0
1001
AcDbAttr
1070
0
1070
0
  0
SEQEND
  5
257
100
AcDbEntity
  8
0
  0
INSERT
  5
241
100
AcDbEntity
  8
450
100
AcDbBlockReference
370
-1
  6
BYLAYER
 66
1
  2
INST_BLOCK_00001
 10
0
 20
0
 30
0
 41
1
 42
1
 43
1
  0
ATTRIB
  5
240
100
AcDbEntity
  8
0
100
AcDbText
370
-1
 10
0
 20
0
 30
0
 40
20
  1

 50
0
 41
1
 51
0
  7
STANDARD
 71
0
 72
0
 11
0
 21
0
 31
0
100
AcDbAttribute
  2

 70
0
 74
0
1001
AcDbAttr
1070
0
1070
0
  0
SEQEND
  5
258
100
AcDbEntity
  8
0
  0
ATTDEF
  5
242
100
AcDbEntity
  8
550
100
AcDbText
370
-1
 10
10
 20
100
 30
0
 40
30
  1

 50
0
 41
1
 51
0
  7
STANDARD
 71
0
 72
0
 11
0
 21
0
 31
0
100
AcDbAttributeDefinition
  3
KBS-10521403
  2
KBS-10521403
 70
1
 74
0
1001
AcDbAttr
1070
0
1070
0
  0
TEXT
  5
243
100
AcDbEntity
  8
510
100
AcDbText
370
-1
 10
10
 20
-45
 30
0
 40
30
  1

 50
0
 41
1
 51
0
  7
STANDARD
 71
0
 72
0
 11
0
 21
0
 31
0
100
AcDbText
 73
0
  0
ENDSEC
  0
SECTION
  2
OBJECTS
  0
DICTIONARY
  5
259
100
AcDbDictionary
  3
ACAD_GROUP
350
25A
  3
ACAD_MATERIAL
350
25B
  3
ACAD_WIPEOUT_VARS
350
25C
  3
ACAD_MLINESTYLE
350
25D
  3
ACAD_LAYOUT
350
25E
  0
DICTIONARY
  5
25A
330
259
100
AcDbDictionary
  0
DICTIONARY
  5
25B
330
259
100
AcDbDictionary
  0
WIPEOUTVARIABLES
  5
25C
330
259
100
AcDbWipeoutVariables
 70
1
  0
DICTIONARY
  5
25D
330
259
100
AcDbDictionary
  3
STANDARD
350
25F
  0
MLINESTYLE
  5
25F
100
AcDbMlineStyle
  2
STANDARD
 70
0
  3

 62
256
 51
90
 52
90
 71
2
 49
0.5
 62
256
  6
ByLayer
 49
-0.5
 62
256
  6
ByLayer
  0
DICTIONARY
  5
25E
100
AcDbDictionary
281
1
  3
Model
350
244
  0
LAYOUT
  5
244
102
{ACAD_REACTORS
330
25E
102
}
330
25E
100
AcDbPlotSettings
  1

  2
none_device
  4

  6

 40
0
 41
0
 42
0
 43
0
 44
0
 45
0
 46
0
 47
0
 48
0
 49
0
 70
1712
 72
1
 73
0
 74
5
 75
16
 76
0
 77
0
 78
100
140
0
141
0
142
1
143
1
147
1
148
0
149
0
100
AcDbLayout
  1
Model
 70
1
 71
1
 10
0
 20
0
 11
1470
 21
980
 12
0
 22
0
 32
0
 14
0
 24
0
 34
0
 15
1470
 25
980
 35
0
146
0
 13
0
 23
0
 33
0
 16
1
 26
0
 36
0
 17
0
 27
1
 37
0
 76
0
330
1E
  0
DICTIONARY
  5
260
100
AcDbDictionary
280
1
  3
XINFO
360
261
  0
XRECORD
  5
261
102
{ACAD_REACTORS
330
260
102
}
330
260
100
AcDbXrecord
280
0
310
8F24010003000900
311
BD87EEF84C5489DE
  0
ENDSEC
  0
EOF
