999
     Created by SWS GmbH, Paderborn, Germany, www.sws-online.de
999
     and  Soft Gold Ltd. www.cadsofttools.com
999

999
SWS-intern Ausgabemassstab:
999
   0.0500
999

999
SWS-intern Koordinatenwerte 1:1:
999
1
999

  0
SECTION
  2
HEADER
  9
$ACADVER
  1
AC1018
  9
$DWGCODEPAGE
  3
ANSI_1252
  9
$CLAYER
  8
0
  9
$CELTYPE
  6
BYLAYER
  9
$CELTSCALE
 40
1
  9
$CELWEIGHT
370
-1
  9
$DIMALT
 70
0
  9
$DIMALTF
 40
1
  9
$DIMPOST
  1

  9
$DIMAPOST
  1

  9
$DIMSCALE
 40
1
  9
$DIMASZ
 40
0.18
  9
$DIMCLRD
 70
0
  9
$DIMCLRE
 70
0
  9
$DIMCLRT
 70
0
  9
$DIMEXE
 40
0.18
  9
$DIMEXO
 40
0.0625
  9
$DIMGAP
 40
0.0625
  9
$DIMLFAC
 40
1
  9
$DIMDEC
 70
4
  9
$DIMTAD
 70
0
  9
$DIMCEN
 40
0.09
  9
$DIMTIH
 70
1
  9
$DIMTIX
 70
0
  9
$DIMTOH
 70
1
  9
$DIMSE1
 70
0
  9
$DIMSE2
 70
0
  9
$DIMSD1
 70
0
  9
$DIMSD2
 70
0
  9
$DIMLWD
 70
-1
  9
$DIMLWE
 70
-1
  9
$DIMSAH
 70
0
  9
$DIMBLK
  1

  9
$DIMBLK1
  1

  9
$DIMBLK2
  1

  9
$DIMLDRBLK
  1

  9
$DIMSTYLE
  2
STANDARD
  9
$DIMTP
 40
0
  9
$DIMTM
 40
0
  9
$DIMTXT
 40
0.18
  9
$DIMLUNIT
 70
2
  9
$DIMDSEP
 70
46
  9
$DIMTXSTY
  7
STANDARD
  9
$TEXTSIZE
 40
0.18
  9
$TEXTSTYLE
  7
STANDARD
  9
$HANDSEED
  5
000000000000011C
  9
$FILLETRAD
 40
0.5
  9
$INSUNITS
 70
4
  9
$LIMMIN
 10
-119.57
 20
-119.625
  9
$LIMMAX
 10
1076.13
 20
1076.625
  9
$FILLMODE
 70
1
  9
$LTSCALE
 40
1
  9
$PSLTSCALE
 70
0
  9
$MEASUREMENT
 70
0
  9
$ATTMODE
 70
1
  9
$PDMODE
 70
0
  9
$PDSIZE
 40
0
  9
$TILEMODE
 70
1
  9
$UCSORG
 10
0
 20
0
 30
0
  9
$UCSXDIR
 10
1
 20
0
 30
0
  9
$UCSYDIR
 10
0
 20
1
 30
0
  9
$INSBASE
 10
0
 20
0
 30
0
  9
$XCLIPFRAME
290
1
  9
$DIMASSOC
280
2
  9
$TDCREATE
 40
2459104.6478774
  9
$TDINDWG
 40
1.04166666666667E-7
  9
$TDUPDATE
 40
2459104.6478775
  0
ENDSEC
  0
SECTION
  2
CLASSES
  0
CLASS
  1
IMAGE
  2
AcDbRasterImage
  3
ISM
 90
2175
 91
1
280
0
281
1
  0
CLASS
  1
IMAGEDEF
  2
AcDbRasterImageDef
  3
ISM
 90
0
 91
1
280
0
281
0
  0
CLASS
  1
WIPEOUT
  2
AcDbWipeout
  3
"WipeOut"
 90
2175
 91
1
280
0
281
1
  0
CLASS
  1
WIPEOUTVARIABLES
  2
AcDbWipeoutVariables
  3
"WipeOut"
 90
0
 91
1
280
0
281
0
  0
CLASS
  1
MPOLYGON
  2
AcDbMPolygon
  3
"AcMPolygonObj15"
 90
3071
 91
1
280
0
281
1
  0
ENDSEC
  0
SECTION
  2
TABLES
  0
TABLE
  2
APPID
  5
FF
100
AcDbSymbolTable
  0
APPID
  5
100
100
AcDbSymbolTableRecord
100
AcDbRegAppTableRecord
  2
ACAD
 70
0
  0
APPID
  5
12
100
AcDbSymbolTableRecord
100
AcDbRegAppTableRecord
  2
CSTINVENTORY
 70
0
  0
APPID
  5
101
100
AcDbSymbolTableRecord
100
AcDbRegAppTableRecord
  2
AcDbAttr
 70
0
  0
APPID
  5
102
100
AcDbSymbolTableRecord
100
AcDbRegAppTableRecord
  2
PE_URL
 70
0
  0
ENDTAB
  0
TABLE
  2
BLOCK_RECORD
  5
103
100
AcDbSymbolTable
  0
BLOCK_RECORD
  5
1E
100
AcDbSymbolTableRecord
100
AcDbBlockTableRecord
  2
*MODEL_SPACE
  0
BLOCK_RECORD
  5
104
100
AcDbSymbolTableRecord
100
AcDbBlockTableRecord
  2
*PAPER_SPACE
  0
BLOCK_RECORD
  5
10
100
AcDbSymbolTableRecord
100
AcDbBlockTableRecord
  2
_CLOSEDFILLED
  0
BLOCK_RECORD
  5
F4
100
AcDbSymbolTableRecord
100
AcDbBlockTableRecord
  2
GER_BLOCK_00001
  0
BLOCK_RECORD
  5
F9
100
AcDbSymbolTableRecord
100
AcDbBlockTableRecord
  2
INST_BLOCK_00001
  0
ENDTAB
  0
TABLE
  2
STYLE
  5
3
100
AcDbSymbolTable
  0
STYLE
  5
A
100
AcDbSymbolTableRecord
100
AcDbTextStyleTableRecord
  2
STANDARD
 70
0
 40
0
 41
1
 50
0
 71
0
 42
30
  3
TXT.SHX
  4

1001
ACAD
1000
txt
1071
0
  0
ENDTAB
  0
TABLE
  2
LTYPE
  5
1
100
AcDbSymbolTable
  0
LTYPE
  5
9
100
AcDbSymbolTableRecord
100
AcDbLinetypeTableRecord
  2
CONTINUOUS
 70
0
  3

 72
65
 73
0
 40
0
  0
LTYPE
  5
7
100
AcDbSymbolTableRecord
100
AcDbLinetypeTableRecord
  2
BYLAYER
 70
0
  3

 72
65
 73
0
 40
0
  0
LTYPE
  5
8
100
AcDbSymbolTableRecord
100
AcDbLinetypeTableRecord
  2
BYBLOCK
 70
0
  3

 72
65
 73
0
 40
0
  0
LTYPE
  5
13
100
AcDbSymbolTableRecord
100
AcDbLinetypeTableRecord
  2
AUSGEZOGEN
 70
0
  3
.
 72
65
 73
1
 40
0
 49
0
 74
0
  0
LTYPE
  5
14
100
AcDbSymbolTableRecord
100
AcDbLinetypeTableRecord
  2
PUNKTIERT
 70
0
  3
. 
 72
65
 73
2
 40
30
 49
0
 74
0
 49
-30
 74
0
  0
LTYPE
  5
15
100
AcDbSymbolTableRecord
100
AcDbLinetypeTableRecord
  2
GESTRICHELT
 70
0
  3
_ 
 72
65
 73
2
 40
80
 49
50
 74
0
 49
-30
 74
0
  0
LTYPE
  5
16
100
AcDbSymbolTableRecord
100
AcDbLinetypeTableRecord
  2
STRICHPUNKT
 70
0
  3
_ . 
 72
65
 73
4
 40
160
 49
100
 74
0
 49
-30
 74
0
 49
0
 74
0
 49
-30
 74
0
  0
LTYPE
  5
17
100
AcDbSymbolTableRecord
100
AcDbLinetypeTableRecord
  2
GETRENNT
 70
0
  3
_ . . 
 72
65
 73
6
 40
190
 49
100
 74
0
 49
-30
 74
0
 49
0
 74
0
 49
-30
 74
0
 49
0
 74
0
 49
-30
 74
0
  0
ENDTAB
  0
TABLE
  2
LAYER
  5
2
100
AcDbSymbolTable
  0
LAYER
  5
E
100
AcDbSymbolTableRecord
100
AcDbLayerTableRecord
  2
0
 70
0
 62
1
420
16711680
  6
AUSGEZOGEN
290
1
370
-3
390
0
  0
LAYER
  5
18
100
AcDbSymbolTableRecord
100
AcDbLayerTableRecord
  2
550
 70
0
 62
2
420
16776960
  6
AUSGEZOGEN
290
1
370
-3
390
0
  0
LAYER
  5
19
100
AcDbSymbolTableRecord
100
AcDbLayerTableRecord
  2
510
 70
0
 62
2
420
16776960
  6
AUSGEZOGEN
290
1
370
-3
390
0
  0
LAYER
  5
1A
100
AcDbSymbolTableRecord
100
AcDbLayerTableRecord
  2
200
 70
0
 62
7
  6
AUSGEZOGEN
290
1
370
-3
390
0
  0
LAYER
  5
1B
100
AcDbSymbolTableRecord
100
AcDbLayerTableRecord
  2
450
 70
0
 62
2
420
16776960
  6
AUSGEZOGEN
290
1
370
-3
390
0
  0
ENDTAB
  0
TABLE
  2
VPORT
  5
105
100
AcDbSymbolTable
  0
VPORT
  5
107
100
AcDbSymbolTableRecord
100
AcDbViewportTableRecord
  2
*ACTIVE
 70
0
 10
0
 20
0
 11
1
 21
1
 12
478.28
 22
478.5
 32
0
 13
0
 23
0
 14
1
 24
1
 15
1
 25
1
 16
0
 26
0
 36
1
 17
0
 27
0
 37
0
 40
957
 41
0.999540229885057
 42
50
 43
0
 44
0
 50
0
 51
0
 71
0
 72
100
 73
1
 74
1
 75
0
 76
0
 77
0
 78
0
  0
ENDTAB
  0
TABLE
  2
VIEW
  5
108
100
AcDbSymbolTable
  0
ENDTAB
  0
TABLE
  2
UCS
  5
109
100
AcDbSymbolTable
  0
ENDTAB
  0
TABLE
  2
DIMSTYLE
  5
4
100
AcDbSymbolTable
 70
1
100
AcDbDimStyleTable
 71
0
  0
DIMSTYLE
105
B
100
AcDbSymbolTableRecord
100
AcDbDimStyleTableRecord
  2
STANDARD
 70
0
  3

 40
1
 41
0.18
 42
0.0625
 44
0.18
 47
0
 48
0
 73
1
 74
1
 75
0
 76
0
 77
0
140
0.18
141
0.09
144
1
147
0.0625
173
0
174
0
176
0
177
0
178
0
277
2
278
46
281
0
282
0
271
4
340
A
371
-1
372
-1
  0
ENDTAB
  0
ENDSEC
  0
SECTION
  2
BLOCKS
  0
BLOCK
  5
10A
100
AcDbEntity
  8
0
100
AcDbBlockBegin
  2
*MODEL_SPACE
 70
0
 10
0
 20
0
  0
ENDBLK
  5
10B
100
AcDbEntity
  8
0
100
AcDbBlockEnd
  0
BLOCK
  5
10C
100
AcDbEntity
  8
0
100
AcDbBlockBegin
  2
*PAPER_SPACE
 70
0
 10
0
 20
0
  0
ENDBLK
  5
10D
100
AcDbEntity
  8
0
100
AcDbBlockEnd
  0
BLOCK
  5
F
100
AcDbEntity
  8
0
100
AcDbBlockBegin
  2
_CLOSEDFILLED
 70
0
 10
0
 20
0
 30
0
  3
_CLOSEDFILLED
  1

  0
SOLID
  5
C
100
AcDbEntity
  8
0
100
AcDbTrace
370
-2
 62
0
 10
-1
 20
0.166666666666667
 30
0
 11
0
 21
0
 31
0
 12
-1
 22
0.166666666666667
 32
0
 13
-1
 23
-0.166666666666667
 33
0
  0
LINE
  5
D
100
AcDbEntity
  8
0
100
AcDbLine
370
-2
 62
0
 10
-1
 20
0
 30
0
 11
-2
 21
0
 31
0
  0
ENDBLK
  5
10E
100
AcDbEntity
  8
0
100
AcDbBlockEnd
  0
BLOCK
  5
F3
100
AcDbEntity
  8
200
100
AcDbBlockBegin
  2
GER_BLOCK_00001
 70
2
 10
0
 20
0
 30
0
  3
GER_BLOCK_00001
  1

  0
LINE
  5
25
100
AcDbEntity
  8
200
100
AcDbLine
370
-1
  6
AUSGEZOGEN
 10
415
 20
812.33
 30
0
 11
15
 21
812.33
 31
0
  0
LINE
  5
26
100
AcDbEntity
  8
200
100
AcDbLine
370
-1
  6
AUSGEZOGEN
 10
15
 20
675.63
 30
0
 11
415
 21
675.63
 31
0
  0
LINE
  5
27
100
AcDbEntity
  8
200
100
AcDbLine
370
-1
  6
AUSGEZOGEN
 10
415
 20
625
 30
0
 11
15
 21
625
 31
0
  0
LINE
  5
28
100
AcDbEntity
  8
200
100
AcDbLine
370
-1
  6
AUSGEZOGEN
 10
316
 20
0
 30
0
 11
316
 21
40
 31
0
  0
LINE
  5
29
100
AcDbEntity
  8
200
100
AcDbLine
370
-1
  6
AUSGEZOGEN
 10
366
 20
40
 30
0
 11
366
 21
0
 31
0
  0
LINE
  5
2A
100
AcDbEntity
  8
200
100
AcDbLine
370
-1
  6
AUSGEZOGEN
 10
316
 20
0
 30
0
 11
366
 21
0
 31
0
  0
LINE
  5
2B
100
AcDbEntity
  8
200
100
AcDbLine
370
-1
  6
AUSGEZOGEN
 10
312
 20
150
 30
0
 11
312
 21
40
 31
0
  0
LINE
  5
2C
100
AcDbEntity
  8
200
100
AcDbLine
370
-1
  6
AUSGEZOGEN
 10
370
 20
40
 30
0
 11
370
 21
150
 31
0
  0
LINE
  5
2D
100
AcDbEntity
  8
200
100
AcDbLine
370
-1
  6
AUSGEZOGEN
 10
312
 20
40
 30
0
 11
370
 21
40
 31
0
  0
LINE
  5
2E
100
AcDbEntity
  8
200
100
AcDbLine
370
-1
  6
AUSGEZOGEN
 10
64
 20
0
 30
0
 11
64
 21
40
 31
0
  0
LINE
  5
2F
100
AcDbEntity
  8
200
100
AcDbLine
370
-1
  6
AUSGEZOGEN
 10
114
 20
40
 30
0
 11
114
 21
0
 31
0
  0
LINE
  5
30
100
AcDbEntity
  8
200
100
AcDbLine
370
-1
  6
AUSGEZOGEN
 10
64
 20
0
 30
0
 11
114
 21
0
 31
0
  0
LINE
  5
31
100
AcDbEntity
  8
200
100
AcDbLine
370
-1
  6
AUSGEZOGEN
 10
60
 20
150
 30
0
 11
60
 21
40
 31
0
  0
LINE
  5
32
100
AcDbEntity
  8
200
100
AcDbLine
370
-1
  6
AUSGEZOGEN
 10
415
 20
150
 30
0
 11
15
 21
150
 31
0
  0
LINE
  5
33
100
AcDbEntity
  8
200
100
AcDbLine
370
-1
  6
AUSGEZOGEN
 10
118
 20
40
 30
0
 11
118
 21
150
 31
0
  0
LINE
  5
34
100
AcDbEntity
  8
200
100
AcDbLine
370
-1
  6
AUSGEZOGEN
 10
60
 20
40
 30
0
 11
118
 21
40
 31
0
  0
LINE
  5
35
100
AcDbEntity
  8
200
100
AcDbLine
370
-1
  6
AUSGEZOGEN
 10
310.56
 20
793.61
 30
0
 11
309
 21
793.15
 31
0
  0
LINE
  5
36
100
AcDbEntity
  8
200
100
AcDbLine
370
-1
  6
AUSGEZOGEN
 10
325.44
 20
793.61
 30
0
 11
310.56
 21
793.61
 31
0
  0
LINE
  5
37
100
AcDbEntity
  8
200
100
AcDbLine
370
-1
  6
AUSGEZOGEN
 10
327
 20
793.15
 30
0
 11
325.44
 21
793.61
 31
0
  0
LINE
  5
38
100
AcDbEntity
  8
200
100
AcDbLine
370
-1
  6
AUSGEZOGEN
 10
325.44
 20
715.05
 30
0
 11
327
 21
715.51
 31
0
  0
LINE
  5
39
100
AcDbEntity
  8
200
100
AcDbLine
370
-1
  6
AUSGEZOGEN
 10
310.56
 20
715.05
 30
0
 11
325.44
 21
715.05
 31
0
  0
LINE
  5
3A
100
AcDbEntity
  8
200
100
AcDbLine
370
-1
  6
AUSGEZOGEN
 10
309
 20
715.51
 30
0
 11
310.56
 21
715.05
 31
0
  0
LINE
  5
3B
100
AcDbEntity
  8
200
100
AcDbLine
370
-1
  6
AUSGEZOGEN
 10
327
 20
701.28
 30
0
 11
325.44
 21
700.81
 31
0
  0
LINE
  5
3C
100
AcDbEntity
  8
200
100
AcDbLine
370
-1
  6
AUSGEZOGEN
 10
309
 20
701.28
 30
0
 11
310.56
 21
700.81
 31
0
  0
LINE
  5
3D
100
AcDbEntity
  8
200
100
AcDbLine
370
-1
  6
AUSGEZOGEN
 10
275.6
 20
763.48
 30
0
 11
271
 21
750.55
 31
0
  0
LINE
  5
3E
100
AcDbEntity
  8
200
100
AcDbLine
370
-1
  6
AUSGEZOGEN
 10
284.36
 20
774.48
 30
0
 11
275.6
 21
763.48
 31
0
  0
LINE
  5
3F
100
AcDbEntity
  8
200
100
AcDbLine
370
-1
  6
AUSGEZOGEN
 10
296.4
 20
782.48
 30
0
 11
284.36
 21
774.48
 31
0
  0
LINE
  5
40
100
AcDbEntity
  8
200
100
AcDbLine
370
-1
  6
AUSGEZOGEN
 10
309
 20
786.23
 30
0
 11
296.4
 21
782.48
 31
0
  0
LINE
  5
41
100
AcDbEntity
  8
200
100
AcDbLine
370
-1
  6
AUSGEZOGEN
 10
339.6
 20
782.48
 30
0
 11
327
 21
786.23
 31
0
  0
LINE
  5
42
100
AcDbEntity
  8
200
100
AcDbLine
370
-1
  6
AUSGEZOGEN
 10
351.64
 20
774.48
 30
0
 11
339.6
 21
782.48
 31
0
  0
LINE
  5
43
100
AcDbEntity
  8
200
100
AcDbLine
370
-1
  6
AUSGEZOGEN
 10
360.4
 20
763.48
 30
0
 11
351.64
 21
774.48
 31
0
  0
LINE
  5
44
100
AcDbEntity
  8
200
100
AcDbLine
370
-1
  6
AUSGEZOGEN
 10
365
 20
750.55
 30
0
 11
360.4
 21
763.48
 31
0
  0
LINE
  5
45
100
AcDbEntity
  8
200
100
AcDbLine
370
-1
  6
AUSGEZOGEN
 10
296.4
 20
705.01
 30
0
 11
310.56
 21
700.81
 31
0
  0
LINE
  5
46
100
AcDbEntity
  8
200
100
AcDbLine
370
-1
  6
AUSGEZOGEN
 10
284.36
 20
713.02
 30
0
 11
296.4
 21
705.01
 31
0
  0
LINE
  5
47
100
AcDbEntity
  8
200
100
AcDbLine
370
-1
  6
AUSGEZOGEN
 10
275.6
 20
724.02
 30
0
 11
284.36
 21
713.02
 31
0
  0
LINE
  5
48
100
AcDbEntity
  8
200
100
AcDbLine
370
-1
  6
AUSGEZOGEN
 10
271
 20
736.95
 30
0
 11
275.6
 21
724.02
 31
0
  0
LINE
  5
49
100
AcDbEntity
  8
200
100
AcDbLine
370
-1
  6
AUSGEZOGEN
 10
365
 20
750.55
 30
0
 11
365
 21
736.14
 31
0
  0
LINE
  5
4A
100
AcDbEntity
  8
200
100
AcDbLine
370
-1
  6
AUSGEZOGEN
 10
360.4
 20
723.2
 30
0
 11
365
 21
736.14
 31
0
  0
LINE
  5
4B
100
AcDbEntity
  8
200
100
AcDbLine
370
-1
  6
AUSGEZOGEN
 10
365
 20
736.95
 30
0
 11
360.4
 21
724.02
 31
0
  0
LINE
  5
4C
100
AcDbEntity
  8
200
100
AcDbLine
370
-1
  6
AUSGEZOGEN
 10
351.64
 20
712.2
 30
0
 11
360.4
 21
723.2
 31
0
  0
LINE
  5
4D
100
AcDbEntity
  8
200
100
AcDbLine
370
-1
  6
AUSGEZOGEN
 10
360.4
 20
724.02
 30
0
 11
351.64
 21
713.02
 31
0
  0
LINE
  5
4E
100
AcDbEntity
  8
200
100
AcDbLine
370
-1
  6
AUSGEZOGEN
 10
339.6
 20
704.2
 30
0
 11
351.64
 21
712.2
 31
0
  0
LINE
  5
4F
100
AcDbEntity
  8
200
100
AcDbLine
370
-1
  6
AUSGEZOGEN
 10
351.64
 20
713.02
 30
0
 11
339.6
 21
705.01
 31
0
  0
LINE
  5
50
100
AcDbEntity
  8
200
100
AcDbLine
370
-1
  6
AUSGEZOGEN
 10
325.44
 20
700
 30
0
 11
339.6
 21
704.2
 31
0
  0
LINE
  5
51
100
AcDbEntity
  8
200
100
AcDbLine
370
-1
  6
AUSGEZOGEN
 10
339.6
 20
705.01
 30
0
 11
325.44
 21
700.81
 31
0
  0
LINE
  5
52
100
AcDbEntity
  8
200
100
AcDbLine
370
-1
  6
AUSGEZOGEN
 10
310.56
 20
700
 30
0
 11
325.44
 21
700
 31
0
  0
LINE
  5
53
100
AcDbEntity
  8
200
100
AcDbLine
370
-1
  6
AUSGEZOGEN
 10
325.44
 20
700.81
 30
0
 11
310.56
 21
700.81
 31
0
  0
LINE
  5
54
100
AcDbEntity
  8
200
100
AcDbLine
370
-1
  6
AUSGEZOGEN
 10
296.4
 20
704.2
 30
0
 11
310.56
 21
700
 31
0
  0
LINE
  5
55
100
AcDbEntity
  8
200
100
AcDbLine
370
-1
  6
AUSGEZOGEN
 10
284.36
 20
712.2
 30
0
 11
296.4
 21
704.2
 31
0
  0
LINE
  5
56
100
AcDbEntity
  8
200
100
AcDbLine
370
-1
  6
AUSGEZOGEN
 10
275.6
 20
723.2
 30
0
 11
284.36
 21
712.2
 31
0
  0
LINE
  5
57
100
AcDbEntity
  8
200
100
AcDbLine
370
-1
  6
AUSGEZOGEN
 10
271
 20
736.14
 30
0
 11
275.6
 21
723.2
 31
0
  0
LINE
  5
58
100
AcDbEntity
  8
200
100
AcDbLine
370
-1
  6
AUSGEZOGEN
 10
271
 20
750.55
 30
0
 11
271
 21
736.14
 31
0
  0
LINE
  5
59
100
AcDbEntity
  8
200
100
AcDbLine
370
-1
  6
AUSGEZOGEN
 10
335
 20
779.94
 30
0
 11
327
 21
782.31
 31
0
  0
LINE
  5
5A
100
AcDbEntity
  8
200
100
AcDbLine
370
-1
  6
AUSGEZOGEN
 10
344.48
 20
773.63
 30
0
 11
335
 21
779.94
 31
0
  0
LINE
  5
5B
100
AcDbEntity
  8
200
100
AcDbLine
370
-1
  6
AUSGEZOGEN
 10
351.38
 20
764.97
 30
0
 11
344.48
 21
773.63
 31
0
  0
LINE
  5
5C
100
AcDbEntity
  8
200
100
AcDbLine
370
-1
  6
AUSGEZOGEN
 10
355
 20
754.8
 30
0
 11
351.38
 21
764.97
 31
0
  0
LINE
  5
5D
100
AcDbEntity
  8
200
100
AcDbLine
370
-1
  6
AUSGEZOGEN
 10
351.38
 20
733.91
 30
0
 11
355
 21
744.09
 31
0
  0
LINE
  5
5E
100
AcDbEntity
  8
200
100
AcDbLine
370
-1
  6
AUSGEZOGEN
 10
355
 20
754.8
 30
0
 11
355
 21
738.4
 31
0
  0
LINE
  5
5F
100
AcDbEntity
  8
200
100
AcDbLine
370
-1
  6
AUSGEZOGEN
 10
351.38
 20
728.22
 30
0
 11
355
 21
738.4
 31
0
  0
LINE
  5
60
100
AcDbEntity
  8
200
100
AcDbLine
370
-1
  6
AUSGEZOGEN
 10
344.48
 20
719.56
 30
0
 11
351.38
 21
728.22
 31
0
  0
LINE
  5
61
100
AcDbEntity
  8
200
100
AcDbLine
370
-1
  6
AUSGEZOGEN
 10
351.38
 20
733.91
 30
0
 11
344.48
 21
725.25
 31
0
  0
LINE
  5
62
100
AcDbEntity
  8
200
100
AcDbLine
370
-1
  6
AUSGEZOGEN
 10
335
 20
713.25
 30
0
 11
344.48
 21
719.56
 31
0
  0
LINE
  5
63
100
AcDbEntity
  8
200
100
AcDbLine
370
-1
  6
AUSGEZOGEN
 10
344.48
 20
725.25
 30
0
 11
335
 21
718.95
 31
0
  0
LINE
  5
64
100
AcDbEntity
  8
200
100
AcDbLine
370
-1
  6
AUSGEZOGEN
 10
327
 20
710.88
 30
0
 11
335
 21
713.25
 31
0
  0
LINE
  5
65
100
AcDbEntity
  8
200
100
AcDbLine
370
-1
  6
AUSGEZOGEN
 10
327
 20
793.15
 30
0
 11
327
 21
701.28
 31
0
  0
LINE
  5
66
100
AcDbEntity
  8
200
100
AcDbLine
370
-1
  6
AUSGEZOGEN
 10
335
 20
718.95
 30
0
 11
327
 21
716.57
 31
0
  0
LINE
  5
67
100
AcDbEntity
  8
200
100
AcDbLine
370
-1
  6
AUSGEZOGEN
 10
284.62
 20
764.97
 30
0
 11
281
 21
754.8
 31
0
  0
LINE
  5
68
100
AcDbEntity
  8
200
100
AcDbLine
370
-1
  6
AUSGEZOGEN
 10
291.52
 20
773.63
 30
0
 11
284.62
 21
764.97
 31
0
  0
LINE
  5
69
100
AcDbEntity
  8
200
100
AcDbLine
370
-1
  6
AUSGEZOGEN
 10
301
 20
779.94
 30
0
 11
291.52
 21
773.63
 31
0
  0
LINE
  5
6A
100
AcDbEntity
  8
200
100
AcDbLine
370
-1
  6
AUSGEZOGEN
 10
309
 20
782.31
 30
0
 11
301
 21
779.94
 31
0
  0
LINE
  5
6B
100
AcDbEntity
  8
200
100
AcDbLine
370
-1
  6
AUSGEZOGEN
 10
301
 20
718.95
 30
0
 11
309
 21
716.57
 31
0
  0
LINE
  5
6C
100
AcDbEntity
  8
200
100
AcDbLine
370
-1
  6
AUSGEZOGEN
 10
291.52
 20
725.25
 30
0
 11
301
 21
718.95
 31
0
  0
LINE
  5
6D
100
AcDbEntity
  8
200
100
AcDbLine
370
-1
  6
AUSGEZOGEN
 10
284.62
 20
733.91
 30
0
 11
291.52
 21
725.25
 31
0
  0
LINE
  5
6E
100
AcDbEntity
  8
200
100
AcDbLine
370
-1
  6
AUSGEZOGEN
 10
281
 20
744.09
 30
0
 11
284.62
 21
733.91
 31
0
  0
LINE
  5
6F
100
AcDbEntity
  8
200
100
AcDbLine
370
-1
  6
AUSGEZOGEN
 10
309
 20
710.88
 30
0
 11
301
 21
713.25
 31
0
  0
LINE
  5
70
100
AcDbEntity
  8
200
100
AcDbLine
370
-1
  6
AUSGEZOGEN
 10
309
 20
793.15
 30
0
 11
309
 21
701.28
 31
0
  0
LINE
  5
71
100
AcDbEntity
  8
200
100
AcDbLine
370
-1
  6
AUSGEZOGEN
 10
291.52
 20
719.56
 30
0
 11
301
 21
713.25
 31
0
  0
LINE
  5
72
100
AcDbEntity
  8
200
100
AcDbLine
370
-1
  6
AUSGEZOGEN
 10
284.62
 20
728.22
 30
0
 11
291.52
 21
719.56
 31
0
  0
LINE
  5
73
100
AcDbEntity
  8
200
100
AcDbLine
370
-1
  6
AUSGEZOGEN
 10
281
 20
738.4
 30
0
 11
284.62
 21
728.22
 31
0
  0
LINE
  5
74
100
AcDbEntity
  8
200
100
AcDbLine
370
-1
  6
AUSGEZOGEN
 10
281
 20
754.8
 30
0
 11
281
 21
738.4
 31
0
  0
LINE
  5
75
100
AcDbEntity
  8
200
100
AcDbLine
370
-1
  6
AUSGEZOGEN
 10
234.18
 20
700
 30
0
 11
243.82
 21
700
 31
0
  0
LINE
  5
76
100
AcDbEntity
  8
200
100
AcDbLine
370
-1
  6
AUSGEZOGEN
 10
221
 20
720.85
 30
0
 11
221
 21
712.04
 31
0
  0
LINE
  5
77
100
AcDbEntity
  8
200
100
AcDbLine
370
-1
  6
AUSGEZOGEN
 10
226
 20
728.57
 30
0
 11
221
 21
720.85
 31
0
  0
LINE
  5
78
100
AcDbEntity
  8
200
100
AcDbLine
370
-1
  6
AUSGEZOGEN
 10
257
 20
712.04
 30
0
 11
257
 21
720.85
 31
0
  0
LINE
  5
79
100
AcDbEntity
  8
200
100
AcDbLine
370
-1
  6
AUSGEZOGEN
 10
252
 20
728.57
 30
0
 11
257
 21
720.85
 31
0
  0
LINE
  5
7A
100
AcDbEntity
  8
200
100
AcDbLine
370
-1
  6
AUSGEZOGEN
 10
243.82
 20
700
 30
0
 11
252.18
 21
704.41
 31
0
  0
LINE
  5
7B
100
AcDbEntity
  8
200
100
AcDbLine
370
-1
  6
AUSGEZOGEN
 10
248.52
 20
716.7
 30
0
 11
242.48
 21
713.52
 31
0
  0
LINE
  5
7C
100
AcDbEntity
  8
200
100
AcDbLine
370
-1
  6
AUSGEZOGEN
 10
225.82
 20
704.41
 30
0
 11
221
 21
712.04
 31
0
  0
LINE
  5
7D
100
AcDbEntity
  8
200
100
AcDbLine
370
-1
  6
AUSGEZOGEN
 10
226
 20
722.21
 30
0
 11
229.48
 21
716.7
 31
0
  0
LINE
  5
7E
100
AcDbEntity
  8
200
100
AcDbLine
370
-1
  6
AUSGEZOGEN
 10
252.18
 20
728.49
 30
0
 11
257
 21
720.85
 31
0
  0
LINE
  5
7F
100
AcDbEntity
  8
200
100
AcDbLine
370
-1
  6
AUSGEZOGEN
 10
221
 20
720.85
 30
0
 11
225.82
 21
728.49
 31
0
  0
LINE
  5
80
100
AcDbEntity
  8
200
100
AcDbLine
370
-1
  6
AUSGEZOGEN
 10
252
 20
722.21
 30
0
 11
248.52
 21
716.7
 31
0
  0
LINE
  5
81
100
AcDbEntity
  8
200
100
AcDbLine
370
-1
  6
AUSGEZOGEN
 10
252.18
 20
704.41
 30
0
 11
257
 21
712.04
 31
0
  0
LINE
  5
82
100
AcDbEntity
  8
200
100
AcDbLine
370
-1
  6
AUSGEZOGEN
 10
225.82
 20
704.41
 30
0
 11
234.18
 21
700
 31
0
  0
LINE
  5
83
100
AcDbEntity
  8
200
100
AcDbLine
370
-1
  6
AUSGEZOGEN
 10
235.52
 20
713.52
 30
0
 11
229.48
 21
716.7
 31
0
  0
CIRCLE
  5
84
100
AcDbEntity
  8
200
100
AcDbCircle
370
-1
  6
AUSGEZOGEN
 10
239
 20
726.61
 30
0
 40
9.13
  0
LINE
  5
85
100
AcDbEntity
  8
200
100
AcDbLine
370
-1
  6
AUSGEZOGEN
 10
235.52
 20
713.52
 30
0
 11
242.48
 21
713.52
 31
0
  0
LINE
  5
86
100
AcDbEntity
  8
200
100
AcDbLine
370
-1
  6
AUSGEZOGEN
 10
242.48
 20
737.27
 30
0
 11
235.52
 21
737.27
 31
0
  0
LINE
  5
87
100
AcDbEntity
  8
200
100
AcDbLine
370
-1
  6
AUSGEZOGEN
 10
226
 20
722.21
 30
0
 11
226
 21
728.57
 31
0
  0
LINE
  5
88
100
AcDbEntity
  8
200
100
AcDbLine
370
-1
  6
AUSGEZOGEN
 10
252
 20
728.57
 30
0
 11
252
 21
722.21
 31
0
  0
LINE
  5
89
100
AcDbEntity
  8
200
100
AcDbLine
370
-1
  6
AUSGEZOGEN
 10
229.48
 20
734.09
 30
0
 11
235.52
 21
737.27
 31
0
  0
LINE
  5
8A
100
AcDbEntity
  8
200
100
AcDbLine
370
-1
  6
AUSGEZOGEN
 10
226
 20
728.57
 30
0
 11
229.48
 21
734.09
 31
0
  0
LINE
  5
8B
100
AcDbEntity
  8
200
100
AcDbLine
370
-1
  6
AUSGEZOGEN
 10
248.52
 20
734.09
 30
0
 11
242.48
 21
737.27
 31
0
  0
LINE
  5
8C
100
AcDbEntity
  8
200
100
AcDbLine
370
-1
  6
AUSGEZOGEN
 10
415
 20
936
 30
0
 11
365
 21
936
 31
0
  0
LINE
  5
8D
100
AcDbEntity
  8
200
100
AcDbLine
370
-1
  6
AUSGEZOGEN
 10
239.24
 20
936
 30
0
 11
357
 21
936
 31
0
  0
LINE
  5
8E
100
AcDbEntity
  8
200
100
AcDbLine
370
-1
  6
AUSGEZOGEN
 10
73
 20
936
 30
0
 11
190.76
 21
936
 31
0
  0
LINE
  5
8F
100
AcDbEntity
  8
200
100
AcDbLine
370
-1
  6
AUSGEZOGEN
 10
15
 20
936
 30
0
 11
65
 21
936
 31
0
  0
LINE
  5
90
100
AcDbEntity
  8
200
100
AcDbLine
370
-1
  6
AUSGEZOGEN
 10
73.41
 20
956.11
 30
0
 11
15
 21
956.11
 31
0
  0
LINE
  5
91
100
AcDbEntity
  8
200
100
AcDbLine
370
-1
  6
AUSGEZOGEN
 10
415
 20
956.11
 30
0
 11
356.59
 21
956.11
 31
0
  0
LINE
  5
92
100
AcDbEntity
  8
200
100
AcDbLine
370
-1
  6
AUSGEZOGEN
 10
365
 20
918
 30
0
 11
415
 21
918
 31
0
  0
LINE
  5
93
100
AcDbEntity
  8
200
100
AcDbLine
370
-1
  6
AUSGEZOGEN
 10
231
 20
918
 30
0
 11
357
 21
918
 31
0
  0
LINE
  5
94
100
AcDbEntity
  8
200
100
AcDbLine
370
-1
  6
AUSGEZOGEN
 10
223.2
 20
918
 30
0
 11
226
 21
918
 31
0
  0
LINE
  5
95
100
AcDbEntity
  8
200
100
AcDbLine
370
-1
  6
AUSGEZOGEN
 10
204
 20
918
 30
0
 11
206.8
 21
918
 31
0
  0
LINE
  5
96
100
AcDbEntity
  8
200
100
AcDbLine
370
-1
  6
AUSGEZOGEN
 10
73
 20
918
 30
0
 11
199
 21
918
 31
0
  0
LINE
  5
97
100
AcDbEntity
  8
200
100
AcDbLine
370
-1
  6
AUSGEZOGEN
 10
15
 20
918
 30
0
 11
65
 21
918
 31
0
  0
LINE
  5
98
100
AcDbEntity
  8
200
100
AcDbLine
370
-1
  6
AUSGEZOGEN
 10
97
 20
939.68
 30
0
 11
73
 21
939.68
 31
0
  0
LINE
  5
99
100
AcDbEntity
  8
200
100
AcDbLine
370
-1
  6
AUSGEZOGEN
 10
67
 20
954.43
 30
0
 11
67
 21
951.93
 31
0
  0
LINE
  5
9A
100
AcDbEntity
  8
200
100
AcDbLine
370
-1
  6
AUSGEZOGEN
 10
70.04
 20
954.43
 30
0
 11
67
 21
954.43
 31
0
  0
LINE
  5
9B
100
AcDbEntity
  8
200
100
AcDbLine
370
-1
  6
AUSGEZOGEN
 10
97
 20
938.68
 30
0
 11
97
 21
948.7
 31
0
  0
LINE
  5
9C
100
AcDbEntity
  8
200
100
AcDbLine
370
-1
  6
AUSGEZOGEN
 10
135
 20
939.68
 30
0
 11
105
 21
939.68
 31
0
  0
LINE
  5
9D
100
AcDbEntity
  8
200
100
AcDbLine
370
-1
  6
AUSGEZOGEN
 10
105
 20
948.7
 30
0
 11
105
 21
938.68
 31
0
  0
LINE
  5
9E
100
AcDbEntity
  8
200
100
AcDbLine
370
-1
  6
AUSGEZOGEN
 10
135
 20
938.68
 30
0
 11
135
 21
948.7
 31
0
  0
LINE
  5
9F
100
AcDbEntity
  8
200
100
AcDbLine
370
-1
  6
AUSGEZOGEN
 10
173
 20
939.68
 30
0
 11
143
 21
939.68
 31
0
  0
LINE
  5
A0
100
AcDbEntity
  8
200
100
AcDbLine
370
-1
  6
AUSGEZOGEN
 10
143
 20
948.7
 30
0
 11
143
 21
938.68
 31
0
  0
LINE
  5
A1
100
AcDbEntity
  8
200
100
AcDbLine
370
-1
  6
AUSGEZOGEN
 10
173
 20
938.68
 30
0
 11
173
 21
948.7
 31
0
  0
LINE
  5
A2
100
AcDbEntity
  8
200
100
AcDbLine
370
-1
  6
AUSGEZOGEN
 10
190
 20
939.68
 30
0
 11
181
 21
939.68
 31
0
  0
LINE
  5
A3
100
AcDbEntity
  8
200
100
AcDbLine
370
-1
  6
AUSGEZOGEN
 10
181
 20
948.7
 30
0
 11
181
 21
938.68
 31
0
  0
LINE
  5
A4
100
AcDbEntity
  8
200
100
AcDbLine
370
-1
  6
AUSGEZOGEN
 10
249
 20
939.68
 30
0
 11
240
 21
939.68
 31
0
  0
LINE
  5
A5
100
AcDbEntity
  8
200
100
AcDbLine
370
-1
  6
AUSGEZOGEN
 10
249
 20
948.7
 30
0
 11
249
 21
938.68
 31
0
  0
LINE
  5
A6
100
AcDbEntity
  8
200
100
AcDbLine
370
-1
  6
AUSGEZOGEN
 10
287
 20
939.68
 30
0
 11
257
 21
939.68
 31
0
  0
LINE
  5
A7
100
AcDbEntity
  8
200
100
AcDbLine
370
-1
  6
AUSGEZOGEN
 10
257
 20
948.7
 30
0
 11
257
 21
938.68
 31
0
  0
LINE
  5
A8
100
AcDbEntity
  8
200
100
AcDbLine
370
-1
  6
AUSGEZOGEN
 10
287
 20
938.68
 30
0
 11
287
 21
948.7
 31
0
  0
LINE
  5
A9
100
AcDbEntity
  8
200
100
AcDbLine
370
-1
  6
AUSGEZOGEN
 10
325
 20
939.68
 30
0
 11
295
 21
939.68
 31
0
  0
LINE
  5
AA
100
AcDbEntity
  8
200
100
AcDbLine
370
-1
  6
AUSGEZOGEN
 10
295
 20
948.7
 30
0
 11
295
 21
938.68
 31
0
  0
LINE
  5
AB
100
AcDbEntity
  8
200
100
AcDbLine
370
-1
  6
AUSGEZOGEN
 10
325
 20
938.68
 30
0
 11
325
 21
948.7
 31
0
  0
LINE
  5
AC
100
AcDbEntity
  8
200
100
AcDbLine
370
-1
  6
AUSGEZOGEN
 10
357
 20
939.68
 30
0
 11
333
 21
939.68
 31
0
  0
LINE
  5
AD
100
AcDbEntity
  8
200
100
AcDbLine
370
-1
  6
AUSGEZOGEN
 10
333
 20
948.7
 30
0
 11
333
 21
938.68
 31
0
  0
LINE
  5
AE
100
AcDbEntity
  8
200
100
AcDbLine
370
-1
  6
AUSGEZOGEN
 10
363
 20
954.43
 30
0
 11
359.96
 21
954.43
 31
0
  0
LINE
  5
AF
100
AcDbEntity
  8
200
100
AcDbLine
370
-1
  6
AUSGEZOGEN
 10
363
 20
952.02
 30
0
 11
363
 21
954.43
 31
0
  0
LINE
  5
B0
100
AcDbEntity
  8
200
100
AcDbLine
370
-1
  6
AUSGEZOGEN
 10
401
 20
939.68
 30
0
 11
371
 21
939.68
 31
0
  0
LINE
  5
B1
100
AcDbEntity
  8
200
100
AcDbLine
370
-1
  6
AUSGEZOGEN
 10
371
 20
954.43
 30
0
 11
371
 21
938.68
 31
0
  0
LINE
  5
B2
100
AcDbEntity
  8
200
100
AcDbLine
370
-1
  6
AUSGEZOGEN
 10
401
 20
954.43
 30
0
 11
371
 21
954.43
 31
0
  0
LINE
  5
B3
100
AcDbEntity
  8
200
100
AcDbLine
370
-1
  6
AUSGEZOGEN
 10
401
 20
938.68
 30
0
 11
401
 21
954.43
 31
0
  0
LINE
  5
B4
100
AcDbEntity
  8
200
100
AcDbLine
370
-1
  6
AUSGEZOGEN
 10
29
 20
939.68
 30
0
 11
59
 21
939.68
 31
0
  0
LINE
  5
B5
100
AcDbEntity
  8
200
100
AcDbLine
370
-1
  6
AUSGEZOGEN
 10
29
 20
954.43
 30
0
 11
29
 21
938.68
 31
0
  0
LINE
  5
B6
100
AcDbEntity
  8
200
100
AcDbLine
370
-1
  6
AUSGEZOGEN
 10
59
 20
954.43
 30
0
 11
29
 21
954.43
 31
0
  0
LINE
  5
B7
100
AcDbEntity
  8
200
100
AcDbLine
370
-1
  6
AUSGEZOGEN
 10
59
 20
938.68
 30
0
 11
59
 21
954.43
 31
0
  0
LINE
  5
B8
100
AcDbEntity
  8
200
100
AcDbLine
370
-1
  6
AUSGEZOGEN
 10
415
 20
150
 30
0
 11
415
 21
956.11
 31
0
  0
LINE
  5
B9
100
AcDbEntity
  8
200
100
AcDbLine
370
-1
  6
AUSGEZOGEN
 10
15
 20
956.11
 30
0
 11
15
 21
150
 31
0
  0
LINE
  5
BA
100
AcDbEntity
  8
200
100
AcDbLine
370
-1
  6
AUSGEZOGEN
 10
415
 20
840
 30
0
 11
15
 21
840
 31
0
  0
LINE
  5
BB
100
AcDbEntity
  8
200
100
AcDbLine
370
-1
  6
AUSGEZOGEN
 10
20
 20
585
 30
0
 11
410
 21
585
 31
0
  0
LINE
  5
BC
100
AcDbEntity
  8
200
100
AcDbLine
370
-1
  6
AUSGEZOGEN
 10
410
 20
520.69
 30
0
 11
20
 21
520.69
 31
0
  0
LINE
  5
BD
100
AcDbEntity
  8
200
100
AcDbLine
370
-1
  6
AUSGEZOGEN
 10
20
 20
155
 30
0
 11
20
 21
620
 31
0
  0
LINE
  5
BE
100
AcDbEntity
  8
200
100
AcDbLine
370
-1
  6
AUSGEZOGEN
 10
410
 20
619.86
 30
0
 11
410
 21
155
 31
0
  0
LINE
  5
BF
100
AcDbEntity
  8
200
100
AcDbLine
370
-1
  6
AUSGEZOGEN
 10
20
 20
155
 30
0
 11
410
 21
155
 31
0
  0
LINE
  5
C0
100
AcDbEntity
  8
200
100
AcDbLine
370
-1
  6
AUSGEZOGEN
 10
352.4
 20
948.7
 30
0
 11
234.91
 21
948.7
 31
0
  0
LINE
  5
C1
100
AcDbEntity
  8
200
100
AcDbLine
370
-1
  6
AUSGEZOGEN
 10
77.6
 20
948.7
 30
0
 11
195.09
 21
948.7
 31
0
  0
LINE
  5
C2
100
AcDbEntity
  8
200
100
AcDbLine
370
-1
  6
AUSGEZOGEN
 10
353.6
 20
957
 30
0
 11
76.4
 21
957
 31
0
  0
LINE
  5
C3
100
AcDbEntity
  8
200
100
AcDbLine
370
-1
  6
AUSGEZOGEN
 10
357
 20
946.5
 30
0
 11
355.09
 21
947.93
 31
0
  0
LINE
  5
C4
100
AcDbEntity
  8
200
100
AcDbLine
370
-1
  6
AUSGEZOGEN
 10
362
 20
953
 30
0
 11
358.3
 21
955.6
 31
0
  0
LINE
  5
C5
100
AcDbEntity
  8
200
100
AcDbLine
370
-1
  6
AUSGEZOGEN
 10
73
 20
946.5
 30
0
 11
75
 21
948
 31
0
  0
LINE
  5
C6
100
AcDbEntity
  8
200
100
AcDbLine
370
-1
  6
AUSGEZOGEN
 10
68
 20
953
 30
0
 11
71.7
 21
955.6
 31
0
  0
LINE
  5
C7
100
AcDbEntity
  8
200
100
AcDbLine
370
-1
  6
AUSGEZOGEN
 10
67.1
 20
952.1
 30
0
 11
68
 21
953
 31
0
  0
LINE
  5
C8
100
AcDbEntity
  8
200
100
AcDbLine
370
-1
  6
AUSGEZOGEN
 10
362.9
 20
952.2
 30
0
 11
362
 21
953
 31
0
  0
LINE
  5
C9
100
AcDbEntity
  8
200
100
AcDbLine
370
-1
  6
AUSGEZOGEN
 10
357
 20
945.9
 30
0
 11
356.35
 21
946.99
 31
0
  0
LINE
  5
CA
100
AcDbEntity
  8
200
100
AcDbLine
370
-1
  6
AUSGEZOGEN
 10
362.9
 20
952.2
 30
0
 11
365
 21
948.5
 31
0
  0
LINE
  5
CB
100
AcDbEntity
  8
200
100
AcDbLine
370
-1
  6
AUSGEZOGEN
 10
75
 20
947.9
 30
0
 11
77.6
 21
948.7
 31
0
  0
LINE
  5
CC
100
AcDbEntity
  8
200
100
AcDbLine
370
-1
  6
AUSGEZOGEN
 10
71.7
 20
955.6
 30
0
 11
76.4
 21
957
 31
0
  0
LINE
  5
CD
100
AcDbEntity
  8
200
100
AcDbLine
370
-1
  6
AUSGEZOGEN
 10
355
 20
947.9
 30
0
 11
352.4
 21
948.7
 31
0
  0
LINE
  5
CE
100
AcDbEntity
  8
200
100
AcDbLine
370
-1
  6
AUSGEZOGEN
 10
358.3
 20
955.6
 30
0
 11
353.6
 21
957
 31
0
  0
LINE
  5
CF
100
AcDbEntity
  8
200
100
AcDbLine
370
-1
  6
AUSGEZOGEN
 10
73
 20
946.5
 30
0
 11
73.9
 21
947.4
 31
0
  0
LINE
  5
D0
100
AcDbEntity
  8
200
100
AcDbLine
370
-1
  6
AUSGEZOGEN
 10
73.65
 20
946.99
 30
0
 11
73
 21
945.9
 31
0
  0
LINE
  5
D1
100
AcDbEntity
  8
200
100
AcDbLine
370
-1
  6
AUSGEZOGEN
 10
67.1
 20
952.1
 30
0
 11
65
 21
948.5
 31
0
  0
LINE
  5
D2
100
AcDbEntity
  8
200
100
AcDbLine
370
-1
  6
AUSGEZOGEN
 10
73
 20
902
 30
0
 11
73
 21
945.9
 31
0
  0
LINE
  5
D3
100
AcDbEntity
  8
200
100
AcDbLine
370
-1
  6
AUSGEZOGEN
 10
357
 20
945.9
 30
0
 11
357
 21
902
 31
0
  0
LINE
  5
D4
100
AcDbEntity
  8
200
100
AcDbLine
370
-1
  6
AUSGEZOGEN
 10
207.7
 20
926
 30
0
 11
208.57
 21
930
 31
0
  0
LINE
  5
D5
100
AcDbEntity
  8
200
100
AcDbLine
370
-1
  6
AUSGEZOGEN
 10
221.43
 20
930
 30
0
 11
222.3
 21
926
 31
0
  0
LINE
  5
D6
100
AcDbEntity
  8
200
100
AcDbLine
370
-1
  6
AUSGEZOGEN
 10
205
 20
902
 30
0
 11
207.7
 21
926
 31
0
  0
LINE
  5
D7
100
AcDbEntity
  8
200
100
AcDbLine
370
-1
  6
AUSGEZOGEN
 10
222.3
 20
926
 30
0
 11
225
 21
902
 31
0
  0
LINE
  5
D8
100
AcDbEntity
  8
200
100
AcDbLine
370
-1
  6
AUSGEZOGEN
 10
65
 20
900
 30
0
 11
65
 21
948.5
 31
0
  0
LINE
  5
D9
100
AcDbEntity
  8
200
100
AcDbLine
370
-1
  6
AUSGEZOGEN
 10
199
 20
902
 30
0
 11
65
 21
902
 31
0
  0
LINE
  5
DA
100
AcDbEntity
  8
200
100
AcDbLine
370
-1
  6
AUSGEZOGEN
 10
226
 20
902
 30
0
 11
204
 21
902
 31
0
  0
LINE
  5
DB
100
AcDbEntity
  8
200
100
AcDbLine
370
-1
  6
AUSGEZOGEN
 10
365
 20
902
 30
0
 11
231
 21
902
 31
0
  0
LINE
  5
DC
100
AcDbEntity
  8
200
100
AcDbLine
370
-1
  6
AUSGEZOGEN
 10
365
 20
948.5
 30
0
 11
365
 21
900
 31
0
  0
LINE
  5
DD
100
AcDbEntity
  8
200
100
AcDbLine
370
-1
  6
AUSGEZOGEN
 10
185
 20
900
 30
0
 11
185
 21
902
 31
0
  0
LINE
  5
DE
100
AcDbEntity
  8
200
100
AcDbLine
370
-1
  6
AUSGEZOGEN
 10
245
 20
902
 30
0
 11
245
 21
900
 31
0
  0
LINE
  5
DF
100
AcDbEntity
  8
200
100
AcDbLine
370
-1
  6
AUSGEZOGEN
 10
15
 20
900
 30
0
 11
415
 21
900
 31
0
  0
LINE
  5
E0
100
AcDbEntity
  8
200
100
AcDbLine
370
-1
  6
AUSGEZOGEN
 10
232.7
 20
950
 30
0
 11
197.3
 21
950
 31
0
  0
LINE
  5
E1
100
AcDbEntity
  8
200
100
AcDbLine
370
-1
  6
AUSGEZOGEN
 10
237.3
 20
947.3
 30
0
 11
232.7
 21
950
 31
0
  0
LINE
  5
E2
100
AcDbEntity
  8
200
100
AcDbLine
370
-1
  6
AUSGEZOGEN
 10
240
 20
942.7
 30
0
 11
237.3
 21
947.3
 31
0
  0
LINE
  5
E3
100
AcDbEntity
  8
200
100
AcDbLine
370
-1
  6
AUSGEZOGEN
 10
237.3
 20
932.7
 30
0
 11
240
 21
937.3
 31
0
  0
LINE
  5
E4
100
AcDbEntity
  8
200
100
AcDbLine
370
-1
  6
AUSGEZOGEN
 10
232.7
 20
930
 30
0
 11
237.3
 21
932.7
 31
0
  0
LINE
  5
E5
100
AcDbEntity
  8
200
100
AcDbLine
370
-1
  6
AUSGEZOGEN
 10
192.7
 20
932.7
 30
0
 11
197.3
 21
930
 31
0
  0
LINE
  5
E6
100
AcDbEntity
  8
200
100
AcDbLine
370
-1
  6
AUSGEZOGEN
 10
190
 20
937.3
 30
0
 11
192.7
 21
932.7
 31
0
  0
LINE
  5
E7
100
AcDbEntity
  8
200
100
AcDbLine
370
-1
  6
AUSGEZOGEN
 10
190
 20
942.7
 30
0
 11
190
 21
937.3
 31
0
  0
LINE
  5
E8
100
AcDbEntity
  8
200
100
AcDbLine
370
-1
  6
AUSGEZOGEN
 10
192.7
 20
947.3
 30
0
 11
190
 21
942.7
 31
0
  0
LINE
  5
E9
100
AcDbEntity
  8
200
100
AcDbLine
370
-1
  6
AUSGEZOGEN
 10
197.3
 20
950
 30
0
 11
192.7
 21
947.3
 31
0
  0
LINE
  5
EA
100
AcDbEntity
  8
200
100
AcDbLine
370
-1
  6
AUSGEZOGEN
 10
232.7
 20
930
 30
0
 11
197.3
 21
930
 31
0
  0
LINE
  5
EB
100
AcDbEntity
  8
200
100
AcDbLine
370
-1
  6
AUSGEZOGEN
 10
240
 20
942.7
 30
0
 11
240
 21
937.3
 31
0
  0
LINE
  5
EC
100
AcDbEntity
  8
200
100
AcDbLine
370
-1
  6
AUSGEZOGEN
 10
231
 20
901
 30
0
 11
231
 21
930
 31
0
  0
LINE
  5
ED
100
AcDbEntity
  8
200
100
AcDbLine
370
-1
  6
AUSGEZOGEN
 10
226
 20
930
 30
0
 11
226
 21
901
 31
0
  0
LINE
  5
EE
100
AcDbEntity
  8
200
100
AcDbLine
370
-1
  6
AUSGEZOGEN
 10
204
 20
901
 30
0
 11
204
 21
930
 31
0
  0
LINE
  5
EF
100
AcDbEntity
  8
200
100
AcDbLine
370
-1
  6
AUSGEZOGEN
 10
245
 20
901
 30
0
 11
185
 21
901
 31
0
  0
LINE
  5
F0
100
AcDbEntity
  8
200
100
AcDbLine
370
-1
  6
AUSGEZOGEN
 10
199
 20
930
 30
0
 11
199
 21
901
 31
0
  0
ATTDEF
  5
F2
100
AcDbEntity
  8
0
100
AcDbText
370
-1
 10
0
 20
0
 30
0
 40
1
  1

 50
0
 41
1
 51
0
  7
STANDARD
 71
0
 72
0
 11
0
 21
0
 31
0
100
AcDbAttributeDefinition
  3

  2

 70
0
 74
0
1001
AcDbAttr
1070
0
1070
0
  0
ENDBLK
  5
10F
100
AcDbEntity
  8
0
100
AcDbBlockEnd
  0
BLOCK
  5
F8
100
AcDbEntity
  8
450
100
AcDbBlockBegin
  2
INST_BLOCK_00001
 70
2
 10
0
 20
0
 30
0
  3
INST_BLOCK_00001
  1

  0
CIRCLE
  5
20
100
AcDbEntity
  8
450
100
AcDbCircle
370
-1
  6
AUSGEZOGEN
 10
75
 20
150
 30
0
 40
50
  0
LINE
  5
21
100
AcDbEntity
  8
450
100
AcDbLine
370
-1
  6
AUSGEZOGEN
 10
0
 20
150
 30
0
 11
75
 21
150
 31
0
  0
LINE
  5
22
100
AcDbEntity
  8
450
100
AcDbLine
370
-1
  6
AUSGEZOGEN
 10
150
 20
150
 30
0
 11
75
 21
150
 31
0
  0
LINE
  5
23
100
AcDbEntity
  8
450
100
AcDbLine
370
-1
  6
AUSGEZOGEN
 10
75
 20
75
 30
0
 11
75
 21
150
 31
0
  0
LINE
  5
24
100
AcDbEntity
  8
450
100
AcDbLine
370
-1
  6
AUSGEZOGEN
 10
75
 20
225
 30
0
 11
75
 21
150
 31
0
  0
ATTDEF
  5
F7
100
AcDbEntity
  8
0
100
AcDbText
370
-1
 10
0
 20
0
 30
0
 40
1
  1

 50
0
 41
1
 51
0
  7
STANDARD
 71
0
 72
0
 11
0
 21
0
 31
0
100
AcDbAttributeDefinition
  3

  2

 70
0
 74
0
1001
AcDbAttr
1070
0
1070
0
  0
ENDBLK
  5
110
100
AcDbEntity
  8
0
100
AcDbBlockEnd
  0
ENDSEC
  0
SECTION
  2
ENTITIES
  0
LINE
  5
1C
100
AcDbEntity
  8
450
100
AcDbLine
370
-1
  6
AUSGEZOGEN
 10
75
 20
150
 30
0
 11
501.5
 21
823.5
 31
0
  0
LINE
  5
1F
100
AcDbEntity
  8
450
100
AcDbLine
370
-1
  6
AUSGEZOGEN
 10
956.56
 20
823.5
 30
0
 11
501.5
 21
823.5
 31
0
  0
TEXT
  5
F1
100
AcDbEntity
  8
450
100
AcDbText
370
-1
 10
515
 20
837
 30
0
 40
45
  1
Ga: DN15 1/2" 10kW
 50
0
 41
0.600000023841858
 51
0
  7
STANDARD
 71
0
 72
0
 11
0
 21
0
 31
0
100
AcDbText
 73
0
  0
INSERT
  5
F6
100
AcDbEntity
  8
200
100
AcDbBlockReference
370
-1
  6
BYLAYER
 66
1
  2
GER_BLOCK_00001
 10
0
 20
0
 30
0
 41
1
 42
1
 43
1
  0
ATTRIB
  5
F5
100
AcDbEntity
  8
0
100
AcDbText
370
-1
 10
0
 20
0
 30
0
 40
20
  1

 50
0
 41
1
 51
0
  7
STANDARD
 71
0
 72
0
 11
0
 21
0
 31
0
100
AcDbAttribute
  2

 70
0
 74
0
1001
AcDbAttr
1070
0
1070
0
  0
SEQEND
  5
111
100
AcDbEntity
  8
0
  0
INSERT
  5
FB
100
AcDbEntity
  8
450
100
AcDbBlockReference
370
-1
  6
BYLAYER
 66
1
  2
INST_BLOCK_00001
 10
0
 20
0
 30
0
 41
1
 42
1
 43
1
  0
ATTRIB
  5
FA
100
AcDbEntity
  8
0
100
AcDbText
370
-1
 10
0
 20
0
 30
0
 40
20
  1

 50
0
 41
1
 51
0
  7
STANDARD
 71
0
 72
0
 11
0
 21
0
 31
0
100
AcDbAttribute
  2

 70
0
 74
0
1001
AcDbAttr
1070
0
1070
0
  0
SEQEND
  5
112
100
AcDbEntity
  8
0
  0
ATTDEF
  5
FC
100
AcDbEntity
  8
550
100
AcDbText
370
-1
 10
10
 20
100
 30
0
 40
30
  1

 50
0
 41
1
 51
0
  7
STANDARD
 71
0
 72
0
 11
0
 21
0
 31
0
100
AcDbAttributeDefinition
  3
KBS-10424403
  2
KBS-10424403
 70
1
 74
0
1001
AcDbAttr
1070
0
1070
0
  0
TEXT
  5
FD
100
AcDbEntity
  8
510
100
AcDbText
370
-1
 10
10
 20
-45
 30
0
 40
30
  1

 50
0
 41
1
 51
0
  7
STANDARD
 71
0
 72
0
 11
0
 21
0
 31
0
100
AcDbText
 73
0
  0
ENDSEC
  0
SECTION
  2
OBJECTS
  0
DICTIONARY
  5
113
100
AcDbDictionary
  3
ACAD_GROUP
350
114
  3
ACAD_MATERIAL
350
115
  3
ACAD_WIPEOUT_VARS
350
116
  3
ACAD_MLINESTYLE
350
117
  3
ACAD_LAYOUT
350
118
  0
DICTIONARY
  5
114
330
113
100
AcDbDictionary
  0
DICTIONARY
  5
115
330
113
100
AcDbDictionary
  0
WIPEOUTVARIABLES
  5
116
330
113
100
AcDbWipeoutVariables
 70
1
  0
DICTIONARY
  5
117
330
113
100
AcDbDictionary
  3
STANDARD
350
119
  0
MLINESTYLE
  5
119
100
AcDbMlineStyle
  2
STANDARD
 70
0
  3

 62
256
 51
90
 52
90
 71
2
 49
0.5
 62
256
  6
ByLayer
 49
-0.5
 62
256
  6
ByLayer
  0
DICTIONARY
  5
118
100
AcDbDictionary
281
1
  3
Model
350
FE
  0
LAYOUT
  5
FE
102
{ACAD_REACTORS
330
118
102
}
330
118
100
AcDbPlotSettings
  1

  2
none_device
  4

  6

 40
0
 41
0
 42
0
 43
0
 44
0
 45
0
 46
0
 47
0
 48
0
 49
0
 70
1712
 72
1
 73
0
 74
5
 75
16
 76
0
 77
0
 78
100
140
0
141
0
142
1
143
1
147
1
148
0
149
0
100
AcDbLayout
  1
Model
 70
1
 71
1
 10
0
 20
0
 11
956.56
 21
957
 12
0
 22
0
 32
0
 14
0
 24
0
 34
0
 15
956.56
 25
957
 35
0
146
0
 13
0
 23
0
 33
0
 16
1
 26
0
 36
0
 17
0
 27
1
 37
0
 76
0
330
1E
  0
DICTIONARY
  5
11A
100
AcDbDictionary
280
1
  3
XINFO
360
11B
  0
XRECORD
  5
11B
102
{ACAD_REACTORS
330
11A
102
}
330
11A
100
AcDbXrecord
280
0
310
8F24010003000900
311
BB2E4F043F042EBC
  0
ENDSEC
  0
EOF
