999
     Created by SWS GmbH, Paderborn, Germany, www.sws-online.de
999
     and  Soft Gold Ltd. www.cadsofttools.com
999

999
SWS-intern Ausgabemassstab:
999
   0.0500
999

999
SWS-intern Koordinatenwerte 1:1:
999
1
999

  0
SECTION
  2
HEADER
  9
$ACADVER
  1
AC1018
  9
$DWGCODEPAGE
  3
ANSI_1252
  9
$CLAYER
  8
0
  9
$CELTYPE
  6
BYLAYER
  9
$CELTSCALE
 40
1
  9
$CELWEIGHT
370
-1
  9
$DIMALT
 70
0
  9
$DIMALTF
 40
1
  9
$DIMPOST
  1

  9
$DIMAPOST
  1

  9
$DIMSCALE
 40
1
  9
$DIMASZ
 40
0.18
  9
$DIMCLRD
 70
0
  9
$DIMCLRE
 70
0
  9
$DIMCLRT
 70
0
  9
$DIMEXE
 40
0.18
  9
$DIMEXO
 40
0.0625
  9
$DIMGAP
 40
0.0625
  9
$DIMLFAC
 40
1
  9
$DIMDEC
 70
4
  9
$DIMTAD
 70
0
  9
$DIMCEN
 40
0.09
  9
$DIMTIH
 70
1
  9
$DIMTIX
 70
0
  9
$DIMTOH
 70
1
  9
$DIMSE1
 70
0
  9
$DIMSE2
 70
0
  9
$DIMSD1
 70
0
  9
$DIMSD2
 70
0
  9
$DIMLWD
 70
-1
  9
$DIMLWE
 70
-1
  9
$DIMSAH
 70
0
  9
$DIMBLK
  1

  9
$DIMBLK1
  1

  9
$DIMBLK2
  1

  9
$DIMLDRBLK
  1

  9
$DIMSTYLE
  2
STANDARD
  9
$DIMTP
 40
0
  9
$DIMTM
 40
0
  9
$DIMTXT
 40
0.18
  9
$DIMLUNIT
 70
2
  9
$DIMDSEP
 70
46
  9
$DIMTXSTY
  7
STANDARD
  9
$TEXTSIZE
 40
0.18
  9
$TEXTSTYLE
  7
STANDARD
  9
$HANDSEED
  5
0000000000000358
  9
$FILLETRAD
 40
0.5
  9
$INSUNITS
 70
4
  9
$LIMMIN
 10
-248.125
 20
-96.5
  9
$LIMMAX
 10
2233.125
 20
868.5
  9
$FILLMODE
 70
1
  9
$LTSCALE
 40
1
  9
$PSLTSCALE
 70
0
  9
$MEASUREMENT
 70
0
  9
$ATTMODE
 70
1
  9
$PDMODE
 70
0
  9
$PDSIZE
 40
0
  9
$TILEMODE
 70
1
  9
$UCSORG
 10
0
 20
0
 30
0
  9
$UCSXDIR
 10
1
 20
0
 30
0
  9
$UCSYDIR
 10
0
 20
1
 30
0
  9
$INSBASE
 10
0
 20
0
 30
0
  9
$XCLIPFRAME
290
1
  9
$DIMASSOC
280
2
  9
$TDCREATE
 40
2459104.64774212
  9
$TDINDWG
 40
1.50462962962963E-7
  9
$TDUPDATE
 40
2459104.64774227
  0
ENDSEC
  0
SECTION
  2
CLASSES
  0
CLASS
  1
IMAGE
  2
AcDbRasterImage
  3
ISM
 90
2175
 91
1
280
0
281
1
  0
CLASS
  1
IMAGEDEF
  2
AcDbRasterImageDef
  3
ISM
 90
0
 91
1
280
0
281
0
  0
CLASS
  1
WIPEOUT
  2
AcDbWipeout
  3
"WipeOut"
 90
2175
 91
1
280
0
281
1
  0
CLASS
  1
WIPEOUTVARIABLES
  2
AcDbWipeoutVariables
  3
"WipeOut"
 90
0
 91
1
280
0
281
0
  0
CLASS
  1
MPOLYGON
  2
AcDbMPolygon
  3
"AcMPolygonObj15"
 90
3071
 91
1
280
0
281
1
  0
ENDSEC
  0
SECTION
  2
TABLES
  0
TABLE
  2
APPID
  5
33B
100
AcDbSymbolTable
  0
APPID
  5
33C
100
AcDbSymbolTableRecord
100
AcDbRegAppTableRecord
  2
ACAD
 70
0
  0
APPID
  5
12
100
AcDbSymbolTableRecord
100
AcDbRegAppTableRecord
  2
CSTINVENTORY
 70
0
  0
APPID
  5
33D
100
AcDbSymbolTableRecord
100
AcDbRegAppTableRecord
  2
AcDbAttr
 70
0
  0
APPID
  5
33E
100
AcDbSymbolTableRecord
100
AcDbRegAppTableRecord
  2
PE_URL
 70
0
  0
ENDTAB
  0
TABLE
  2
BLOCK_RECORD
  5
33F
100
AcDbSymbolTable
  0
BLOCK_RECORD
  5
1E
100
AcDbSymbolTableRecord
100
AcDbBlockTableRecord
  2
*MODEL_SPACE
  0
BLOCK_RECORD
  5
340
100
AcDbSymbolTableRecord
100
AcDbBlockTableRecord
  2
*PAPER_SPACE
  0
BLOCK_RECORD
  5
10
100
AcDbSymbolTableRecord
100
AcDbBlockTableRecord
  2
_CLOSEDFILLED
  0
BLOCK_RECORD
  5
330
100
AcDbSymbolTableRecord
100
AcDbBlockTableRecord
  2
GER_BLOCK_00001
  0
BLOCK_RECORD
  5
335
100
AcDbSymbolTableRecord
100
AcDbBlockTableRecord
  2
INST_BLOCK_00001
  0
ENDTAB
  0
TABLE
  2
STYLE
  5
3
100
AcDbSymbolTable
  0
STYLE
  5
A
100
AcDbSymbolTableRecord
100
AcDbTextStyleTableRecord
  2
STANDARD
 70
0
 40
0
 41
1
 50
0
 71
0
 42
30
  3
TXT.SHX
  4

1001
ACAD
1000
txt
1071
0
  0
ENDTAB
  0
TABLE
  2
LTYPE
  5
1
100
AcDbSymbolTable
  0
LTYPE
  5
9
100
AcDbSymbolTableRecord
100
AcDbLinetypeTableRecord
  2
CONTINUOUS
 70
0
  3

 72
65
 73
0
 40
0
  0
LTYPE
  5
7
100
AcDbSymbolTableRecord
100
AcDbLinetypeTableRecord
  2
BYLAYER
 70
0
  3

 72
65
 73
0
 40
0
  0
LTYPE
  5
8
100
AcDbSymbolTableRecord
100
AcDbLinetypeTableRecord
  2
BYBLOCK
 70
0
  3

 72
65
 73
0
 40
0
  0
LTYPE
  5
13
100
AcDbSymbolTableRecord
100
AcDbLinetypeTableRecord
  2
AUSGEZOGEN
 70
0
  3
.
 72
65
 73
1
 40
0
 49
0
 74
0
  0
LTYPE
  5
14
100
AcDbSymbolTableRecord
100
AcDbLinetypeTableRecord
  2
PUNKTIERT
 70
0
  3
. 
 72
65
 73
2
 40
30
 49
0
 74
0
 49
-30
 74
0
  0
LTYPE
  5
15
100
AcDbSymbolTableRecord
100
AcDbLinetypeTableRecord
  2
GESTRICHELT
 70
0
  3
_ 
 72
65
 73
2
 40
80
 49
50
 74
0
 49
-30
 74
0
  0
LTYPE
  5
16
100
AcDbSymbolTableRecord
100
AcDbLinetypeTableRecord
  2
STRICHPUNKT
 70
0
  3
_ . 
 72
65
 73
4
 40
160
 49
100
 74
0
 49
-30
 74
0
 49
0
 74
0
 49
-30
 74
0
  0
LTYPE
  5
17
100
AcDbSymbolTableRecord
100
AcDbLinetypeTableRecord
  2
GETRENNT
 70
0
  3
_ . . 
 72
65
 73
6
 40
190
 49
100
 74
0
 49
-30
 74
0
 49
0
 74
0
 49
-30
 74
0
 49
0
 74
0
 49
-30
 74
0
  0
ENDTAB
  0
TABLE
  2
LAYER
  5
2
100
AcDbSymbolTable
  0
LAYER
  5
E
100
AcDbSymbolTableRecord
100
AcDbLayerTableRecord
  2
0
 70
0
 62
1
420
16711680
  6
AUSGEZOGEN
290
1
370
-3
390
0
  0
LAYER
  5
18
100
AcDbSymbolTableRecord
100
AcDbLayerTableRecord
  2
550
 70
0
 62
2
420
16776960
  6
AUSGEZOGEN
290
1
370
-3
390
0
  0
LAYER
  5
19
100
AcDbSymbolTableRecord
100
AcDbLayerTableRecord
  2
510
 70
0
 62
2
420
16776960
  6
AUSGEZOGEN
290
1
370
-3
390
0
  0
LAYER
  5
1A
100
AcDbSymbolTableRecord
100
AcDbLayerTableRecord
  2
200
 70
0
 62
7
  6
AUSGEZOGEN
290
1
370
-3
390
0
  0
LAYER
  5
1B
100
AcDbSymbolTableRecord
100
AcDbLayerTableRecord
  2
450
 70
0
 62
2
420
16776960
  6
AUSGEZOGEN
290
1
370
-3
390
0
  0
ENDTAB
  0
TABLE
  2
VPORT
  5
341
100
AcDbSymbolTable
  0
VPORT
  5
343
100
AcDbSymbolTableRecord
100
AcDbViewportTableRecord
  2
*ACTIVE
 70
0
 10
0
 20
0
 11
1
 21
1
 12
992.5
 22
386
 32
0
 13
0
 23
0
 14
1
 24
1
 15
1
 25
1
 16
0
 26
0
 36
1
 17
0
 27
0
 37
0
 40
772
 41
2.57124352331606
 42
50
 43
0
 44
0
 50
0
 51
0
 71
0
 72
100
 73
1
 74
1
 75
0
 76
0
 77
0
 78
0
  0
ENDTAB
  0
TABLE
  2
VIEW
  5
344
100
AcDbSymbolTable
  0
ENDTAB
  0
TABLE
  2
UCS
  5
345
100
AcDbSymbolTable
  0
ENDTAB
  0
TABLE
  2
DIMSTYLE
  5
4
100
AcDbSymbolTable
 70
1
100
AcDbDimStyleTable
 71
0
  0
DIMSTYLE
105
B
100
AcDbSymbolTableRecord
100
AcDbDimStyleTableRecord
  2
STANDARD
 70
0
  3

 40
1
 41
0.18
 42
0.0625
 44
0.18
 47
0
 48
0
 73
1
 74
1
 75
0
 76
0
 77
0
140
0.18
141
0.09
144
1
147
0.0625
173
0
174
0
176
0
177
0
178
0
277
2
278
46
281
0
282
0
271
4
340
A
371
-1
372
-1
  0
ENDTAB
  0
ENDSEC
  0
SECTION
  2
BLOCKS
  0
BLOCK
  5
346
100
AcDbEntity
  8
0
100
AcDbBlockBegin
  2
*MODEL_SPACE
 70
0
 10
0
 20
0
  0
ENDBLK
  5
347
100
AcDbEntity
  8
0
100
AcDbBlockEnd
  0
BLOCK
  5
348
100
AcDbEntity
  8
0
100
AcDbBlockBegin
  2
*PAPER_SPACE
 70
0
 10
0
 20
0
  0
ENDBLK
  5
349
100
AcDbEntity
  8
0
100
AcDbBlockEnd
  0
BLOCK
  5
F
100
AcDbEntity
  8
0
100
AcDbBlockBegin
  2
_CLOSEDFILLED
 70
0
 10
0
 20
0
 30
0
  3
_CLOSEDFILLED
  1

  0
SOLID
  5
C
100
AcDbEntity
  8
0
100
AcDbTrace
370
-2
 62
0
 10
-1
 20
0.166666666666667
 30
0
 11
0
 21
0
 31
0
 12
-1
 22
0.166666666666667
 32
0
 13
-1
 23
-0.166666666666667
 33
0
  0
LINE
  5
D
100
AcDbEntity
  8
0
100
AcDbLine
370
-2
 62
0
 10
-1
 20
0
 30
0
 11
-2
 21
0
 31
0
  0
ENDBLK
  5
34A
100
AcDbEntity
  8
0
100
AcDbBlockEnd
  0
BLOCK
  5
32F
100
AcDbEntity
  8
200
100
AcDbBlockBegin
  2
GER_BLOCK_00001
 70
2
 10
0
 20
0
 30
0
  3
GER_BLOCK_00001
  1

  0
LINE
  5
25
100
AcDbEntity
  8
200
100
AcDbLine
370
-1
  6
AUSGEZOGEN
 10
176
 20
0.21
 30
0
 11
176
 21
22
 31
0
  0
LINE
  5
26
100
AcDbEntity
  8
200
100
AcDbLine
370
-1
  6
AUSGEZOGEN
 10
174.44
 20
0
 30
0
 11
176
 21
0.21
 31
0
  0
LINE
  5
27
100
AcDbEntity
  8
200
100
AcDbLine
370
-1
  6
AUSGEZOGEN
 10
159.56
 20
0
 30
0
 11
174.44
 21
0
 31
0
  0
LINE
  5
28
100
AcDbEntity
  8
200
100
AcDbLine
370
-1
  6
AUSGEZOGEN
 10
158
 20
0.21
 30
0
 11
159.56
 21
0
 31
0
  0
LINE
  5
29
100
AcDbEntity
  8
200
100
AcDbLine
370
-1
  6
AUSGEZOGEN
 10
158
 20
22
 30
0
 11
158
 21
0.21
 31
0
  0
LINE
  5
2A
100
AcDbEntity
  8
200
100
AcDbLine
370
-1
  6
AUSGEZOGEN
 10
302
 20
0.21
 30
0
 11
302
 21
22
 31
0
  0
LINE
  5
2B
100
AcDbEntity
  8
200
100
AcDbLine
370
-1
  6
AUSGEZOGEN
 10
300.44
 20
0
 30
0
 11
302
 21
0.21
 31
0
  0
LINE
  5
2C
100
AcDbEntity
  8
200
100
AcDbLine
370
-1
  6
AUSGEZOGEN
 10
285.56
 20
0
 30
0
 11
300.44
 21
0
 31
0
  0
LINE
  5
2D
100
AcDbEntity
  8
200
100
AcDbLine
370
-1
  6
AUSGEZOGEN
 10
284
 20
0.21
 30
0
 11
285.56
 21
0
 31
0
  0
LINE
  5
2E
100
AcDbEntity
  8
200
100
AcDbLine
370
-1
  6
AUSGEZOGEN
 10
284
 20
22
 30
0
 11
284
 21
0.21
 31
0
  0
LINE
  5
2F
100
AcDbEntity
  8
200
100
AcDbLine
370
-1
  6
AUSGEZOGEN
 10
976
 20
0.21
 30
0
 11
976
 21
22
 31
0
  0
LINE
  5
30
100
AcDbEntity
  8
200
100
AcDbLine
370
-1
  6
AUSGEZOGEN
 10
974.44
 20
0
 30
0
 11
976
 21
0.21
 31
0
  0
LINE
  5
31
100
AcDbEntity
  8
200
100
AcDbLine
370
-1
  6
AUSGEZOGEN
 10
959.56
 20
0
 30
0
 11
974.44
 21
0
 31
0
  0
LINE
  5
32
100
AcDbEntity
  8
200
100
AcDbLine
370
-1
  6
AUSGEZOGEN
 10
958
 20
0.21
 30
0
 11
959.56
 21
0
 31
0
  0
LINE
  5
33
100
AcDbEntity
  8
200
100
AcDbLine
370
-1
  6
AUSGEZOGEN
 10
958
 20
22
 30
0
 11
958
 21
0.21
 31
0
  0
LINE
  5
34
100
AcDbEntity
  8
200
100
AcDbLine
370
-1
  6
AUSGEZOGEN
 10
1102
 20
0.21
 30
0
 11
1102
 21
22
 31
0
  0
LINE
  5
35
100
AcDbEntity
  8
200
100
AcDbLine
370
-1
  6
AUSGEZOGEN
 10
1100.44
 20
0
 30
0
 11
1102
 21
0.21
 31
0
  0
LINE
  5
36
100
AcDbEntity
  8
200
100
AcDbLine
370
-1
  6
AUSGEZOGEN
 10
1085.56
 20
0
 30
0
 11
1100.44
 21
0
 31
0
  0
LINE
  5
37
100
AcDbEntity
  8
200
100
AcDbLine
370
-1
  6
AUSGEZOGEN
 10
1084
 20
0.21
 30
0
 11
1085.56
 21
0
 31
0
  0
LINE
  5
38
100
AcDbEntity
  8
200
100
AcDbLine
370
-1
  6
AUSGEZOGEN
 10
1084
 20
22
 30
0
 11
1084
 21
0.21
 31
0
  0
LINE
  5
39
100
AcDbEntity
  8
200
100
AcDbLine
370
-1
  6
AUSGEZOGEN
 10
30
 20
772
 30
0
 11
30
 21
22
 31
0
  0
LINE
  5
3A
100
AcDbEntity
  8
200
100
AcDbLine
370
-1
  6
AUSGEZOGEN
 10
91
 20
240
 30
0
 11
91
 21
316.96
 31
0
  0
LINE
  5
3B
100
AcDbEntity
  8
200
100
AcDbLine
370
-1
  6
AUSGEZOGEN
 10
91
 20
155.04
 30
0
 11
91
 21
232
 31
0
  0
LINE
  5
3C
100
AcDbEntity
  8
200
100
AcDbLine
370
-1
  6
AUSGEZOGEN
 10
61
 20
322.92
 30
0
 11
61
 21
240
 31
0
  0
LINE
  5
3D
100
AcDbEntity
  8
200
100
AcDbLine
370
-1
  6
AUSGEZOGEN
 10
61
 20
149.08
 30
0
 11
61
 21
232
 31
0
  0
LINE
  5
3E
100
AcDbEntity
  8
200
100
AcDbLine
370
-1
  6
AUSGEZOGEN
 10
369
 20
232
 30
0
 11
369
 21
155.04
 31
0
  0
LINE
  5
3F
100
AcDbEntity
  8
200
100
AcDbLine
370
-1
  6
AUSGEZOGEN
 10
369
 20
316.96
 30
0
 11
369
 21
240
 31
0
  0
LINE
  5
40
100
AcDbEntity
  8
200
100
AcDbLine
370
-1
  6
AUSGEZOGEN
 10
399
 20
149.08
 30
0
 11
399
 21
232
 31
0
  0
LINE
  5
41
100
AcDbEntity
  8
200
100
AcDbLine
370
-1
  6
AUSGEZOGEN
 10
399
 20
322.92
 30
0
 11
399
 21
240
 31
0
  0
LINE
  5
42
100
AcDbEntity
  8
200
100
AcDbLine
370
-1
  6
AUSGEZOGEN
 10
123.04
 20
123
 30
0
 11
226
 21
123
 31
0
  0
LINE
  5
43
100
AcDbEntity
  8
200
100
AcDbLine
370
-1
  6
AUSGEZOGEN
 10
336.96
 20
123
 30
0
 11
234
 21
123
 31
0
  0
LINE
  5
44
100
AcDbEntity
  8
200
100
AcDbLine
370
-1
  6
AUSGEZOGEN
 10
117.08
 20
93
 30
0
 11
226
 21
93
 31
0
  0
LINE
  5
45
100
AcDbEntity
  8
200
100
AcDbLine
370
-1
  6
AUSGEZOGEN
 10
342.92
 20
93
 30
0
 11
234
 21
93
 31
0
  0
LINE
  5
46
100
AcDbEntity
  8
200
100
AcDbLine
370
-1
  6
AUSGEZOGEN
 10
234
 20
349
 30
0
 11
336.96
 21
349
 31
0
  0
LINE
  5
47
100
AcDbEntity
  8
200
100
AcDbLine
370
-1
  6
AUSGEZOGEN
 10
123.04
 20
349
 30
0
 11
226
 21
349
 31
0
  0
LINE
  5
48
100
AcDbEntity
  8
200
100
AcDbLine
370
-1
  6
AUSGEZOGEN
 10
342.92
 20
379
 30
0
 11
234
 21
379
 31
0
  0
LINE
  5
49
100
AcDbEntity
  8
200
100
AcDbLine
370
-1
  6
AUSGEZOGEN
 10
117.08
 20
379
 30
0
 11
226
 21
379
 31
0
  0
LINE
  5
4A
100
AcDbEntity
  8
200
100
AcDbLine
370
-1
  6
AUSGEZOGEN
 10
99.88
 20
137.54
 30
0
 11
97.08
 21
140.34
 31
0
  0
LINE
  5
4B
100
AcDbEntity
  8
200
100
AcDbLine
370
-1
  6
AUSGEZOGEN
 10
108.34
 20
129.08
 30
0
 11
105.54
 21
131.88
 31
0
  0
LINE
  5
4C
100
AcDbEntity
  8
200
100
AcDbLine
370
-1
  6
AUSGEZOGEN
 10
78.67
 20
116.33
 30
0
 11
71.66
 21
123.34
 31
0
  0
LINE
  5
4D
100
AcDbEntity
  8
200
100
AcDbLine
370
-1
  6
AUSGEZOGEN
 10
91.34
 20
103.66
 30
0
 11
84.33
 21
110.67
 31
0
  0
LINE
  5
4E
100
AcDbEntity
  8
200
100
AcDbLine
370
-1
  6
AUSGEZOGEN
 10
360.12
 20
334.46
 30
0
 11
362.92
 21
331.66
 31
0
  0
LINE
  5
4F
100
AcDbEntity
  8
200
100
AcDbLine
370
-1
  6
AUSGEZOGEN
 10
351.66
 20
342.92
 30
0
 11
354.46
 21
340.12
 31
0
  0
LINE
  5
50
100
AcDbEntity
  8
200
100
AcDbLine
370
-1
  6
AUSGEZOGEN
 10
381.33
 20
355.67
 30
0
 11
388.34
 21
348.66
 31
0
  0
LINE
  5
51
100
AcDbEntity
  8
200
100
AcDbLine
370
-1
  6
AUSGEZOGEN
 10
368.66
 20
368.34
 30
0
 11
375.67
 21
361.33
 31
0
  0
LINE
  5
52
100
AcDbEntity
  8
200
100
AcDbLine
370
-1
  6
AUSGEZOGEN
 10
351.66
 20
129.08
 30
0
 11
354.46
 21
131.88
 31
0
  0
LINE
  5
53
100
AcDbEntity
  8
200
100
AcDbLine
370
-1
  6
AUSGEZOGEN
 10
362.92
 20
140.34
 30
0
 11
360.12
 21
137.54
 31
0
  0
LINE
  5
54
100
AcDbEntity
  8
200
100
AcDbLine
370
-1
  6
AUSGEZOGEN
 10
375.67
 20
110.67
 30
0
 11
368.66
 21
103.66
 31
0
  0
LINE
  5
55
100
AcDbEntity
  8
200
100
AcDbLine
370
-1
  6
AUSGEZOGEN
 10
388.34
 20
123.34
 30
0
 11
381.33
 21
116.33
 31
0
  0
LINE
  5
56
100
AcDbEntity
  8
200
100
AcDbLine
370
-1
  6
AUSGEZOGEN
 10
105.54
 20
340.12
 30
0
 11
108.34
 21
342.92
 31
0
  0
LINE
  5
57
100
AcDbEntity
  8
200
100
AcDbLine
370
-1
  6
AUSGEZOGEN
 10
97.08
 20
331.66
 30
0
 11
99.88
 21
334.46
 31
0
  0
LINE
  5
58
100
AcDbEntity
  8
200
100
AcDbLine
370
-1
  6
AUSGEZOGEN
 10
84.33
 20
361.33
 30
0
 11
91.34
 21
368.34
 31
0
  0
LINE
  5
59
100
AcDbEntity
  8
200
100
AcDbLine
370
-1
  6
AUSGEZOGEN
 10
71.66
 20
348.66
 30
0
 11
78.67
 21
355.67
 31
0
  0
LINE
  5
5A
100
AcDbEntity
  8
200
100
AcDbLine
370
-1
  6
AUSGEZOGEN
 10
97.1
 20
140.34
 30
0
 11
91
 21
155.04
 31
0
  0
LINE
  5
5B
100
AcDbEntity
  8
200
100
AcDbLine
370
-1
  6
AUSGEZOGEN
 10
61
 20
149.08
 30
0
 11
71.66
 21
123.36
 31
0
  0
LINE
  5
5C
100
AcDbEntity
  8
200
100
AcDbLine
370
-1
  6
AUSGEZOGEN
 10
362.9
 20
331.66
 30
0
 11
369
 21
316.96
 31
0
  0
LINE
  5
5D
100
AcDbEntity
  8
200
100
AcDbLine
370
-1
  6
AUSGEZOGEN
 10
399
 20
322.92
 30
0
 11
388.34
 21
348.64
 31
0
  0
LINE
  5
5E
100
AcDbEntity
  8
200
100
AcDbLine
370
-1
  6
AUSGEZOGEN
 10
336.96
 20
123
 30
0
 11
351.66
 21
129.1
 31
0
  0
LINE
  5
5F
100
AcDbEntity
  8
200
100
AcDbLine
370
-1
  6
AUSGEZOGEN
 10
368.64
 20
103.66
 30
0
 11
342.92
 21
93
 31
0
  0
LINE
  5
60
100
AcDbEntity
  8
200
100
AcDbLine
370
-1
  6
AUSGEZOGEN
 10
108.34
 20
342.9
 30
0
 11
123.04
 21
349
 31
0
  0
LINE
  5
61
100
AcDbEntity
  8
200
100
AcDbLine
370
-1
  6
AUSGEZOGEN
 10
117.08
 20
379
 30
0
 11
91.36
 21
368.34
 31
0
  0
LINE
  5
62
100
AcDbEntity
  8
200
100
AcDbLine
370
-1
  6
AUSGEZOGEN
 10
123.04
 20
123
 30
0
 11
108.34
 21
129.08
 31
0
  0
LINE
  5
63
100
AcDbEntity
  8
200
100
AcDbLine
370
-1
  6
AUSGEZOGEN
 10
91.36
 20
103.66
 30
0
 11
117.06
 21
93
 31
0
  0
LINE
  5
64
100
AcDbEntity
  8
200
100
AcDbLine
370
-1
  6
AUSGEZOGEN
 10
351.66
 20
342.92
 30
0
 11
336.96
 21
349
 31
0
  0
LINE
  5
65
100
AcDbEntity
  8
200
100
AcDbLine
370
-1
  6
AUSGEZOGEN
 10
342.94
 20
379
 30
0
 11
368.64
 21
368.34
 31
0
  0
LINE
  5
66
100
AcDbEntity
  8
200
100
AcDbLine
370
-1
  6
AUSGEZOGEN
 10
362.92
 20
140.34
 30
0
 11
369
 21
155.04
 31
0
  0
LINE
  5
67
100
AcDbEntity
  8
200
100
AcDbLine
370
-1
  6
AUSGEZOGEN
 10
399
 20
149.06
 30
0
 11
388.34
 21
123.36
 31
0
  0
LINE
  5
68
100
AcDbEntity
  8
200
100
AcDbLine
370
-1
  6
AUSGEZOGEN
 10
97.08
 20
331.66
 30
0
 11
91
 21
316.96
 31
0
  0
LINE
  5
69
100
AcDbEntity
  8
200
100
AcDbLine
370
-1
  6
AUSGEZOGEN
 10
61
 20
322.94
 30
0
 11
71.66
 21
348.64
 31
0
  0
LINE
  5
6A
100
AcDbEntity
  8
200
100
AcDbLine
370
-1
  6
AUSGEZOGEN
 10
279
 20
232
 30
0
 11
279
 21
240
 31
0
  0
LINE
  5
6B
100
AcDbEntity
  8
200
100
AcDbLine
370
-1
  6
AUSGEZOGEN
 10
409
 20
240
 30
0
 11
279
 21
240
 31
0
  0
LINE
  5
6C
100
AcDbEntity
  8
200
100
AcDbLine
370
-1
  6
AUSGEZOGEN
 10
279
 20
232
 30
0
 11
409
 21
232
 31
0
  0
LINE
  5
6D
100
AcDbEntity
  8
200
100
AcDbLine
370
-1
  6
AUSGEZOGEN
 10
181
 20
240
 30
0
 11
181
 21
232
 31
0
  0
LINE
  5
6E
100
AcDbEntity
  8
200
100
AcDbLine
370
-1
  6
AUSGEZOGEN
 10
51
 20
232
 30
0
 11
181
 21
232
 31
0
  0
LINE
  5
6F
100
AcDbEntity
  8
200
100
AcDbLine
370
-1
  6
AUSGEZOGEN
 10
181
 20
240
 30
0
 11
51
 21
240
 31
0
  0
LINE
  5
70
100
AcDbEntity
  8
200
100
AcDbLine
370
-1
  6
AUSGEZOGEN
 10
234
 20
309
 30
0
 11
226
 21
309
 31
0
  0
LINE
  5
71
100
AcDbEntity
  8
200
100
AcDbLine
370
-1
  6
AUSGEZOGEN
 10
226
 20
163
 30
0
 11
234
 21
163
 31
0
  0
LINE
  5
72
100
AcDbEntity
  8
200
100
AcDbLine
370
-1
  6
AUSGEZOGEN
 10
234
 20
83
 30
0
 11
234
 21
163
 31
0
  0
LINE
  5
73
100
AcDbEntity
  8
200
100
AcDbLine
370
-1
  6
AUSGEZOGEN
 10
226
 20
163
 30
0
 11
226
 21
83
 31
0
  0
LINE
  5
74
100
AcDbEntity
  8
200
100
AcDbLine
370
-1
  6
AUSGEZOGEN
 10
367.26
 20
130.4
 30
0
 11
328.08
 21
169.58
 31
0
  0
LINE
  5
75
100
AcDbEntity
  8
200
100
AcDbLine
370
-1
  6
AUSGEZOGEN
 10
322.42
 20
163.92
 30
0
 11
361.6
 21
124.74
 31
0
  0
LINE
  5
76
100
AcDbEntity
  8
200
100
AcDbLine
370
-1
  6
AUSGEZOGEN
 10
328.08
 20
169.58
 30
0
 11
322.42
 21
163.92
 31
0
  0
LINE
  5
77
100
AcDbEntity
  8
200
100
AcDbLine
370
-1
  6
AUSGEZOGEN
 10
378.42
 20
119.24
 30
0
 11
367.26
 21
130.4
 31
0
  0
LINE
  5
78
100
AcDbEntity
  8
200
100
AcDbLine
370
-1
  6
AUSGEZOGEN
 10
361.6
 20
124.74
 30
0
 11
372.76
 21
113.58
 31
0
  0
LINE
  5
79
100
AcDbEntity
  8
200
100
AcDbLine
370
-1
  6
AUSGEZOGEN
 10
409
 20
88.66
 30
0
 11
378.42
 21
119.24
 31
0
  0
LINE
  5
7A
100
AcDbEntity
  8
200
100
AcDbLine
370
-1
  6
AUSGEZOGEN
 10
372.76
 20
113.58
 30
0
 11
403.34
 21
83
 31
0
  0
LINE
  5
7B
100
AcDbEntity
  8
200
100
AcDbLine
370
-1
  6
AUSGEZOGEN
 10
131.92
 20
169.58
 30
0
 11
137.58
 21
163.92
 31
0
  0
LINE
  5
7C
100
AcDbEntity
  8
200
100
AcDbLine
370
-1
  6
AUSGEZOGEN
 10
98.4
 20
124.74
 30
0
 11
137.58
 21
163.92
 31
0
  0
LINE
  5
7D
100
AcDbEntity
  8
200
100
AcDbLine
370
-1
  6
AUSGEZOGEN
 10
131.92
 20
169.58
 30
0
 11
92.74
 21
130.4
 31
0
  0
LINE
  5
7E
100
AcDbEntity
  8
200
100
AcDbLine
370
-1
  6
AUSGEZOGEN
 10
87.24
 20
113.58
 30
0
 11
98.4
 21
124.74
 31
0
  0
LINE
  5
7F
100
AcDbEntity
  8
200
100
AcDbLine
370
-1
  6
AUSGEZOGEN
 10
92.74
 20
130.4
 30
0
 11
81.58
 21
119.24
 31
0
  0
LINE
  5
80
100
AcDbEntity
  8
200
100
AcDbLine
370
-1
  6
AUSGEZOGEN
 10
56.66
 20
83
 30
0
 11
87.24
 21
113.58
 31
0
  0
LINE
  5
81
100
AcDbEntity
  8
200
100
AcDbLine
370
-1
  6
AUSGEZOGEN
 10
409
 20
83
 30
0
 11
51
 21
83
 31
0
  0
LINE
  5
82
100
AcDbEntity
  8
200
100
AcDbLine
370
-1
  6
AUSGEZOGEN
 10
81.58
 20
119.24
 30
0
 11
51
 21
88.66
 31
0
  0
LINE
  5
83
100
AcDbEntity
  8
200
100
AcDbLine
370
-1
  6
AUSGEZOGEN
 10
322.42
 20
308.08
 30
0
 11
328.08
 21
302.42
 31
0
  0
LINE
  5
84
100
AcDbEntity
  8
200
100
AcDbLine
370
-1
  6
AUSGEZOGEN
 10
361.6
 20
347.26
 30
0
 11
322.42
 21
308.08
 31
0
  0
LINE
  5
85
100
AcDbEntity
  8
200
100
AcDbLine
370
-1
  6
AUSGEZOGEN
 10
328.08
 20
302.42
 30
0
 11
367.26
 21
341.6
 31
0
  0
LINE
  5
86
100
AcDbEntity
  8
200
100
AcDbLine
370
-1
  6
AUSGEZOGEN
 10
372.76
 20
358.42
 30
0
 11
361.6
 21
347.26
 31
0
  0
LINE
  5
87
100
AcDbEntity
  8
200
100
AcDbLine
370
-1
  6
AUSGEZOGEN
 10
367.26
 20
341.6
 30
0
 11
378.42
 21
352.76
 31
0
  0
LINE
  5
88
100
AcDbEntity
  8
200
100
AcDbLine
370
-1
  6
AUSGEZOGEN
 10
403.34
 20
389
 30
0
 11
372.76
 21
358.42
 31
0
  0
LINE
  5
89
100
AcDbEntity
  8
200
100
AcDbLine
370
-1
  6
AUSGEZOGEN
 10
378.42
 20
352.76
 30
0
 11
409
 21
383.34
 31
0
  0
LINE
  5
8A
100
AcDbEntity
  8
200
100
AcDbLine
370
-1
  6
AUSGEZOGEN
 10
92.74
 20
341.6
 30
0
 11
131.92
 21
302.42
 31
0
  0
LINE
  5
8B
100
AcDbEntity
  8
200
100
AcDbLine
370
-1
  6
AUSGEZOGEN
 10
137.58
 20
308.08
 30
0
 11
98.4
 21
347.26
 31
0
  0
LINE
  5
8C
100
AcDbEntity
  8
200
100
AcDbLine
370
-1
  6
AUSGEZOGEN
 10
131.92
 20
302.42
 30
0
 11
137.58
 21
308.08
 31
0
  0
LINE
  5
8D
100
AcDbEntity
  8
200
100
AcDbLine
370
-1
  6
AUSGEZOGEN
 10
81.58
 20
352.76
 30
0
 11
92.74
 21
341.6
 31
0
  0
LINE
  5
8E
100
AcDbEntity
  8
200
100
AcDbLine
370
-1
  6
AUSGEZOGEN
 10
98.4
 20
347.26
 30
0
 11
87.24
 21
358.42
 31
0
  0
LINE
  5
8F
100
AcDbEntity
  8
200
100
AcDbLine
370
-1
  6
AUSGEZOGEN
 10
51
 20
383.34
 30
0
 11
81.58
 21
352.76
 31
0
  0
LINE
  5
90
100
AcDbEntity
  8
200
100
AcDbLine
370
-1
  6
AUSGEZOGEN
 10
87.24
 20
358.42
 30
0
 11
56.66
 21
389
 31
0
  0
LINE
  5
91
100
AcDbEntity
  8
200
100
AcDbLine
370
-1
  6
AUSGEZOGEN
 10
240.93
 20
291
 30
0
 11
219.07
 21
291
 31
0
  0
LINE
  5
92
100
AcDbEntity
  8
200
100
AcDbLine
370
-1
  6
AUSGEZOGEN
 10
219.06
 20
181
 30
0
 11
240.96
 21
181
 31
0
  0
LINE
  5
93
100
AcDbEntity
  8
200
100
AcDbLine
370
-1
  6
AUSGEZOGEN
 10
175
 20
232
 30
0
 11
175
 21
225.06
 31
0
  0
LINE
  5
94
100
AcDbEntity
  8
200
100
AcDbLine
370
-1
  6
AUSGEZOGEN
 10
175
 20
246.93
 30
0
 11
175
 21
240
 31
0
  0
LINE
  5
95
100
AcDbEntity
  8
200
100
AcDbLine
370
-1
  6
AUSGEZOGEN
 10
285
 20
240
 30
0
 11
285
 21
246.96
 31
0
  0
LINE
  5
96
100
AcDbEntity
  8
200
100
AcDbLine
370
-1
  6
AUSGEZOGEN
 10
285
 20
225.04
 30
0
 11
285
 21
232
 31
0
  0
LINE
  5
97
100
AcDbEntity
  8
200
100
AcDbLine
370
-1
  6
AUSGEZOGEN
 10
198.85
 20
282.63
 30
0
 11
183.38
 21
267.15
 31
0
  0
LINE
  5
98
100
AcDbEntity
  8
200
100
AcDbLine
370
-1
  6
AUSGEZOGEN
 10
261.15
 20
189.36
 30
0
 11
276.64
 21
204.85
 31
0
  0
LINE
  5
99
100
AcDbEntity
  8
200
100
AcDbLine
370
-1
  6
AUSGEZOGEN
 10
183.37
 20
204.84
 30
0
 11
198.85
 21
189.37
 31
0
  0
LINE
  5
9A
100
AcDbEntity
  8
200
100
AcDbLine
370
-1
  6
AUSGEZOGEN
 10
276.63
 20
267.15
 30
0
 11
261.16
 21
282.62
 31
0
  0
LINE
  5
9B
100
AcDbEntity
  8
200
100
AcDbLine
370
-1
  6
AUSGEZOGEN
 10
175
 20
246.93
 30
0
 11
183.38
 21
267.15
 31
0
  0
LINE
  5
9C
100
AcDbEntity
  8
200
100
AcDbLine
370
-1
  6
AUSGEZOGEN
 10
276.64
 20
204.85
 30
0
 11
285
 21
225.04
 31
0
  0
LINE
  5
9D
100
AcDbEntity
  8
200
100
AcDbLine
370
-1
  6
AUSGEZOGEN
 10
198.85
 20
189.37
 30
0
 11
219.06
 21
181
 31
0
  0
LINE
  5
9E
100
AcDbEntity
  8
200
100
AcDbLine
370
-1
  6
AUSGEZOGEN
 10
261.16
 20
282.62
 30
0
 11
240.93
 21
291
 31
0
  0
LINE
  5
9F
100
AcDbEntity
  8
200
100
AcDbLine
370
-1
  6
AUSGEZOGEN
 10
285
 20
246.96
 30
0
 11
276.63
 21
267.15
 31
0
  0
LINE
  5
A0
100
AcDbEntity
  8
200
100
AcDbLine
370
-1
  6
AUSGEZOGEN
 10
183.37
 20
204.84
 30
0
 11
175
 21
225.06
 31
0
  0
LINE
  5
A1
100
AcDbEntity
  8
200
100
AcDbLine
370
-1
  6
AUSGEZOGEN
 10
219.07
 20
291
 30
0
 11
198.85
 21
282.63
 31
0
  0
LINE
  5
A2
100
AcDbEntity
  8
200
100
AcDbLine
370
-1
  6
AUSGEZOGEN
 10
261.15
 20
189.36
 30
0
 11
240.96
 21
181
 31
0
  0
LINE
  5
A3
100
AcDbEntity
  8
200
100
AcDbLine
370
-1
  6
AUSGEZOGEN
 10
236.56
 20
269
 30
0
 11
248.69
 21
263.98
 31
0
  0
LINE
  5
A4
100
AcDbEntity
  8
200
100
AcDbLine
370
-1
  6
AUSGEZOGEN
 10
257.98
 20
254.69
 30
0
 11
248.69
 21
263.98
 31
0
  0
LINE
  5
A5
100
AcDbEntity
  8
200
100
AcDbLine
370
-1
  6
AUSGEZOGEN
 10
263
 20
242.57
 30
0
 11
257.98
 21
254.69
 31
0
  0
LINE
  5
A6
100
AcDbEntity
  8
200
100
AcDbLine
370
-1
  6
AUSGEZOGEN
 10
263
 20
229.43
 30
0
 11
263
 21
242.57
 31
0
  0
LINE
  5
A7
100
AcDbEntity
  8
200
100
AcDbLine
370
-1
  6
AUSGEZOGEN
 10
257.98
 20
217.31
 30
0
 11
263
 21
229.43
 31
0
  0
LINE
  5
A8
100
AcDbEntity
  8
200
100
AcDbLine
370
-1
  6
AUSGEZOGEN
 10
248.69
 20
208.02
 30
0
 11
257.98
 21
217.31
 31
0
  0
LINE
  5
A9
100
AcDbEntity
  8
200
100
AcDbLine
370
-1
  6
AUSGEZOGEN
 10
236.57
 20
203
 30
0
 11
248.69
 21
208.02
 31
0
  0
LINE
  5
AA
100
AcDbEntity
  8
200
100
AcDbLine
370
-1
  6
AUSGEZOGEN
 10
223.43
 20
203
 30
0
 11
236.57
 21
203
 31
0
  0
LINE
  5
AB
100
AcDbEntity
  8
200
100
AcDbLine
370
-1
  6
AUSGEZOGEN
 10
211.31
 20
208.02
 30
0
 11
223.43
 21
203
 31
0
  0
LINE
  5
AC
100
AcDbEntity
  8
200
100
AcDbLine
370
-1
  6
AUSGEZOGEN
 10
202.02
 20
217.31
 30
0
 11
211.31
 21
208.02
 31
0
  0
LINE
  5
AD
100
AcDbEntity
  8
200
100
AcDbLine
370
-1
  6
AUSGEZOGEN
 10
197
 20
229.43
 30
0
 11
202.02
 21
217.31
 31
0
  0
LINE
  5
AE
100
AcDbEntity
  8
200
100
AcDbLine
370
-1
  6
AUSGEZOGEN
 10
202.02
 20
254.69
 30
0
 11
197
 21
242.57
 31
0
  0
LINE
  5
AF
100
AcDbEntity
  8
200
100
AcDbLine
370
-1
  6
AUSGEZOGEN
 10
211.31
 20
263.98
 30
0
 11
202.02
 21
254.69
 31
0
  0
LINE
  5
B0
100
AcDbEntity
  8
200
100
AcDbLine
370
-1
  6
AUSGEZOGEN
 10
223.43
 20
269
 30
0
 11
211.31
 21
263.98
 31
0
  0
LINE
  5
B1
100
AcDbEntity
  8
200
100
AcDbLine
370
-1
  6
AUSGEZOGEN
 10
197
 20
229.43
 30
0
 11
197
 21
242.57
 31
0
  0
LINE
  5
B2
100
AcDbEntity
  8
200
100
AcDbLine
370
-1
  6
AUSGEZOGEN
 10
236.56
 20
269
 30
0
 11
223.43
 21
269
 31
0
  0
LINE
  5
B3
100
AcDbEntity
  8
200
100
AcDbLine
370
-1
  6
AUSGEZOGEN
 10
399
 20
628.92
 30
0
 11
399
 21
546
 31
0
  0
LINE
  5
B4
100
AcDbEntity
  8
200
100
AcDbLine
370
-1
  6
AUSGEZOGEN
 10
399
 20
455.08
 30
0
 11
399
 21
538
 31
0
  0
LINE
  5
B5
100
AcDbEntity
  8
200
100
AcDbLine
370
-1
  6
AUSGEZOGEN
 10
369
 20
538
 30
0
 11
369
 21
461.04
 31
0
  0
LINE
  5
B6
100
AcDbEntity
  8
200
100
AcDbLine
370
-1
  6
AUSGEZOGEN
 10
369
 20
622.96
 30
0
 11
369
 21
546
 31
0
  0
LINE
  5
B7
100
AcDbEntity
  8
200
100
AcDbLine
370
-1
  6
AUSGEZOGEN
 10
61
 20
455.08
 30
0
 11
61
 21
538
 31
0
  0
LINE
  5
B8
100
AcDbEntity
  8
200
100
AcDbLine
370
-1
  6
AUSGEZOGEN
 10
61
 20
628.92
 30
0
 11
61
 21
546
 31
0
  0
LINE
  5
B9
100
AcDbEntity
  8
200
100
AcDbLine
370
-1
  6
AUSGEZOGEN
 10
91
 20
546
 30
0
 11
91
 21
622.96
 31
0
  0
LINE
  5
BA
100
AcDbEntity
  8
200
100
AcDbLine
370
-1
  6
AUSGEZOGEN
 10
91
 20
461.04
 30
0
 11
91
 21
538
 31
0
  0
LINE
  5
BB
100
AcDbEntity
  8
200
100
AcDbLine
370
-1
  6
AUSGEZOGEN
 10
342.92
 20
399
 30
0
 11
234
 21
399
 31
0
  0
LINE
  5
BC
100
AcDbEntity
  8
200
100
AcDbLine
370
-1
  6
AUSGEZOGEN
 10
117.08
 20
399
 30
0
 11
226
 21
399
 31
0
  0
LINE
  5
BD
100
AcDbEntity
  8
200
100
AcDbLine
370
-1
  6
AUSGEZOGEN
 10
226
 20
429
 30
0
 11
123.04
 21
429
 31
0
  0
LINE
  5
BE
100
AcDbEntity
  8
200
100
AcDbLine
370
-1
  6
AUSGEZOGEN
 10
336.96
 20
429
 30
0
 11
234
 21
429
 31
0
  0
LINE
  5
BF
100
AcDbEntity
  8
200
100
AcDbLine
370
-1
  6
AUSGEZOGEN
 10
117.08
 20
685
 30
0
 11
226
 21
685
 31
0
  0
LINE
  5
C0
100
AcDbEntity
  8
200
100
AcDbLine
370
-1
  6
AUSGEZOGEN
 10
342.92
 20
685
 30
0
 11
234
 21
685
 31
0
  0
LINE
  5
C1
100
AcDbEntity
  8
200
100
AcDbLine
370
-1
  6
AUSGEZOGEN
 10
234
 20
655
 30
0
 11
336.96
 21
655
 31
0
  0
LINE
  5
C2
100
AcDbEntity
  8
200
100
AcDbLine
370
-1
  6
AUSGEZOGEN
 10
123.04
 20
655
 30
0
 11
226
 21
655
 31
0
  0
LINE
  5
C3
100
AcDbEntity
  8
200
100
AcDbLine
370
-1
  6
AUSGEZOGEN
 10
354.46
 20
437.88
 30
0
 11
351.66
 21
435.08
 31
0
  0
LINE
  5
C4
100
AcDbEntity
  8
200
100
AcDbLine
370
-1
  6
AUSGEZOGEN
 10
362.92
 20
446.34
 30
0
 11
360.12
 21
443.54
 31
0
  0
LINE
  5
C5
100
AcDbEntity
  8
200
100
AcDbLine
370
-1
  6
AUSGEZOGEN
 10
375.67
 20
416.67
 30
0
 11
368.66
 21
409.66
 31
0
  0
LINE
  5
C6
100
AcDbEntity
  8
200
100
AcDbLine
370
-1
  6
AUSGEZOGEN
 10
388.34
 20
429.34
 30
0
 11
381.33
 21
422.33
 31
0
  0
LINE
  5
C7
100
AcDbEntity
  8
200
100
AcDbLine
370
-1
  6
AUSGEZOGEN
 10
105.54
 20
646.12
 30
0
 11
108.34
 21
648.92
 31
0
  0
LINE
  5
C8
100
AcDbEntity
  8
200
100
AcDbLine
370
-1
  6
AUSGEZOGEN
 10
97.08
 20
637.66
 30
0
 11
99.88
 21
640.46
 31
0
  0
LINE
  5
C9
100
AcDbEntity
  8
200
100
AcDbLine
370
-1
  6
AUSGEZOGEN
 10
84.33
 20
667.33
 30
0
 11
91.34
 21
674.34
 31
0
  0
LINE
  5
CA
100
AcDbEntity
  8
200
100
AcDbLine
370
-1
  6
AUSGEZOGEN
 10
71.66
 20
654.66
 30
0
 11
78.67
 21
661.67
 31
0
  0
LINE
  5
CB
100
AcDbEntity
  8
200
100
AcDbLine
370
-1
  6
AUSGEZOGEN
 10
99.88
 20
443.54
 30
0
 11
97.08
 21
446.34
 31
0
  0
LINE
  5
CC
100
AcDbEntity
  8
200
100
AcDbLine
370
-1
  6
AUSGEZOGEN
 10
108.34
 20
435.08
 30
0
 11
105.54
 21
437.88
 31
0
  0
LINE
  5
CD
100
AcDbEntity
  8
200
100
AcDbLine
370
-1
  6
AUSGEZOGEN
 10
78.67
 20
422.33
 30
0
 11
71.66
 21
429.34
 31
0
  0
LINE
  5
CE
100
AcDbEntity
  8
200
100
AcDbLine
370
-1
  6
AUSGEZOGEN
 10
91.34
 20
409.66
 30
0
 11
84.33
 21
416.67
 31
0
  0
LINE
  5
CF
100
AcDbEntity
  8
200
100
AcDbLine
370
-1
  6
AUSGEZOGEN
 10
360.12
 20
640.46
 30
0
 11
362.92
 21
637.66
 31
0
  0
LINE
  5
D0
100
AcDbEntity
  8
200
100
AcDbLine
370
-1
  6
AUSGEZOGEN
 10
351.66
 20
648.92
 30
0
 11
354.46
 21
646.12
 31
0
  0
LINE
  5
D1
100
AcDbEntity
  8
200
100
AcDbLine
370
-1
  6
AUSGEZOGEN
 10
381.33
 20
661.67
 30
0
 11
388.34
 21
654.66
 31
0
  0
LINE
  5
D2
100
AcDbEntity
  8
200
100
AcDbLine
370
-1
  6
AUSGEZOGEN
 10
368.66
 20
674.34
 30
0
 11
375.67
 21
667.33
 31
0
  0
LINE
  5
D3
100
AcDbEntity
  8
200
100
AcDbLine
370
-1
  6
AUSGEZOGEN
 10
362.9
 20
446.34
 30
0
 11
369
 21
461.04
 31
0
  0
LINE
  5
D4
100
AcDbEntity
  8
200
100
AcDbLine
370
-1
  6
AUSGEZOGEN
 10
399
 20
455.08
 30
0
 11
388.34
 21
429.36
 31
0
  0
LINE
  5
D5
100
AcDbEntity
  8
200
100
AcDbLine
370
-1
  6
AUSGEZOGEN
 10
97.1
 20
637.66
 30
0
 11
91
 21
622.96
 31
0
  0
LINE
  5
D6
100
AcDbEntity
  8
200
100
AcDbLine
370
-1
  6
AUSGEZOGEN
 10
61
 20
628.92
 30
0
 11
71.66
 21
654.64
 31
0
  0
LINE
  5
D7
100
AcDbEntity
  8
200
100
AcDbLine
370
-1
  6
AUSGEZOGEN
 10
123.04
 20
429
 30
0
 11
108.34
 21
435.1
 31
0
  0
LINE
  5
D8
100
AcDbEntity
  8
200
100
AcDbLine
370
-1
  6
AUSGEZOGEN
 10
91.36
 20
409.66
 30
0
 11
117.08
 21
399
 31
0
  0
LINE
  5
D9
100
AcDbEntity
  8
200
100
AcDbLine
370
-1
  6
AUSGEZOGEN
 10
351.66
 20
648.9
 30
0
 11
336.96
 21
655
 31
0
  0
LINE
  5
DA
100
AcDbEntity
  8
200
100
AcDbLine
370
-1
  6
AUSGEZOGEN
 10
342.92
 20
685
 30
0
 11
368.64
 21
674.34
 31
0
  0
LINE
  5
DB
100
AcDbEntity
  8
200
100
AcDbLine
370
-1
  6
AUSGEZOGEN
 10
336.96
 20
429
 30
0
 11
351.66
 21
435.08
 31
0
  0
LINE
  5
DC
100
AcDbEntity
  8
200
100
AcDbLine
370
-1
  6
AUSGEZOGEN
 10
368.64
 20
409.66
 30
0
 11
342.94
 21
399
 31
0
  0
LINE
  5
DD
100
AcDbEntity
  8
200
100
AcDbLine
370
-1
  6
AUSGEZOGEN
 10
108.34
 20
648.92
 30
0
 11
123.04
 21
655
 31
0
  0
LINE
  5
DE
100
AcDbEntity
  8
200
100
AcDbLine
370
-1
  6
AUSGEZOGEN
 10
117.06
 20
685
 30
0
 11
91.36
 21
674.34
 31
0
  0
LINE
  5
DF
100
AcDbEntity
  8
200
100
AcDbLine
370
-1
  6
AUSGEZOGEN
 10
97.08
 20
446.34
 30
0
 11
91
 21
461.04
 31
0
  0
LINE
  5
E0
100
AcDbEntity
  8
200
100
AcDbLine
370
-1
  6
AUSGEZOGEN
 10
61
 20
455.06
 30
0
 11
71.66
 21
429.36
 31
0
  0
LINE
  5
E1
100
AcDbEntity
  8
200
100
AcDbLine
370
-1
  6
AUSGEZOGEN
 10
362.92
 20
637.66
 30
0
 11
369
 21
622.96
 31
0
  0
LINE
  5
E2
100
AcDbEntity
  8
200
100
AcDbLine
370
-1
  6
AUSGEZOGEN
 10
399
 20
628.94
 30
0
 11
388.34
 21
654.64
 31
0
  0
LINE
  5
E3
100
AcDbEntity
  8
200
100
AcDbLine
370
-1
  6
AUSGEZOGEN
 10
181
 20
538
 30
0
 11
181
 21
546
 31
0
  0
LINE
  5
E4
100
AcDbEntity
  8
200
100
AcDbLine
370
-1
  6
AUSGEZOGEN
 10
51
 20
538
 30
0
 11
181
 21
538
 31
0
  0
LINE
  5
E5
100
AcDbEntity
  8
200
100
AcDbLine
370
-1
  6
AUSGEZOGEN
 10
181
 20
546
 30
0
 11
51
 21
546
 31
0
  0
LINE
  5
E6
100
AcDbEntity
  8
200
100
AcDbLine
370
-1
  6
AUSGEZOGEN
 10
279
 20
538
 30
0
 11
279
 21
546
 31
0
  0
LINE
  5
E7
100
AcDbEntity
  8
200
100
AcDbLine
370
-1
  6
AUSGEZOGEN
 10
409
 20
546
 30
0
 11
279
 21
546
 31
0
  0
LINE
  5
E8
100
AcDbEntity
  8
200
100
AcDbLine
370
-1
  6
AUSGEZOGEN
 10
279
 20
538
 30
0
 11
409
 21
538
 31
0
  0
LINE
  5
E9
100
AcDbEntity
  8
200
100
AcDbLine
370
-1
  6
AUSGEZOGEN
 10
226
 20
615
 30
0
 11
234
 21
615
 31
0
  0
LINE
  5
EA
100
AcDbEntity
  8
200
100
AcDbLine
370
-1
  6
AUSGEZOGEN
 10
226
 20
695
 30
0
 11
226
 21
615
 31
0
  0
LINE
  5
EB
100
AcDbEntity
  8
200
100
AcDbLine
370
-1
  6
AUSGEZOGEN
 10
234
 20
615
 30
0
 11
234
 21
695
 31
0
  0
LINE
  5
EC
100
AcDbEntity
  8
200
100
AcDbLine
370
-1
  6
AUSGEZOGEN
 10
226
 20
469
 30
0
 11
234
 21
469
 31
0
  0
LINE
  5
ED
100
AcDbEntity
  8
200
100
AcDbLine
370
-1
  6
AUSGEZOGEN
 10
234
 20
309
 30
0
 11
234
 21
469
 31
0
  0
LINE
  5
EE
100
AcDbEntity
  8
200
100
AcDbLine
370
-1
  6
AUSGEZOGEN
 10
226
 20
469
 30
0
 11
226
 21
309
 31
0
  0
LINE
  5
EF
100
AcDbEntity
  8
200
100
AcDbLine
370
-1
  6
AUSGEZOGEN
 10
131.92
 20
475.58
 30
0
 11
137.58
 21
469.92
 31
0
  0
LINE
  5
F0
100
AcDbEntity
  8
200
100
AcDbLine
370
-1
  6
AUSGEZOGEN
 10
98.4
 20
430.74
 30
0
 11
137.58
 21
469.92
 31
0
  0
LINE
  5
F1
100
AcDbEntity
  8
200
100
AcDbLine
370
-1
  6
AUSGEZOGEN
 10
131.92
 20
475.58
 30
0
 11
92.74
 21
436.4
 31
0
  0
LINE
  5
F2
100
AcDbEntity
  8
200
100
AcDbLine
370
-1
  6
AUSGEZOGEN
 10
87.24
 20
419.58
 30
0
 11
98.4
 21
430.74
 31
0
  0
LINE
  5
F3
100
AcDbEntity
  8
200
100
AcDbLine
370
-1
  6
AUSGEZOGEN
 10
92.74
 20
436.4
 30
0
 11
81.58
 21
425.24
 31
0
  0
LINE
  5
F4
100
AcDbEntity
  8
200
100
AcDbLine
370
-1
  6
AUSGEZOGEN
 10
56.66
 20
389
 30
0
 11
87.24
 21
419.58
 31
0
  0
LINE
  5
F5
100
AcDbEntity
  8
200
100
AcDbLine
370
-1
  6
AUSGEZOGEN
 10
81.58
 20
425.24
 30
0
 11
51
 21
394.66
 31
0
  0
LINE
  5
F6
100
AcDbEntity
  8
200
100
AcDbLine
370
-1
  6
AUSGEZOGEN
 10
367.26
 20
436.4
 30
0
 11
328.08
 21
475.58
 31
0
  0
LINE
  5
F7
100
AcDbEntity
  8
200
100
AcDbLine
370
-1
  6
AUSGEZOGEN
 10
322.42
 20
469.92
 30
0
 11
361.6
 21
430.74
 31
0
  0
LINE
  5
F8
100
AcDbEntity
  8
200
100
AcDbLine
370
-1
  6
AUSGEZOGEN
 10
328.08
 20
475.58
 30
0
 11
322.42
 21
469.92
 31
0
  0
LINE
  5
F9
100
AcDbEntity
  8
200
100
AcDbLine
370
-1
  6
AUSGEZOGEN
 10
378.42
 20
425.24
 30
0
 11
367.26
 21
436.4
 31
0
  0
LINE
  5
FA
100
AcDbEntity
  8
200
100
AcDbLine
370
-1
  6
AUSGEZOGEN
 10
361.6
 20
430.74
 30
0
 11
372.76
 21
419.58
 31
0
  0
LINE
  5
FB
100
AcDbEntity
  8
200
100
AcDbLine
370
-1
  6
AUSGEZOGEN
 10
51
 20
389
 30
0
 11
409
 21
389
 31
0
  0
LINE
  5
FC
100
AcDbEntity
  8
200
100
AcDbLine
370
-1
  6
AUSGEZOGEN
 10
409
 20
394.66
 30
0
 11
378.42
 21
425.24
 31
0
  0
LINE
  5
FD
100
AcDbEntity
  8
200
100
AcDbLine
370
-1
  6
AUSGEZOGEN
 10
372.76
 20
419.58
 30
0
 11
403.34
 21
389
 31
0
  0
LINE
  5
FE
100
AcDbEntity
  8
200
100
AcDbLine
370
-1
  6
AUSGEZOGEN
 10
92.74
 20
647.6
 30
0
 11
131.92
 21
608.42
 31
0
  0
LINE
  5
FF
100
AcDbEntity
  8
200
100
AcDbLine
370
-1
  6
AUSGEZOGEN
 10
137.58
 20
614.08
 30
0
 11
98.4
 21
653.26
 31
0
  0
LINE
  5
100
100
AcDbEntity
  8
200
100
AcDbLine
370
-1
  6
AUSGEZOGEN
 10
131.92
 20
608.42
 30
0
 11
137.58
 21
614.08
 31
0
  0
LINE
  5
101
100
AcDbEntity
  8
200
100
AcDbLine
370
-1
  6
AUSGEZOGEN
 10
81.58
 20
658.76
 30
0
 11
92.74
 21
647.6
 31
0
  0
LINE
  5
102
100
AcDbEntity
  8
200
100
AcDbLine
370
-1
  6
AUSGEZOGEN
 10
98.4
 20
653.26
 30
0
 11
87.24
 21
664.42
 31
0
  0
LINE
  5
103
100
AcDbEntity
  8
200
100
AcDbLine
370
-1
  6
AUSGEZOGEN
 10
51
 20
689.34
 30
0
 11
81.58
 21
658.76
 31
0
  0
LINE
  5
104
100
AcDbEntity
  8
200
100
AcDbLine
370
-1
  6
AUSGEZOGEN
 10
51
 20
83
 30
0
 11
51
 21
695
 31
0
  0
LINE
  5
105
100
AcDbEntity
  8
200
100
AcDbLine
370
-1
  6
AUSGEZOGEN
 10
87.24
 20
664.42
 30
0
 11
56.66
 21
695
 31
0
  0
LINE
  5
106
100
AcDbEntity
  8
200
100
AcDbLine
370
-1
  6
AUSGEZOGEN
 10
328.08
 20
608.42
 30
0
 11
322.42
 21
614.08
 31
0
  0
LINE
  5
107
100
AcDbEntity
  8
200
100
AcDbLine
370
-1
  6
AUSGEZOGEN
 10
361.6
 20
653.26
 30
0
 11
322.42
 21
614.08
 31
0
  0
LINE
  5
108
100
AcDbEntity
  8
200
100
AcDbLine
370
-1
  6
AUSGEZOGEN
 10
328.08
 20
608.42
 30
0
 11
367.26
 21
647.6
 31
0
  0
LINE
  5
109
100
AcDbEntity
  8
200
100
AcDbLine
370
-1
  6
AUSGEZOGEN
 10
372.76
 20
664.42
 30
0
 11
361.6
 21
653.26
 31
0
  0
LINE
  5
10A
100
AcDbEntity
  8
200
100
AcDbLine
370
-1
  6
AUSGEZOGEN
 10
367.26
 20
647.6
 30
0
 11
378.42
 21
658.76
 31
0
  0
LINE
  5
10B
100
AcDbEntity
  8
200
100
AcDbLine
370
-1
  6
AUSGEZOGEN
 10
51
 20
695
 30
0
 11
409
 21
695
 31
0
  0
LINE
  5
10C
100
AcDbEntity
  8
200
100
AcDbLine
370
-1
  6
AUSGEZOGEN
 10
403.34
 20
695
 30
0
 11
372.76
 21
664.42
 31
0
  0
LINE
  5
10D
100
AcDbEntity
  8
200
100
AcDbLine
370
-1
  6
AUSGEZOGEN
 10
409
 20
83
 30
0
 11
409
 21
695
 31
0
  0
LINE
  5
10E
100
AcDbEntity
  8
200
100
AcDbLine
370
-1
  6
AUSGEZOGEN
 10
378.42
 20
658.76
 30
0
 11
409
 21
689.34
 31
0
  0
LINE
  5
10F
100
AcDbEntity
  8
200
100
AcDbLine
370
-1
  6
AUSGEZOGEN
 10
219.07
 20
597
 30
0
 11
240.93
 21
597
 31
0
  0
LINE
  5
110
100
AcDbEntity
  8
200
100
AcDbLine
370
-1
  6
AUSGEZOGEN
 10
240.94
 20
487
 30
0
 11
219.04
 21
487
 31
0
  0
LINE
  5
111
100
AcDbEntity
  8
200
100
AcDbLine
370
-1
  6
AUSGEZOGEN
 10
285
 20
552.93
 30
0
 11
285
 21
546
 31
0
  0
LINE
  5
112
100
AcDbEntity
  8
200
100
AcDbLine
370
-1
  6
AUSGEZOGEN
 10
285
 20
531.06
 30
0
 11
285
 21
538
 31
0
  0
LINE
  5
113
100
AcDbEntity
  8
200
100
AcDbLine
370
-1
  6
AUSGEZOGEN
 10
175
 20
538
 30
0
 11
175
 21
531.04
 31
0
  0
LINE
  5
114
100
AcDbEntity
  8
200
100
AcDbLine
370
-1
  6
AUSGEZOGEN
 10
175
 20
552.96
 30
0
 11
175
 21
546
 31
0
  0
LINE
  5
115
100
AcDbEntity
  8
200
100
AcDbLine
370
-1
  6
AUSGEZOGEN
 10
261.15
 20
588.63
 30
0
 11
276.62
 21
573.15
 31
0
  0
LINE
  5
116
100
AcDbEntity
  8
200
100
AcDbLine
370
-1
  6
AUSGEZOGEN
 10
183.36
 20
510.85
 30
0
 11
198.85
 21
495.36
 31
0
  0
LINE
  5
117
100
AcDbEntity
  8
200
100
AcDbLine
370
-1
  6
AUSGEZOGEN
 10
276.63
 20
510.84
 30
0
 11
261.15
 21
495.37
 31
0
  0
LINE
  5
118
100
AcDbEntity
  8
200
100
AcDbLine
370
-1
  6
AUSGEZOGEN
 10
198.84
 20
588.62
 30
0
 11
183.37
 21
573.15
 31
0
  0
LINE
  5
119
100
AcDbEntity
  8
200
100
AcDbLine
370
-1
  6
AUSGEZOGEN
 10
285
 20
552.93
 30
0
 11
276.62
 21
573.15
 31
0
  0
LINE
  5
11A
100
AcDbEntity
  8
200
100
AcDbLine
370
-1
  6
AUSGEZOGEN
 10
183.36
 20
510.85
 30
0
 11
175
 21
531.04
 31
0
  0
LINE
  5
11B
100
AcDbEntity
  8
200
100
AcDbLine
370
-1
  6
AUSGEZOGEN
 10
261.15
 20
495.37
 30
0
 11
240.94
 21
487
 31
0
  0
LINE
  5
11C
100
AcDbEntity
  8
200
100
AcDbLine
370
-1
  6
AUSGEZOGEN
 10
198.84
 20
588.62
 30
0
 11
219.07
 21
597
 31
0
  0
LINE
  5
11D
100
AcDbEntity
  8
200
100
AcDbLine
370
-1
  6
AUSGEZOGEN
 10
175
 20
552.96
 30
0
 11
183.37
 21
573.15
 31
0
  0
LINE
  5
11E
100
AcDbEntity
  8
200
100
AcDbLine
370
-1
  6
AUSGEZOGEN
 10
276.63
 20
510.84
 30
0
 11
285
 21
531.06
 31
0
  0
LINE
  5
11F
100
AcDbEntity
  8
200
100
AcDbLine
370
-1
  6
AUSGEZOGEN
 10
240.93
 20
597
 30
0
 11
261.15
 21
588.63
 31
0
  0
LINE
  5
120
100
AcDbEntity
  8
200
100
AcDbLine
370
-1
  6
AUSGEZOGEN
 10
198.85
 20
495.36
 30
0
 11
219.04
 21
487
 31
0
  0
LINE
  5
121
100
AcDbEntity
  8
200
100
AcDbLine
370
-1
  6
AUSGEZOGEN
 10
248.69
 20
569.98
 30
0
 11
236.57
 21
575
 31
0
  0
LINE
  5
122
100
AcDbEntity
  8
200
100
AcDbLine
370
-1
  6
AUSGEZOGEN
 10
257.98
 20
560.69
 30
0
 11
248.69
 21
569.98
 31
0
  0
LINE
  5
123
100
AcDbEntity
  8
200
100
AcDbLine
370
-1
  6
AUSGEZOGEN
 10
263
 20
548.57
 30
0
 11
257.98
 21
560.69
 31
0
  0
LINE
  5
124
100
AcDbEntity
  8
200
100
AcDbLine
370
-1
  6
AUSGEZOGEN
 10
257.98
 20
523.31
 30
0
 11
263
 21
535.43
 31
0
  0
LINE
  5
125
100
AcDbEntity
  8
200
100
AcDbLine
370
-1
  6
AUSGEZOGEN
 10
248.69
 20
514.02
 30
0
 11
257.98
 21
523.31
 31
0
  0
LINE
  5
126
100
AcDbEntity
  8
200
100
AcDbLine
370
-1
  6
AUSGEZOGEN
 10
236.57
 20
509
 30
0
 11
248.69
 21
514.02
 31
0
  0
LINE
  5
127
100
AcDbEntity
  8
200
100
AcDbLine
370
-1
  6
AUSGEZOGEN
 10
211.31
 20
514.02
 30
0
 11
223.43
 21
509
 31
0
  0
LINE
  5
128
100
AcDbEntity
  8
200
100
AcDbLine
370
-1
  6
AUSGEZOGEN
 10
202.02
 20
523.31
 30
0
 11
211.31
 21
514.02
 31
0
  0
LINE
  5
129
100
AcDbEntity
  8
200
100
AcDbLine
370
-1
  6
AUSGEZOGEN
 10
197
 20
535.43
 30
0
 11
202.02
 21
523.31
 31
0
  0
LINE
  5
12A
100
AcDbEntity
  8
200
100
AcDbLine
370
-1
  6
AUSGEZOGEN
 10
197
 20
548.57
 30
0
 11
197
 21
535.43
 31
0
  0
LINE
  5
12B
100
AcDbEntity
  8
200
100
AcDbLine
370
-1
  6
AUSGEZOGEN
 10
202.02
 20
560.69
 30
0
 11
197
 21
548.57
 31
0
  0
LINE
  5
12C
100
AcDbEntity
  8
200
100
AcDbLine
370
-1
  6
AUSGEZOGEN
 10
211.31
 20
569.98
 30
0
 11
202.02
 21
560.69
 31
0
  0
LINE
  5
12D
100
AcDbEntity
  8
200
100
AcDbLine
370
-1
  6
AUSGEZOGEN
 10
223.44
 20
575
 30
0
 11
211.31
 21
569.98
 31
0
  0
LINE
  5
12E
100
AcDbEntity
  8
200
100
AcDbLine
370
-1
  6
AUSGEZOGEN
 10
236.57
 20
575
 30
0
 11
223.44
 21
575
 31
0
  0
LINE
  5
12F
100
AcDbEntity
  8
200
100
AcDbLine
370
-1
  6
AUSGEZOGEN
 10
263
 20
535.43
 30
0
 11
263
 21
548.57
 31
0
  0
LINE
  5
130
100
AcDbEntity
  8
200
100
AcDbLine
370
-1
  6
AUSGEZOGEN
 10
223.43
 20
509
 30
0
 11
236.57
 21
509
 31
0
  0
LINE
  5
131
100
AcDbEntity
  8
200
100
AcDbLine
370
-1
  6
AUSGEZOGEN
 10
799
 20
240
 30
0
 11
799
 21
322.92
 31
0
  0
LINE
  5
132
100
AcDbEntity
  8
200
100
AcDbLine
370
-1
  6
AUSGEZOGEN
 10
799
 20
149.08
 30
0
 11
799
 21
232
 31
0
  0
LINE
  5
133
100
AcDbEntity
  8
200
100
AcDbLine
370
-1
  6
AUSGEZOGEN
 10
769
 20
232
 30
0
 11
769
 21
155.04
 31
0
  0
LINE
  5
134
100
AcDbEntity
  8
200
100
AcDbLine
370
-1
  6
AUSGEZOGEN
 10
769
 20
316.96
 30
0
 11
769
 21
240
 31
0
  0
LINE
  5
135
100
AcDbEntity
  8
200
100
AcDbLine
370
-1
  6
AUSGEZOGEN
 10
461
 20
149.08
 30
0
 11
461
 21
232
 31
0
  0
LINE
  5
136
100
AcDbEntity
  8
200
100
AcDbLine
370
-1
  6
AUSGEZOGEN
 10
461
 20
322.92
 30
0
 11
461
 21
240
 31
0
  0
LINE
  5
137
100
AcDbEntity
  8
200
100
AcDbLine
370
-1
  6
AUSGEZOGEN
 10
491
 20
240
 30
0
 11
491
 21
316.96
 31
0
  0
LINE
  5
138
100
AcDbEntity
  8
200
100
AcDbLine
370
-1
  6
AUSGEZOGEN
 10
491
 20
155.04
 30
0
 11
491
 21
232
 31
0
  0
LINE
  5
139
100
AcDbEntity
  8
200
100
AcDbLine
370
-1
  6
AUSGEZOGEN
 10
742.92
 20
93
 30
0
 11
634
 21
93
 31
0
  0
LINE
  5
13A
100
AcDbEntity
  8
200
100
AcDbLine
370
-1
  6
AUSGEZOGEN
 10
517.08
 20
93
 30
0
 11
626
 21
93
 31
0
  0
LINE
  5
13B
100
AcDbEntity
  8
200
100
AcDbLine
370
-1
  6
AUSGEZOGEN
 10
626
 20
123
 30
0
 11
523.04
 21
123
 31
0
  0
LINE
  5
13C
100
AcDbEntity
  8
200
100
AcDbLine
370
-1
  6
AUSGEZOGEN
 10
736.96
 20
123
 30
0
 11
634
 21
123
 31
0
  0
LINE
  5
13D
100
AcDbEntity
  8
200
100
AcDbLine
370
-1
  6
AUSGEZOGEN
 10
517.08
 20
379
 30
0
 11
626
 21
379
 31
0
  0
LINE
  5
13E
100
AcDbEntity
  8
200
100
AcDbLine
370
-1
  6
AUSGEZOGEN
 10
742.92
 20
379
 30
0
 11
634
 21
379
 31
0
  0
LINE
  5
13F
100
AcDbEntity
  8
200
100
AcDbLine
370
-1
  6
AUSGEZOGEN
 10
634
 20
349
 30
0
 11
736.96
 21
349
 31
0
  0
LINE
  5
140
100
AcDbEntity
  8
200
100
AcDbLine
370
-1
  6
AUSGEZOGEN
 10
523.04
 20
349
 30
0
 11
626
 21
349
 31
0
  0
LINE
  5
141
100
AcDbEntity
  8
200
100
AcDbLine
370
-1
  6
AUSGEZOGEN
 10
754.46
 20
131.88
 30
0
 11
751.66
 21
129.08
 31
0
  0
LINE
  5
142
100
AcDbEntity
  8
200
100
AcDbLine
370
-1
  6
AUSGEZOGEN
 10
762.92
 20
140.34
 30
0
 11
760.12
 21
137.54
 31
0
  0
LINE
  5
143
100
AcDbEntity
  8
200
100
AcDbLine
370
-1
  6
AUSGEZOGEN
 10
775.67
 20
110.67
 30
0
 11
768.66
 21
103.66
 31
0
  0
LINE
  5
144
100
AcDbEntity
  8
200
100
AcDbLine
370
-1
  6
AUSGEZOGEN
 10
788.34
 20
123.34
 30
0
 11
781.33
 21
116.33
 31
0
  0
LINE
  5
145
100
AcDbEntity
  8
200
100
AcDbLine
370
-1
  6
AUSGEZOGEN
 10
505.54
 20
340.12
 30
0
 11
508.34
 21
342.92
 31
0
  0
LINE
  5
146
100
AcDbEntity
  8
200
100
AcDbLine
370
-1
  6
AUSGEZOGEN
 10
497.08
 20
331.66
 30
0
 11
499.88
 21
334.46
 31
0
  0
LINE
  5
147
100
AcDbEntity
  8
200
100
AcDbLine
370
-1
  6
AUSGEZOGEN
 10
484.33
 20
361.33
 30
0
 11
491.34
 21
368.34
 31
0
  0
LINE
  5
148
100
AcDbEntity
  8
200
100
AcDbLine
370
-1
  6
AUSGEZOGEN
 10
471.66
 20
348.66
 30
0
 11
478.67
 21
355.67
 31
0
  0
LINE
  5
149
100
AcDbEntity
  8
200
100
AcDbLine
370
-1
  6
AUSGEZOGEN
 10
499.88
 20
137.54
 30
0
 11
497.08
 21
140.34
 31
0
  0
LINE
  5
14A
100
AcDbEntity
  8
200
100
AcDbLine
370
-1
  6
AUSGEZOGEN
 10
508.34
 20
129.08
 30
0
 11
505.54
 21
131.88
 31
0
  0
LINE
  5
14B
100
AcDbEntity
  8
200
100
AcDbLine
370
-1
  6
AUSGEZOGEN
 10
478.67
 20
116.33
 30
0
 11
471.66
 21
123.34
 31
0
  0
LINE
  5
14C
100
AcDbEntity
  8
200
100
AcDbLine
370
-1
  6
AUSGEZOGEN
 10
491.34
 20
103.66
 30
0
 11
484.33
 21
110.67
 31
0
  0
LINE
  5
14D
100
AcDbEntity
  8
200
100
AcDbLine
370
-1
  6
AUSGEZOGEN
 10
760.12
 20
334.46
 30
0
 11
762.92
 21
331.66
 31
0
  0
LINE
  5
14E
100
AcDbEntity
  8
200
100
AcDbLine
370
-1
  6
AUSGEZOGEN
 10
751.66
 20
342.92
 30
0
 11
754.46
 21
340.12
 31
0
  0
LINE
  5
14F
100
AcDbEntity
  8
200
100
AcDbLine
370
-1
  6
AUSGEZOGEN
 10
781.33
 20
355.67
 30
0
 11
788.34
 21
348.66
 31
0
  0
LINE
  5
150
100
AcDbEntity
  8
200
100
AcDbLine
370
-1
  6
AUSGEZOGEN
 10
768.66
 20
368.34
 30
0
 11
775.67
 21
361.33
 31
0
  0
LINE
  5
151
100
AcDbEntity
  8
200
100
AcDbLine
370
-1
  6
AUSGEZOGEN
 10
762.9
 20
140.34
 30
0
 11
769
 21
155.04
 31
0
  0
LINE
  5
152
100
AcDbEntity
  8
200
100
AcDbLine
370
-1
  6
AUSGEZOGEN
 10
799
 20
149.08
 30
0
 11
788.34
 21
123.36
 31
0
  0
LINE
  5
153
100
AcDbEntity
  8
200
100
AcDbLine
370
-1
  6
AUSGEZOGEN
 10
497.1
 20
331.66
 30
0
 11
491
 21
316.96
 31
0
  0
LINE
  5
154
100
AcDbEntity
  8
200
100
AcDbLine
370
-1
  6
AUSGEZOGEN
 10
461
 20
322.92
 30
0
 11
471.66
 21
348.64
 31
0
  0
LINE
  5
155
100
AcDbEntity
  8
200
100
AcDbLine
370
-1
  6
AUSGEZOGEN
 10
523.04
 20
123
 30
0
 11
508.34
 21
129.1
 31
0
  0
LINE
  5
156
100
AcDbEntity
  8
200
100
AcDbLine
370
-1
  6
AUSGEZOGEN
 10
491.36
 20
103.66
 30
0
 11
517.08
 21
93
 31
0
  0
LINE
  5
157
100
AcDbEntity
  8
200
100
AcDbLine
370
-1
  6
AUSGEZOGEN
 10
751.66
 20
342.9
 30
0
 11
736.96
 21
349
 31
0
  0
LINE
  5
158
100
AcDbEntity
  8
200
100
AcDbLine
370
-1
  6
AUSGEZOGEN
 10
742.92
 20
379
 30
0
 11
768.64
 21
368.34
 31
0
  0
LINE
  5
159
100
AcDbEntity
  8
200
100
AcDbLine
370
-1
  6
AUSGEZOGEN
 10
736.96
 20
123
 30
0
 11
751.66
 21
129.08
 31
0
  0
LINE
  5
15A
100
AcDbEntity
  8
200
100
AcDbLine
370
-1
  6
AUSGEZOGEN
 10
768.64
 20
103.66
 30
0
 11
742.94
 21
93
 31
0
  0
LINE
  5
15B
100
AcDbEntity
  8
200
100
AcDbLine
370
-1
  6
AUSGEZOGEN
 10
508.34
 20
342.92
 30
0
 11
523.04
 21
349
 31
0
  0
LINE
  5
15C
100
AcDbEntity
  8
200
100
AcDbLine
370
-1
  6
AUSGEZOGEN
 10
517.06
 20
379
 30
0
 11
491.36
 21
368.34
 31
0
  0
LINE
  5
15D
100
AcDbEntity
  8
200
100
AcDbLine
370
-1
  6
AUSGEZOGEN
 10
497.08
 20
140.34
 30
0
 11
491
 21
155.04
 31
0
  0
LINE
  5
15E
100
AcDbEntity
  8
200
100
AcDbLine
370
-1
  6
AUSGEZOGEN
 10
461
 20
149.06
 30
0
 11
471.66
 21
123.36
 31
0
  0
LINE
  5
15F
100
AcDbEntity
  8
200
100
AcDbLine
370
-1
  6
AUSGEZOGEN
 10
762.92
 20
331.66
 30
0
 11
769
 21
316.96
 31
0
  0
LINE
  5
160
100
AcDbEntity
  8
200
100
AcDbLine
370
-1
  6
AUSGEZOGEN
 10
799
 20
322.94
 30
0
 11
788.34
 21
348.64
 31
0
  0
LINE
  5
161
100
AcDbEntity
  8
200
100
AcDbLine
370
-1
  6
AUSGEZOGEN
 10
581
 20
232
 30
0
 11
581
 21
240
 31
0
  0
LINE
  5
162
100
AcDbEntity
  8
200
100
AcDbLine
370
-1
  6
AUSGEZOGEN
 10
451
 20
232
 30
0
 11
581
 21
232
 31
0
  0
LINE
  5
163
100
AcDbEntity
  8
200
100
AcDbLine
370
-1
  6
AUSGEZOGEN
 10
581
 20
240
 30
0
 11
451
 21
240
 31
0
  0
LINE
  5
164
100
AcDbEntity
  8
200
100
AcDbLine
370
-1
  6
AUSGEZOGEN
 10
679
 20
232
 30
0
 11
679
 21
240
 31
0
  0
LINE
  5
165
100
AcDbEntity
  8
200
100
AcDbLine
370
-1
  6
AUSGEZOGEN
 10
809
 20
240
 30
0
 11
679
 21
240
 31
0
  0
LINE
  5
166
100
AcDbEntity
  8
200
100
AcDbLine
370
-1
  6
AUSGEZOGEN
 10
679
 20
232
 30
0
 11
809
 21
232
 31
0
  0
LINE
  5
167
100
AcDbEntity
  8
200
100
AcDbLine
370
-1
  6
AUSGEZOGEN
 10
626
 20
309
 30
0
 11
634
 21
309
 31
0
  0
LINE
  5
168
100
AcDbEntity
  8
200
100
AcDbLine
370
-1
  6
AUSGEZOGEN
 10
634
 20
163
 30
0
 11
626
 21
163
 31
0
  0
LINE
  5
169
100
AcDbEntity
  8
200
100
AcDbLine
370
-1
  6
AUSGEZOGEN
 10
634
 20
83
 30
0
 11
634
 21
163
 31
0
  0
LINE
  5
16A
100
AcDbEntity
  8
200
100
AcDbLine
370
-1
  6
AUSGEZOGEN
 10
626
 20
163
 30
0
 11
626
 21
83
 31
0
  0
LINE
  5
16B
100
AcDbEntity
  8
200
100
AcDbLine
370
-1
  6
AUSGEZOGEN
 10
531.92
 20
169.58
 30
0
 11
537.58
 21
163.92
 31
0
  0
LINE
  5
16C
100
AcDbEntity
  8
200
100
AcDbLine
370
-1
  6
AUSGEZOGEN
 10
498.4
 20
124.74
 30
0
 11
537.58
 21
163.92
 31
0
  0
LINE
  5
16D
100
AcDbEntity
  8
200
100
AcDbLine
370
-1
  6
AUSGEZOGEN
 10
531.92
 20
169.58
 30
0
 11
492.74
 21
130.4
 31
0
  0
LINE
  5
16E
100
AcDbEntity
  8
200
100
AcDbLine
370
-1
  6
AUSGEZOGEN
 10
487.24
 20
113.58
 30
0
 11
498.4
 21
124.74
 31
0
  0
LINE
  5
16F
100
AcDbEntity
  8
200
100
AcDbLine
370
-1
  6
AUSGEZOGEN
 10
492.74
 20
130.4
 30
0
 11
481.58
 21
119.24
 31
0
  0
LINE
  5
170
100
AcDbEntity
  8
200
100
AcDbLine
370
-1
  6
AUSGEZOGEN
 10
456.66
 20
83
 30
0
 11
487.24
 21
113.58
 31
0
  0
LINE
  5
171
100
AcDbEntity
  8
200
100
AcDbLine
370
-1
  6
AUSGEZOGEN
 10
481.58
 20
119.24
 30
0
 11
451
 21
88.66
 31
0
  0
LINE
  5
172
100
AcDbEntity
  8
200
100
AcDbLine
370
-1
  6
AUSGEZOGEN
 10
767.26
 20
130.4
 30
0
 11
728.08
 21
169.58
 31
0
  0
LINE
  5
173
100
AcDbEntity
  8
200
100
AcDbLine
370
-1
  6
AUSGEZOGEN
 10
722.42
 20
163.92
 30
0
 11
761.6
 21
124.74
 31
0
  0
LINE
  5
174
100
AcDbEntity
  8
200
100
AcDbLine
370
-1
  6
AUSGEZOGEN
 10
728.08
 20
169.58
 30
0
 11
722.42
 21
163.92
 31
0
  0
LINE
  5
175
100
AcDbEntity
  8
200
100
AcDbLine
370
-1
  6
AUSGEZOGEN
 10
778.42
 20
119.24
 30
0
 11
767.26
 21
130.4
 31
0
  0
LINE
  5
176
100
AcDbEntity
  8
200
100
AcDbLine
370
-1
  6
AUSGEZOGEN
 10
761.6
 20
124.74
 30
0
 11
772.76
 21
113.58
 31
0
  0
LINE
  5
177
100
AcDbEntity
  8
200
100
AcDbLine
370
-1
  6
AUSGEZOGEN
 10
451
 20
83
 30
0
 11
809
 21
83
 31
0
  0
LINE
  5
178
100
AcDbEntity
  8
200
100
AcDbLine
370
-1
  6
AUSGEZOGEN
 10
809
 20
88.66
 30
0
 11
778.42
 21
119.24
 31
0
  0
LINE
  5
179
100
AcDbEntity
  8
200
100
AcDbLine
370
-1
  6
AUSGEZOGEN
 10
772.76
 20
113.58
 30
0
 11
803.34
 21
83
 31
0
  0
LINE
  5
17A
100
AcDbEntity
  8
200
100
AcDbLine
370
-1
  6
AUSGEZOGEN
 10
492.74
 20
341.6
 30
0
 11
531.92
 21
302.42
 31
0
  0
LINE
  5
17B
100
AcDbEntity
  8
200
100
AcDbLine
370
-1
  6
AUSGEZOGEN
 10
537.58
 20
308.08
 30
0
 11
498.4
 21
347.26
 31
0
  0
LINE
  5
17C
100
AcDbEntity
  8
200
100
AcDbLine
370
-1
  6
AUSGEZOGEN
 10
531.92
 20
302.42
 30
0
 11
537.58
 21
308.08
 31
0
  0
LINE
  5
17D
100
AcDbEntity
  8
200
100
AcDbLine
370
-1
  6
AUSGEZOGEN
 10
481.58
 20
352.76
 30
0
 11
492.74
 21
341.6
 31
0
  0
LINE
  5
17E
100
AcDbEntity
  8
200
100
AcDbLine
370
-1
  6
AUSGEZOGEN
 10
498.4
 20
347.26
 30
0
 11
487.24
 21
358.42
 31
0
  0
LINE
  5
17F
100
AcDbEntity
  8
200
100
AcDbLine
370
-1
  6
AUSGEZOGEN
 10
451
 20
383.34
 30
0
 11
481.58
 21
352.76
 31
0
  0
LINE
  5
180
100
AcDbEntity
  8
200
100
AcDbLine
370
-1
  6
AUSGEZOGEN
 10
487.24
 20
358.42
 30
0
 11
456.66
 21
389
 31
0
  0
LINE
  5
181
100
AcDbEntity
  8
200
100
AcDbLine
370
-1
  6
AUSGEZOGEN
 10
728.08
 20
302.42
 30
0
 11
722.42
 21
308.08
 31
0
  0
LINE
  5
182
100
AcDbEntity
  8
200
100
AcDbLine
370
-1
  6
AUSGEZOGEN
 10
761.6
 20
347.26
 30
0
 11
722.42
 21
308.08
 31
0
  0
LINE
  5
183
100
AcDbEntity
  8
200
100
AcDbLine
370
-1
  6
AUSGEZOGEN
 10
728.08
 20
302.42
 30
0
 11
767.26
 21
341.6
 31
0
  0
LINE
  5
184
100
AcDbEntity
  8
200
100
AcDbLine
370
-1
  6
AUSGEZOGEN
 10
772.76
 20
358.42
 30
0
 11
761.6
 21
347.26
 31
0
  0
LINE
  5
185
100
AcDbEntity
  8
200
100
AcDbLine
370
-1
  6
AUSGEZOGEN
 10
767.26
 20
341.6
 30
0
 11
778.42
 21
352.76
 31
0
  0
LINE
  5
186
100
AcDbEntity
  8
200
100
AcDbLine
370
-1
  6
AUSGEZOGEN
 10
803.34
 20
389
 30
0
 11
772.76
 21
358.42
 31
0
  0
LINE
  5
187
100
AcDbEntity
  8
200
100
AcDbLine
370
-1
  6
AUSGEZOGEN
 10
778.42
 20
352.76
 30
0
 11
809
 21
383.34
 31
0
  0
LINE
  5
188
100
AcDbEntity
  8
200
100
AcDbLine
370
-1
  6
AUSGEZOGEN
 10
619.07
 20
291
 30
0
 11
640.93
 21
291
 31
0
  0
LINE
  5
189
100
AcDbEntity
  8
200
100
AcDbLine
370
-1
  6
AUSGEZOGEN
 10
640.94
 20
181
 30
0
 11
619.04
 21
181
 31
0
  0
LINE
  5
18A
100
AcDbEntity
  8
200
100
AcDbLine
370
-1
  6
AUSGEZOGEN
 10
685
 20
246.93
 30
0
 11
685
 21
240
 31
0
  0
LINE
  5
18B
100
AcDbEntity
  8
200
100
AcDbLine
370
-1
  6
AUSGEZOGEN
 10
685
 20
225.06
 30
0
 11
685
 21
232
 31
0
  0
LINE
  5
18C
100
AcDbEntity
  8
200
100
AcDbLine
370
-1
  6
AUSGEZOGEN
 10
575
 20
232
 30
0
 11
575
 21
225.04
 31
0
  0
LINE
  5
18D
100
AcDbEntity
  8
200
100
AcDbLine
370
-1
  6
AUSGEZOGEN
 10
575
 20
246.96
 30
0
 11
575
 21
240
 31
0
  0
LINE
  5
18E
100
AcDbEntity
  8
200
100
AcDbLine
370
-1
  6
AUSGEZOGEN
 10
661.15
 20
282.63
 30
0
 11
676.62
 21
267.15
 31
0
  0
LINE
  5
18F
100
AcDbEntity
  8
200
100
AcDbLine
370
-1
  6
AUSGEZOGEN
 10
583.36
 20
204.85
 30
0
 11
598.85
 21
189.36
 31
0
  0
LINE
  5
190
100
AcDbEntity
  8
200
100
AcDbLine
370
-1
  6
AUSGEZOGEN
 10
676.63
 20
204.84
 30
0
 11
661.15
 21
189.37
 31
0
  0
LINE
  5
191
100
AcDbEntity
  8
200
100
AcDbLine
370
-1
  6
AUSGEZOGEN
 10
598.84
 20
282.62
 30
0
 11
583.37
 21
267.15
 31
0
  0
LINE
  5
192
100
AcDbEntity
  8
200
100
AcDbLine
370
-1
  6
AUSGEZOGEN
 10
685
 20
246.93
 30
0
 11
676.62
 21
267.15
 31
0
  0
LINE
  5
193
100
AcDbEntity
  8
200
100
AcDbLine
370
-1
  6
AUSGEZOGEN
 10
583.36
 20
204.85
 30
0
 11
575
 21
225.04
 31
0
  0
LINE
  5
194
100
AcDbEntity
  8
200
100
AcDbLine
370
-1
  6
AUSGEZOGEN
 10
661.15
 20
189.37
 30
0
 11
640.94
 21
181
 31
0
  0
LINE
  5
195
100
AcDbEntity
  8
200
100
AcDbLine
370
-1
  6
AUSGEZOGEN
 10
598.84
 20
282.62
 30
0
 11
619.07
 21
291
 31
0
  0
LINE
  5
196
100
AcDbEntity
  8
200
100
AcDbLine
370
-1
  6
AUSGEZOGEN
 10
575
 20
246.96
 30
0
 11
583.37
 21
267.15
 31
0
  0
LINE
  5
197
100
AcDbEntity
  8
200
100
AcDbLine
370
-1
  6
AUSGEZOGEN
 10
676.63
 20
204.84
 30
0
 11
685
 21
225.06
 31
0
  0
LINE
  5
198
100
AcDbEntity
  8
200
100
AcDbLine
370
-1
  6
AUSGEZOGEN
 10
640.93
 20
291
 30
0
 11
661.15
 21
282.63
 31
0
  0
LINE
  5
199
100
AcDbEntity
  8
200
100
AcDbLine
370
-1
  6
AUSGEZOGEN
 10
598.85
 20
189.36
 30
0
 11
619.04
 21
181
 31
0
  0
LINE
  5
19A
100
AcDbEntity
  8
200
100
AcDbLine
370
-1
  6
AUSGEZOGEN
 10
648.69
 20
263.98
 30
0
 11
636.57
 21
269
 31
0
  0
LINE
  5
19B
100
AcDbEntity
  8
200
100
AcDbLine
370
-1
  6
AUSGEZOGEN
 10
657.98
 20
254.69
 30
0
 11
648.69
 21
263.98
 31
0
  0
LINE
  5
19C
100
AcDbEntity
  8
200
100
AcDbLine
370
-1
  6
AUSGEZOGEN
 10
663
 20
242.57
 30
0
 11
657.98
 21
254.69
 31
0
  0
LINE
  5
19D
100
AcDbEntity
  8
200
100
AcDbLine
370
-1
  6
AUSGEZOGEN
 10
657.98
 20
217.31
 30
0
 11
663
 21
229.43
 31
0
  0
LINE
  5
19E
100
AcDbEntity
  8
200
100
AcDbLine
370
-1
  6
AUSGEZOGEN
 10
648.69
 20
208.02
 30
0
 11
657.98
 21
217.31
 31
0
  0
LINE
  5
19F
100
AcDbEntity
  8
200
100
AcDbLine
370
-1
  6
AUSGEZOGEN
 10
636.57
 20
203
 30
0
 11
648.69
 21
208.02
 31
0
  0
LINE
  5
1A0
100
AcDbEntity
  8
200
100
AcDbLine
370
-1
  6
AUSGEZOGEN
 10
611.31
 20
208.02
 30
0
 11
623.43
 21
203
 31
0
  0
LINE
  5
1A1
100
AcDbEntity
  8
200
100
AcDbLine
370
-1
  6
AUSGEZOGEN
 10
602.02
 20
217.31
 30
0
 11
611.31
 21
208.02
 31
0
  0
LINE
  5
1A2
100
AcDbEntity
  8
200
100
AcDbLine
370
-1
  6
AUSGEZOGEN
 10
597
 20
229.43
 30
0
 11
602.02
 21
217.31
 31
0
  0
LINE
  5
1A3
100
AcDbEntity
  8
200
100
AcDbLine
370
-1
  6
AUSGEZOGEN
 10
597
 20
242.57
 30
0
 11
597
 21
229.43
 31
0
  0
LINE
  5
1A4
100
AcDbEntity
  8
200
100
AcDbLine
370
-1
  6
AUSGEZOGEN
 10
602.02
 20
254.69
 30
0
 11
597
 21
242.57
 31
0
  0
LINE
  5
1A5
100
AcDbEntity
  8
200
100
AcDbLine
370
-1
  6
AUSGEZOGEN
 10
611.31
 20
263.98
 30
0
 11
602.02
 21
254.69
 31
0
  0
LINE
  5
1A6
100
AcDbEntity
  8
200
100
AcDbLine
370
-1
  6
AUSGEZOGEN
 10
623.44
 20
269
 30
0
 11
611.31
 21
263.98
 31
0
  0
LINE
  5
1A7
100
AcDbEntity
  8
200
100
AcDbLine
370
-1
  6
AUSGEZOGEN
 10
636.57
 20
269
 30
0
 11
623.44
 21
269
 31
0
  0
LINE
  5
1A8
100
AcDbEntity
  8
200
100
AcDbLine
370
-1
  6
AUSGEZOGEN
 10
663
 20
229.43
 30
0
 11
663
 21
242.57
 31
0
  0
LINE
  5
1A9
100
AcDbEntity
  8
200
100
AcDbLine
370
-1
  6
AUSGEZOGEN
 10
623.43
 20
203
 30
0
 11
636.57
 21
203
 31
0
  0
LINE
  5
1AA
100
AcDbEntity
  8
200
100
AcDbLine
370
-1
  6
AUSGEZOGEN
 10
799
 20
628.92
 30
0
 11
799
 21
546
 31
0
  0
LINE
  5
1AB
100
AcDbEntity
  8
200
100
AcDbLine
370
-1
  6
AUSGEZOGEN
 10
799
 20
455.08
 30
0
 11
799
 21
538
 31
0
  0
LINE
  5
1AC
100
AcDbEntity
  8
200
100
AcDbLine
370
-1
  6
AUSGEZOGEN
 10
769
 20
538
 30
0
 11
769
 21
461.04
 31
0
  0
LINE
  5
1AD
100
AcDbEntity
  8
200
100
AcDbLine
370
-1
  6
AUSGEZOGEN
 10
769
 20
622.96
 30
0
 11
769
 21
546
 31
0
  0
LINE
  5
1AE
100
AcDbEntity
  8
200
100
AcDbLine
370
-1
  6
AUSGEZOGEN
 10
461
 20
455.08
 30
0
 11
461
 21
538
 31
0
  0
LINE
  5
1AF
100
AcDbEntity
  8
200
100
AcDbLine
370
-1
  6
AUSGEZOGEN
 10
461
 20
628.92
 30
0
 11
461
 21
546
 31
0
  0
LINE
  5
1B0
100
AcDbEntity
  8
200
100
AcDbLine
370
-1
  6
AUSGEZOGEN
 10
491
 20
546
 30
0
 11
491
 21
622.96
 31
0
  0
LINE
  5
1B1
100
AcDbEntity
  8
200
100
AcDbLine
370
-1
  6
AUSGEZOGEN
 10
491
 20
461.04
 30
0
 11
491
 21
538
 31
0
  0
LINE
  5
1B2
100
AcDbEntity
  8
200
100
AcDbLine
370
-1
  6
AUSGEZOGEN
 10
742.92
 20
399
 30
0
 11
634
 21
399
 31
0
  0
LINE
  5
1B3
100
AcDbEntity
  8
200
100
AcDbLine
370
-1
  6
AUSGEZOGEN
 10
517.08
 20
399
 30
0
 11
626
 21
399
 31
0
  0
LINE
  5
1B4
100
AcDbEntity
  8
200
100
AcDbLine
370
-1
  6
AUSGEZOGEN
 10
626
 20
429
 30
0
 11
523.04
 21
429
 31
0
  0
LINE
  5
1B5
100
AcDbEntity
  8
200
100
AcDbLine
370
-1
  6
AUSGEZOGEN
 10
736.96
 20
429
 30
0
 11
634
 21
429
 31
0
  0
LINE
  5
1B6
100
AcDbEntity
  8
200
100
AcDbLine
370
-1
  6
AUSGEZOGEN
 10
517.08
 20
685
 30
0
 11
626
 21
685
 31
0
  0
LINE
  5
1B7
100
AcDbEntity
  8
200
100
AcDbLine
370
-1
  6
AUSGEZOGEN
 10
742.92
 20
685
 30
0
 11
634
 21
685
 31
0
  0
LINE
  5
1B8
100
AcDbEntity
  8
200
100
AcDbLine
370
-1
  6
AUSGEZOGEN
 10
634
 20
655
 30
0
 11
736.96
 21
655
 31
0
  0
LINE
  5
1B9
100
AcDbEntity
  8
200
100
AcDbLine
370
-1
  6
AUSGEZOGEN
 10
523.04
 20
655
 30
0
 11
626
 21
655
 31
0
  0
LINE
  5
1BA
100
AcDbEntity
  8
200
100
AcDbLine
370
-1
  6
AUSGEZOGEN
 10
754.46
 20
437.88
 30
0
 11
751.66
 21
435.08
 31
0
  0
LINE
  5
1BB
100
AcDbEntity
  8
200
100
AcDbLine
370
-1
  6
AUSGEZOGEN
 10
762.92
 20
446.34
 30
0
 11
760.12
 21
443.54
 31
0
  0
LINE
  5
1BC
100
AcDbEntity
  8
200
100
AcDbLine
370
-1
  6
AUSGEZOGEN
 10
775.67
 20
416.67
 30
0
 11
768.66
 21
409.66
 31
0
  0
LINE
  5
1BD
100
AcDbEntity
  8
200
100
AcDbLine
370
-1
  6
AUSGEZOGEN
 10
788.34
 20
429.34
 30
0
 11
781.33
 21
422.33
 31
0
  0
LINE
  5
1BE
100
AcDbEntity
  8
200
100
AcDbLine
370
-1
  6
AUSGEZOGEN
 10
505.54
 20
646.12
 30
0
 11
508.34
 21
648.92
 31
0
  0
LINE
  5
1BF
100
AcDbEntity
  8
200
100
AcDbLine
370
-1
  6
AUSGEZOGEN
 10
497.08
 20
637.66
 30
0
 11
499.88
 21
640.46
 31
0
  0
LINE
  5
1C0
100
AcDbEntity
  8
200
100
AcDbLine
370
-1
  6
AUSGEZOGEN
 10
484.33
 20
667.33
 30
0
 11
491.34
 21
674.34
 31
0
  0
LINE
  5
1C1
100
AcDbEntity
  8
200
100
AcDbLine
370
-1
  6
AUSGEZOGEN
 10
471.66
 20
654.66
 30
0
 11
478.67
 21
661.67
 31
0
  0
LINE
  5
1C2
100
AcDbEntity
  8
200
100
AcDbLine
370
-1
  6
AUSGEZOGEN
 10
499.88
 20
443.54
 30
0
 11
497.08
 21
446.34
 31
0
  0
LINE
  5
1C3
100
AcDbEntity
  8
200
100
AcDbLine
370
-1
  6
AUSGEZOGEN
 10
508.34
 20
435.08
 30
0
 11
505.54
 21
437.88
 31
0
  0
LINE
  5
1C4
100
AcDbEntity
  8
200
100
AcDbLine
370
-1
  6
AUSGEZOGEN
 10
478.67
 20
422.33
 30
0
 11
471.66
 21
429.34
 31
0
  0
LINE
  5
1C5
100
AcDbEntity
  8
200
100
AcDbLine
370
-1
  6
AUSGEZOGEN
 10
491.34
 20
409.66
 30
0
 11
484.33
 21
416.67
 31
0
  0
LINE
  5
1C6
100
AcDbEntity
  8
200
100
AcDbLine
370
-1
  6
AUSGEZOGEN
 10
760.12
 20
640.46
 30
0
 11
762.92
 21
637.66
 31
0
  0
LINE
  5
1C7
100
AcDbEntity
  8
200
100
AcDbLine
370
-1
  6
AUSGEZOGEN
 10
751.66
 20
648.92
 30
0
 11
754.46
 21
646.12
 31
0
  0
LINE
  5
1C8
100
AcDbEntity
  8
200
100
AcDbLine
370
-1
  6
AUSGEZOGEN
 10
781.33
 20
661.67
 30
0
 11
788.34
 21
654.66
 31
0
  0
LINE
  5
1C9
100
AcDbEntity
  8
200
100
AcDbLine
370
-1
  6
AUSGEZOGEN
 10
768.66
 20
674.34
 30
0
 11
775.67
 21
667.33
 31
0
  0
LINE
  5
1CA
100
AcDbEntity
  8
200
100
AcDbLine
370
-1
  6
AUSGEZOGEN
 10
762.9
 20
446.34
 30
0
 11
769
 21
461.04
 31
0
  0
LINE
  5
1CB
100
AcDbEntity
  8
200
100
AcDbLine
370
-1
  6
AUSGEZOGEN
 10
799
 20
455.08
 30
0
 11
788.34
 21
429.36
 31
0
  0
LINE
  5
1CC
100
AcDbEntity
  8
200
100
AcDbLine
370
-1
  6
AUSGEZOGEN
 10
497.1
 20
637.66
 30
0
 11
491
 21
622.96
 31
0
  0
LINE
  5
1CD
100
AcDbEntity
  8
200
100
AcDbLine
370
-1
  6
AUSGEZOGEN
 10
461
 20
628.92
 30
0
 11
471.66
 21
654.64
 31
0
  0
LINE
  5
1CE
100
AcDbEntity
  8
200
100
AcDbLine
370
-1
  6
AUSGEZOGEN
 10
523.04
 20
429
 30
0
 11
508.34
 21
435.1
 31
0
  0
LINE
  5
1CF
100
AcDbEntity
  8
200
100
AcDbLine
370
-1
  6
AUSGEZOGEN
 10
491.36
 20
409.66
 30
0
 11
517.08
 21
399
 31
0
  0
LINE
  5
1D0
100
AcDbEntity
  8
200
100
AcDbLine
370
-1
  6
AUSGEZOGEN
 10
751.66
 20
648.9
 30
0
 11
736.96
 21
655
 31
0
  0
LINE
  5
1D1
100
AcDbEntity
  8
200
100
AcDbLine
370
-1
  6
AUSGEZOGEN
 10
742.92
 20
685
 30
0
 11
768.64
 21
674.34
 31
0
  0
LINE
  5
1D2
100
AcDbEntity
  8
200
100
AcDbLine
370
-1
  6
AUSGEZOGEN
 10
736.96
 20
429
 30
0
 11
751.66
 21
435.08
 31
0
  0
LINE
  5
1D3
100
AcDbEntity
  8
200
100
AcDbLine
370
-1
  6
AUSGEZOGEN
 10
768.64
 20
409.66
 30
0
 11
742.94
 21
399
 31
0
  0
LINE
  5
1D4
100
AcDbEntity
  8
200
100
AcDbLine
370
-1
  6
AUSGEZOGEN
 10
508.34
 20
648.92
 30
0
 11
523.04
 21
655
 31
0
  0
LINE
  5
1D5
100
AcDbEntity
  8
200
100
AcDbLine
370
-1
  6
AUSGEZOGEN
 10
517.06
 20
685
 30
0
 11
491.36
 21
674.34
 31
0
  0
LINE
  5
1D6
100
AcDbEntity
  8
200
100
AcDbLine
370
-1
  6
AUSGEZOGEN
 10
497.08
 20
446.34
 30
0
 11
491
 21
461.04
 31
0
  0
LINE
  5
1D7
100
AcDbEntity
  8
200
100
AcDbLine
370
-1
  6
AUSGEZOGEN
 10
461
 20
455.06
 30
0
 11
471.66
 21
429.36
 31
0
  0
LINE
  5
1D8
100
AcDbEntity
  8
200
100
AcDbLine
370
-1
  6
AUSGEZOGEN
 10
762.92
 20
637.66
 30
0
 11
769
 21
622.96
 31
0
  0
LINE
  5
1D9
100
AcDbEntity
  8
200
100
AcDbLine
370
-1
  6
AUSGEZOGEN
 10
799
 20
628.94
 30
0
 11
788.34
 21
654.64
 31
0
  0
LINE
  5
1DA
100
AcDbEntity
  8
200
100
AcDbLine
370
-1
  6
AUSGEZOGEN
 10
581
 20
538
 30
0
 11
581
 21
546
 31
0
  0
LINE
  5
1DB
100
AcDbEntity
  8
200
100
AcDbLine
370
-1
  6
AUSGEZOGEN
 10
451
 20
538
 30
0
 11
581
 21
538
 31
0
  0
LINE
  5
1DC
100
AcDbEntity
  8
200
100
AcDbLine
370
-1
  6
AUSGEZOGEN
 10
581
 20
546
 30
0
 11
451
 21
546
 31
0
  0
LINE
  5
1DD
100
AcDbEntity
  8
200
100
AcDbLine
370
-1
  6
AUSGEZOGEN
 10
679
 20
538
 30
0
 11
679
 21
546
 31
0
  0
LINE
  5
1DE
100
AcDbEntity
  8
200
100
AcDbLine
370
-1
  6
AUSGEZOGEN
 10
809
 20
546
 30
0
 11
679
 21
546
 31
0
  0
LINE
  5
1DF
100
AcDbEntity
  8
200
100
AcDbLine
370
-1
  6
AUSGEZOGEN
 10
679
 20
538
 30
0
 11
809
 21
538
 31
0
  0
LINE
  5
1E0
100
AcDbEntity
  8
200
100
AcDbLine
370
-1
  6
AUSGEZOGEN
 10
626
 20
615
 30
0
 11
634
 21
615
 31
0
  0
LINE
  5
1E1
100
AcDbEntity
  8
200
100
AcDbLine
370
-1
  6
AUSGEZOGEN
 10
626
 20
695
 30
0
 11
626
 21
615
 31
0
  0
LINE
  5
1E2
100
AcDbEntity
  8
200
100
AcDbLine
370
-1
  6
AUSGEZOGEN
 10
634
 20
615
 30
0
 11
634
 21
695
 31
0
  0
LINE
  5
1E3
100
AcDbEntity
  8
200
100
AcDbLine
370
-1
  6
AUSGEZOGEN
 10
626
 20
469
 30
0
 11
634
 21
469
 31
0
  0
LINE
  5
1E4
100
AcDbEntity
  8
200
100
AcDbLine
370
-1
  6
AUSGEZOGEN
 10
634
 20
309
 30
0
 11
634
 21
469
 31
0
  0
LINE
  5
1E5
100
AcDbEntity
  8
200
100
AcDbLine
370
-1
  6
AUSGEZOGEN
 10
626
 20
469
 30
0
 11
626
 21
309
 31
0
  0
LINE
  5
1E6
100
AcDbEntity
  8
200
100
AcDbLine
370
-1
  6
AUSGEZOGEN
 10
531.92
 20
475.58
 30
0
 11
537.58
 21
469.92
 31
0
  0
LINE
  5
1E7
100
AcDbEntity
  8
200
100
AcDbLine
370
-1
  6
AUSGEZOGEN
 10
498.4
 20
430.74
 30
0
 11
537.58
 21
469.92
 31
0
  0
LINE
  5
1E8
100
AcDbEntity
  8
200
100
AcDbLine
370
-1
  6
AUSGEZOGEN
 10
531.92
 20
475.58
 30
0
 11
492.74
 21
436.4
 31
0
  0
LINE
  5
1E9
100
AcDbEntity
  8
200
100
AcDbLine
370
-1
  6
AUSGEZOGEN
 10
487.24
 20
419.58
 30
0
 11
498.4
 21
430.74
 31
0
  0
LINE
  5
1EA
100
AcDbEntity
  8
200
100
AcDbLine
370
-1
  6
AUSGEZOGEN
 10
492.74
 20
436.4
 30
0
 11
481.58
 21
425.24
 31
0
  0
LINE
  5
1EB
100
AcDbEntity
  8
200
100
AcDbLine
370
-1
  6
AUSGEZOGEN
 10
456.66
 20
389
 30
0
 11
487.24
 21
419.58
 31
0
  0
LINE
  5
1EC
100
AcDbEntity
  8
200
100
AcDbLine
370
-1
  6
AUSGEZOGEN
 10
481.58
 20
425.24
 30
0
 11
451
 21
394.66
 31
0
  0
LINE
  5
1ED
100
AcDbEntity
  8
200
100
AcDbLine
370
-1
  6
AUSGEZOGEN
 10
767.26
 20
436.4
 30
0
 11
728.08
 21
475.58
 31
0
  0
LINE
  5
1EE
100
AcDbEntity
  8
200
100
AcDbLine
370
-1
  6
AUSGEZOGEN
 10
722.42
 20
469.92
 30
0
 11
761.6
 21
430.74
 31
0
  0
LINE
  5
1EF
100
AcDbEntity
  8
200
100
AcDbLine
370
-1
  6
AUSGEZOGEN
 10
728.08
 20
475.58
 30
0
 11
722.42
 21
469.92
 31
0
  0
LINE
  5
1F0
100
AcDbEntity
  8
200
100
AcDbLine
370
-1
  6
AUSGEZOGEN
 10
778.42
 20
425.24
 30
0
 11
767.26
 21
436.4
 31
0
  0
LINE
  5
1F1
100
AcDbEntity
  8
200
100
AcDbLine
370
-1
  6
AUSGEZOGEN
 10
761.6
 20
430.74
 30
0
 11
772.76
 21
419.58
 31
0
  0
LINE
  5
1F2
100
AcDbEntity
  8
200
100
AcDbLine
370
-1
  6
AUSGEZOGEN
 10
451
 20
389
 30
0
 11
809
 21
389
 31
0
  0
LINE
  5
1F3
100
AcDbEntity
  8
200
100
AcDbLine
370
-1
  6
AUSGEZOGEN
 10
809
 20
394.66
 30
0
 11
778.42
 21
425.24
 31
0
  0
LINE
  5
1F4
100
AcDbEntity
  8
200
100
AcDbLine
370
-1
  6
AUSGEZOGEN
 10
772.76
 20
419.58
 30
0
 11
803.34
 21
389
 31
0
  0
LINE
  5
1F5
100
AcDbEntity
  8
200
100
AcDbLine
370
-1
  6
AUSGEZOGEN
 10
492.74
 20
647.6
 30
0
 11
531.92
 21
608.42
 31
0
  0
LINE
  5
1F6
100
AcDbEntity
  8
200
100
AcDbLine
370
-1
  6
AUSGEZOGEN
 10
537.58
 20
614.08
 30
0
 11
498.4
 21
653.26
 31
0
  0
LINE
  5
1F7
100
AcDbEntity
  8
200
100
AcDbLine
370
-1
  6
AUSGEZOGEN
 10
531.92
 20
608.42
 30
0
 11
537.58
 21
614.08
 31
0
  0
LINE
  5
1F8
100
AcDbEntity
  8
200
100
AcDbLine
370
-1
  6
AUSGEZOGEN
 10
481.58
 20
658.76
 30
0
 11
492.74
 21
647.6
 31
0
  0
LINE
  5
1F9
100
AcDbEntity
  8
200
100
AcDbLine
370
-1
  6
AUSGEZOGEN
 10
498.4
 20
653.26
 30
0
 11
487.24
 21
664.42
 31
0
  0
LINE
  5
1FA
100
AcDbEntity
  8
200
100
AcDbLine
370
-1
  6
AUSGEZOGEN
 10
451
 20
689.34
 30
0
 11
481.58
 21
658.76
 31
0
  0
LINE
  5
1FB
100
AcDbEntity
  8
200
100
AcDbLine
370
-1
  6
AUSGEZOGEN
 10
451
 20
83
 30
0
 11
451
 21
695
 31
0
  0
LINE
  5
1FC
100
AcDbEntity
  8
200
100
AcDbLine
370
-1
  6
AUSGEZOGEN
 10
487.24
 20
664.42
 30
0
 11
456.66
 21
695
 31
0
  0
LINE
  5
1FD
100
AcDbEntity
  8
200
100
AcDbLine
370
-1
  6
AUSGEZOGEN
 10
728.08
 20
608.42
 30
0
 11
722.42
 21
614.08
 31
0
  0
LINE
  5
1FE
100
AcDbEntity
  8
200
100
AcDbLine
370
-1
  6
AUSGEZOGEN
 10
761.6
 20
653.26
 30
0
 11
722.42
 21
614.08
 31
0
  0
LINE
  5
1FF
100
AcDbEntity
  8
200
100
AcDbLine
370
-1
  6
AUSGEZOGEN
 10
728.08
 20
608.42
 30
0
 11
767.26
 21
647.6
 31
0
  0
LINE
  5
200
100
AcDbEntity
  8
200
100
AcDbLine
370
-1
  6
AUSGEZOGEN
 10
772.76
 20
664.42
 30
0
 11
761.6
 21
653.26
 31
0
  0
LINE
  5
201
100
AcDbEntity
  8
200
100
AcDbLine
370
-1
  6
AUSGEZOGEN
 10
767.26
 20
647.6
 30
0
 11
778.42
 21
658.76
 31
0
  0
LINE
  5
202
100
AcDbEntity
  8
200
100
AcDbLine
370
-1
  6
AUSGEZOGEN
 10
451
 20
695
 30
0
 11
809
 21
695
 31
0
  0
LINE
  5
203
100
AcDbEntity
  8
200
100
AcDbLine
370
-1
  6
AUSGEZOGEN
 10
803.34
 20
695
 30
0
 11
772.76
 21
664.42
 31
0
  0
LINE
  5
204
100
AcDbEntity
  8
200
100
AcDbLine
370
-1
  6
AUSGEZOGEN
 10
809
 20
83
 30
0
 11
809
 21
695
 31
0
  0
LINE
  5
205
100
AcDbEntity
  8
200
100
AcDbLine
370
-1
  6
AUSGEZOGEN
 10
778.42
 20
658.76
 30
0
 11
809
 21
689.34
 31
0
  0
LINE
  5
206
100
AcDbEntity
  8
200
100
AcDbLine
370
-1
  6
AUSGEZOGEN
 10
619.07
 20
597
 30
0
 11
640.93
 21
597
 31
0
  0
LINE
  5
207
100
AcDbEntity
  8
200
100
AcDbLine
370
-1
  6
AUSGEZOGEN
 10
640.94
 20
487
 30
0
 11
619.04
 21
487
 31
0
  0
LINE
  5
208
100
AcDbEntity
  8
200
100
AcDbLine
370
-1
  6
AUSGEZOGEN
 10
685
 20
552.93
 30
0
 11
685
 21
546
 31
0
  0
LINE
  5
209
100
AcDbEntity
  8
200
100
AcDbLine
370
-1
  6
AUSGEZOGEN
 10
685
 20
531.06
 30
0
 11
685
 21
538
 31
0
  0
LINE
  5
20A
100
AcDbEntity
  8
200
100
AcDbLine
370
-1
  6
AUSGEZOGEN
 10
575
 20
538
 30
0
 11
575
 21
531.04
 31
0
  0
LINE
  5
20B
100
AcDbEntity
  8
200
100
AcDbLine
370
-1
  6
AUSGEZOGEN
 10
575
 20
552.96
 30
0
 11
575
 21
546
 31
0
  0
LINE
  5
20C
100
AcDbEntity
  8
200
100
AcDbLine
370
-1
  6
AUSGEZOGEN
 10
661.15
 20
588.63
 30
0
 11
676.62
 21
573.15
 31
0
  0
LINE
  5
20D
100
AcDbEntity
  8
200
100
AcDbLine
370
-1
  6
AUSGEZOGEN
 10
583.36
 20
510.85
 30
0
 11
598.85
 21
495.36
 31
0
  0
LINE
  5
20E
100
AcDbEntity
  8
200
100
AcDbLine
370
-1
  6
AUSGEZOGEN
 10
676.63
 20
510.84
 30
0
 11
661.15
 21
495.37
 31
0
  0
LINE
  5
20F
100
AcDbEntity
  8
200
100
AcDbLine
370
-1
  6
AUSGEZOGEN
 10
598.84
 20
588.62
 30
0
 11
583.37
 21
573.15
 31
0
  0
LINE
  5
210
100
AcDbEntity
  8
200
100
AcDbLine
370
-1
  6
AUSGEZOGEN
 10
685
 20
552.93
 30
0
 11
676.62
 21
573.15
 31
0
  0
LINE
  5
211
100
AcDbEntity
  8
200
100
AcDbLine
370
-1
  6
AUSGEZOGEN
 10
583.36
 20
510.85
 30
0
 11
575
 21
531.04
 31
0
  0
LINE
  5
212
100
AcDbEntity
  8
200
100
AcDbLine
370
-1
  6
AUSGEZOGEN
 10
661.15
 20
495.37
 30
0
 11
640.94
 21
487
 31
0
  0
LINE
  5
213
100
AcDbEntity
  8
200
100
AcDbLine
370
-1
  6
AUSGEZOGEN
 10
598.84
 20
588.62
 30
0
 11
619.07
 21
597
 31
0
  0
LINE
  5
214
100
AcDbEntity
  8
200
100
AcDbLine
370
-1
  6
AUSGEZOGEN
 10
575
 20
552.96
 30
0
 11
583.37
 21
573.15
 31
0
  0
LINE
  5
215
100
AcDbEntity
  8
200
100
AcDbLine
370
-1
  6
AUSGEZOGEN
 10
676.63
 20
510.84
 30
0
 11
685
 21
531.06
 31
0
  0
LINE
  5
216
100
AcDbEntity
  8
200
100
AcDbLine
370
-1
  6
AUSGEZOGEN
 10
640.93
 20
597
 30
0
 11
661.15
 21
588.63
 31
0
  0
LINE
  5
217
100
AcDbEntity
  8
200
100
AcDbLine
370
-1
  6
AUSGEZOGEN
 10
598.85
 20
495.36
 30
0
 11
619.04
 21
487
 31
0
  0
LINE
  5
218
100
AcDbEntity
  8
200
100
AcDbLine
370
-1
  6
AUSGEZOGEN
 10
648.69
 20
569.98
 30
0
 11
636.57
 21
575
 31
0
  0
LINE
  5
219
100
AcDbEntity
  8
200
100
AcDbLine
370
-1
  6
AUSGEZOGEN
 10
657.98
 20
560.69
 30
0
 11
648.69
 21
569.98
 31
0
  0
LINE
  5
21A
100
AcDbEntity
  8
200
100
AcDbLine
370
-1
  6
AUSGEZOGEN
 10
663
 20
548.57
 30
0
 11
657.98
 21
560.69
 31
0
  0
LINE
  5
21B
100
AcDbEntity
  8
200
100
AcDbLine
370
-1
  6
AUSGEZOGEN
 10
657.98
 20
523.31
 30
0
 11
663
 21
535.43
 31
0
  0
LINE
  5
21C
100
AcDbEntity
  8
200
100
AcDbLine
370
-1
  6
AUSGEZOGEN
 10
648.69
 20
514.02
 30
0
 11
657.98
 21
523.31
 31
0
  0
LINE
  5
21D
100
AcDbEntity
  8
200
100
AcDbLine
370
-1
  6
AUSGEZOGEN
 10
636.57
 20
509
 30
0
 11
648.69
 21
514.02
 31
0
  0
LINE
  5
21E
100
AcDbEntity
  8
200
100
AcDbLine
370
-1
  6
AUSGEZOGEN
 10
611.31
 20
514.02
 30
0
 11
623.43
 21
509
 31
0
  0
LINE
  5
21F
100
AcDbEntity
  8
200
100
AcDbLine
370
-1
  6
AUSGEZOGEN
 10
602.02
 20
523.31
 30
0
 11
611.31
 21
514.02
 31
0
  0
LINE
  5
220
100
AcDbEntity
  8
200
100
AcDbLine
370
-1
  6
AUSGEZOGEN
 10
597
 20
535.43
 30
0
 11
602.02
 21
523.31
 31
0
  0
LINE
  5
221
100
AcDbEntity
  8
200
100
AcDbLine
370
-1
  6
AUSGEZOGEN
 10
597
 20
548.57
 30
0
 11
597
 21
535.43
 31
0
  0
LINE
  5
222
100
AcDbEntity
  8
200
100
AcDbLine
370
-1
  6
AUSGEZOGEN
 10
602.02
 20
560.69
 30
0
 11
597
 21
548.57
 31
0
  0
LINE
  5
223
100
AcDbEntity
  8
200
100
AcDbLine
370
-1
  6
AUSGEZOGEN
 10
611.31
 20
569.98
 30
0
 11
602.02
 21
560.69
 31
0
  0
LINE
  5
224
100
AcDbEntity
  8
200
100
AcDbLine
370
-1
  6
AUSGEZOGEN
 10
623.44
 20
575
 30
0
 11
611.31
 21
569.98
 31
0
  0
LINE
  5
225
100
AcDbEntity
  8
200
100
AcDbLine
370
-1
  6
AUSGEZOGEN
 10
636.57
 20
575
 30
0
 11
623.44
 21
575
 31
0
  0
LINE
  5
226
100
AcDbEntity
  8
200
100
AcDbLine
370
-1
  6
AUSGEZOGEN
 10
663
 20
535.43
 30
0
 11
663
 21
548.57
 31
0
  0
LINE
  5
227
100
AcDbEntity
  8
200
100
AcDbLine
370
-1
  6
AUSGEZOGEN
 10
623.43
 20
509
 30
0
 11
636.57
 21
509
 31
0
  0
LINE
  5
228
100
AcDbEntity
  8
200
100
AcDbLine
370
-1
  6
AUSGEZOGEN
 10
576
 20
0.21
 30
0
 11
576
 21
22
 31
0
  0
LINE
  5
229
100
AcDbEntity
  8
200
100
AcDbLine
370
-1
  6
AUSGEZOGEN
 10
574.44
 20
0
 30
0
 11
576
 21
0.21
 31
0
  0
LINE
  5
22A
100
AcDbEntity
  8
200
100
AcDbLine
370
-1
  6
AUSGEZOGEN
 10
559.56
 20
0
 30
0
 11
574.44
 21
0
 31
0
  0
LINE
  5
22B
100
AcDbEntity
  8
200
100
AcDbLine
370
-1
  6
AUSGEZOGEN
 10
558
 20
0.21
 30
0
 11
559.56
 21
0
 31
0
  0
LINE
  5
22C
100
AcDbEntity
  8
200
100
AcDbLine
370
-1
  6
AUSGEZOGEN
 10
558
 20
22
 30
0
 11
558
 21
0.21
 31
0
  0
LINE
  5
22D
100
AcDbEntity
  8
200
100
AcDbLine
370
-1
  6
AUSGEZOGEN
 10
702
 20
0.21
 30
0
 11
702
 21
22
 31
0
  0
LINE
  5
22E
100
AcDbEntity
  8
200
100
AcDbLine
370
-1
  6
AUSGEZOGEN
 10
700.44
 20
0
 30
0
 11
702
 21
0.21
 31
0
  0
LINE
  5
22F
100
AcDbEntity
  8
200
100
AcDbLine
370
-1
  6
AUSGEZOGEN
 10
685.56
 20
0
 30
0
 11
700.44
 21
0
 31
0
  0
LINE
  5
230
100
AcDbEntity
  8
200
100
AcDbLine
370
-1
  6
AUSGEZOGEN
 10
684
 20
0.21
 30
0
 11
685.56
 21
0
 31
0
  0
LINE
  5
231
100
AcDbEntity
  8
200
100
AcDbLine
370
-1
  6
AUSGEZOGEN
 10
684
 20
22
 30
0
 11
684
 21
0.21
 31
0
  0
LINE
  5
232
100
AcDbEntity
  8
200
100
AcDbLine
370
-1
  6
AUSGEZOGEN
 10
30
 20
22
 30
0
 11
1230
 21
22
 31
0
  0
LINE
  5
233
100
AcDbEntity
  8
200
100
AcDbLine
370
-1
  6
AUSGEZOGEN
 10
1230
 20
772
 30
0
 11
30
 21
772
 31
0
  0
LINE
  5
234
100
AcDbEntity
  8
200
100
AcDbLine
370
-1
  6
AUSGEZOGEN
 10
1230
 20
22
 30
0
 11
1230
 21
772
 31
0
  0
LINE
  5
235
100
AcDbEntity
  8
200
100
AcDbLine
370
-1
  6
AUSGEZOGEN
 10
30
 20
697
 30
0
 11
1230
 21
697
 31
0
  0
LINE
  5
236
100
AcDbEntity
  8
200
100
AcDbLine
370
-1
  6
AUSGEZOGEN
 10
1199
 20
240
 30
0
 11
1199
 21
322.92
 31
0
  0
LINE
  5
237
100
AcDbEntity
  8
200
100
AcDbLine
370
-1
  6
AUSGEZOGEN
 10
1199
 20
149.08
 30
0
 11
1199
 21
232
 31
0
  0
LINE
  5
238
100
AcDbEntity
  8
200
100
AcDbLine
370
-1
  6
AUSGEZOGEN
 10
1169
 20
232
 30
0
 11
1169
 21
155.04
 31
0
  0
LINE
  5
239
100
AcDbEntity
  8
200
100
AcDbLine
370
-1
  6
AUSGEZOGEN
 10
1169
 20
316.96
 30
0
 11
1169
 21
240
 31
0
  0
LINE
  5
23A
100
AcDbEntity
  8
200
100
AcDbLine
370
-1
  6
AUSGEZOGEN
 10
861
 20
149.08
 30
0
 11
861
 21
232
 31
0
  0
LINE
  5
23B
100
AcDbEntity
  8
200
100
AcDbLine
370
-1
  6
AUSGEZOGEN
 10
861
 20
322.92
 30
0
 11
861
 21
240
 31
0
  0
LINE
  5
23C
100
AcDbEntity
  8
200
100
AcDbLine
370
-1
  6
AUSGEZOGEN
 10
891
 20
240
 30
0
 11
891
 21
316.96
 31
0
  0
LINE
  5
23D
100
AcDbEntity
  8
200
100
AcDbLine
370
-1
  6
AUSGEZOGEN
 10
891
 20
155.04
 30
0
 11
891
 21
232
 31
0
  0
LINE
  5
23E
100
AcDbEntity
  8
200
100
AcDbLine
370
-1
  6
AUSGEZOGEN
 10
1142.92
 20
93
 30
0
 11
1034
 21
93
 31
0
  0
LINE
  5
23F
100
AcDbEntity
  8
200
100
AcDbLine
370
-1
  6
AUSGEZOGEN
 10
917.08
 20
93
 30
0
 11
1026
 21
93
 31
0
  0
LINE
  5
240
100
AcDbEntity
  8
200
100
AcDbLine
370
-1
  6
AUSGEZOGEN
 10
1026
 20
123
 30
0
 11
923.04
 21
123
 31
0
  0
LINE
  5
241
100
AcDbEntity
  8
200
100
AcDbLine
370
-1
  6
AUSGEZOGEN
 10
1136.96
 20
123
 30
0
 11
1034
 21
123
 31
0
  0
LINE
  5
242
100
AcDbEntity
  8
200
100
AcDbLine
370
-1
  6
AUSGEZOGEN
 10
917.08
 20
379
 30
0
 11
1026
 21
379
 31
0
  0
LINE
  5
243
100
AcDbEntity
  8
200
100
AcDbLine
370
-1
  6
AUSGEZOGEN
 10
1142.92
 20
379
 30
0
 11
1034
 21
379
 31
0
  0
LINE
  5
244
100
AcDbEntity
  8
200
100
AcDbLine
370
-1
  6
AUSGEZOGEN
 10
1034
 20
349
 30
0
 11
1136.96
 21
349
 31
0
  0
LINE
  5
245
100
AcDbEntity
  8
200
100
AcDbLine
370
-1
  6
AUSGEZOGEN
 10
923.04
 20
349
 30
0
 11
1026
 21
349
 31
0
  0
LINE
  5
246
100
AcDbEntity
  8
200
100
AcDbLine
370
-1
  6
AUSGEZOGEN
 10
1154.46
 20
131.88
 30
0
 11
1151.66
 21
129.08
 31
0
  0
LINE
  5
247
100
AcDbEntity
  8
200
100
AcDbLine
370
-1
  6
AUSGEZOGEN
 10
1162.92
 20
140.34
 30
0
 11
1160.12
 21
137.54
 31
0
  0
LINE
  5
248
100
AcDbEntity
  8
200
100
AcDbLine
370
-1
  6
AUSGEZOGEN
 10
1175.67
 20
110.67
 30
0
 11
1168.66
 21
103.66
 31
0
  0
LINE
  5
249
100
AcDbEntity
  8
200
100
AcDbLine
370
-1
  6
AUSGEZOGEN
 10
1188.34
 20
123.34
 30
0
 11
1181.33
 21
116.33
 31
0
  0
LINE
  5
24A
100
AcDbEntity
  8
200
100
AcDbLine
370
-1
  6
AUSGEZOGEN
 10
905.54
 20
340.12
 30
0
 11
908.34
 21
342.92
 31
0
  0
LINE
  5
24B
100
AcDbEntity
  8
200
100
AcDbLine
370
-1
  6
AUSGEZOGEN
 10
897.08
 20
331.66
 30
0
 11
899.88
 21
334.46
 31
0
  0
LINE
  5
24C
100
AcDbEntity
  8
200
100
AcDbLine
370
-1
  6
AUSGEZOGEN
 10
884.33
 20
361.33
 30
0
 11
891.34
 21
368.34
 31
0
  0
LINE
  5
24D
100
AcDbEntity
  8
200
100
AcDbLine
370
-1
  6
AUSGEZOGEN
 10
871.66
 20
348.66
 30
0
 11
878.67
 21
355.67
 31
0
  0
LINE
  5
24E
100
AcDbEntity
  8
200
100
AcDbLine
370
-1
  6
AUSGEZOGEN
 10
899.88
 20
137.54
 30
0
 11
897.08
 21
140.34
 31
0
  0
LINE
  5
24F
100
AcDbEntity
  8
200
100
AcDbLine
370
-1
  6
AUSGEZOGEN
 10
908.34
 20
129.08
 30
0
 11
905.54
 21
131.88
 31
0
  0
LINE
  5
250
100
AcDbEntity
  8
200
100
AcDbLine
370
-1
  6
AUSGEZOGEN
 10
878.67
 20
116.33
 30
0
 11
871.66
 21
123.34
 31
0
  0
LINE
  5
251
100
AcDbEntity
  8
200
100
AcDbLine
370
-1
  6
AUSGEZOGEN
 10
891.34
 20
103.66
 30
0
 11
884.33
 21
110.67
 31
0
  0
LINE
  5
252
100
AcDbEntity
  8
200
100
AcDbLine
370
-1
  6
AUSGEZOGEN
 10
1160.12
 20
334.46
 30
0
 11
1162.92
 21
331.66
 31
0
  0
LINE
  5
253
100
AcDbEntity
  8
200
100
AcDbLine
370
-1
  6
AUSGEZOGEN
 10
1151.66
 20
342.92
 30
0
 11
1154.46
 21
340.12
 31
0
  0
LINE
  5
254
100
AcDbEntity
  8
200
100
AcDbLine
370
-1
  6
AUSGEZOGEN
 10
1181.33
 20
355.67
 30
0
 11
1188.34
 21
348.66
 31
0
  0
LINE
  5
255
100
AcDbEntity
  8
200
100
AcDbLine
370
-1
  6
AUSGEZOGEN
 10
1168.66
 20
368.34
 30
0
 11
1175.67
 21
361.33
 31
0
  0
LINE
  5
256
100
AcDbEntity
  8
200
100
AcDbLine
370
-1
  6
AUSGEZOGEN
 10
1162.9
 20
140.34
 30
0
 11
1169
 21
155.04
 31
0
  0
LINE
  5
257
100
AcDbEntity
  8
200
100
AcDbLine
370
-1
  6
AUSGEZOGEN
 10
1199
 20
149.08
 30
0
 11
1188.34
 21
123.36
 31
0
  0
LINE
  5
258
100
AcDbEntity
  8
200
100
AcDbLine
370
-1
  6
AUSGEZOGEN
 10
897.1
 20
331.66
 30
0
 11
891
 21
316.96
 31
0
  0
LINE
  5
259
100
AcDbEntity
  8
200
100
AcDbLine
370
-1
  6
AUSGEZOGEN
 10
861
 20
322.92
 30
0
 11
871.66
 21
348.64
 31
0
  0
LINE
  5
25A
100
AcDbEntity
  8
200
100
AcDbLine
370
-1
  6
AUSGEZOGEN
 10
923.04
 20
123
 30
0
 11
908.34
 21
129.1
 31
0
  0
LINE
  5
25B
100
AcDbEntity
  8
200
100
AcDbLine
370
-1
  6
AUSGEZOGEN
 10
891.36
 20
103.66
 30
0
 11
917.08
 21
93
 31
0
  0
LINE
  5
25C
100
AcDbEntity
  8
200
100
AcDbLine
370
-1
  6
AUSGEZOGEN
 10
1151.66
 20
342.9
 30
0
 11
1136.96
 21
349
 31
0
  0
LINE
  5
25D
100
AcDbEntity
  8
200
100
AcDbLine
370
-1
  6
AUSGEZOGEN
 10
1142.92
 20
379
 30
0
 11
1168.64
 21
368.34
 31
0
  0
LINE
  5
25E
100
AcDbEntity
  8
200
100
AcDbLine
370
-1
  6
AUSGEZOGEN
 10
1136.96
 20
123
 30
0
 11
1151.66
 21
129.08
 31
0
  0
LINE
  5
25F
100
AcDbEntity
  8
200
100
AcDbLine
370
-1
  6
AUSGEZOGEN
 10
1168.64
 20
103.66
 30
0
 11
1142.94
 21
93
 31
0
  0
LINE
  5
260
100
AcDbEntity
  8
200
100
AcDbLine
370
-1
  6
AUSGEZOGEN
 10
908.34
 20
342.92
 30
0
 11
923.04
 21
349
 31
0
  0
LINE
  5
261
100
AcDbEntity
  8
200
100
AcDbLine
370
-1
  6
AUSGEZOGEN
 10
917.06
 20
379
 30
0
 11
891.36
 21
368.34
 31
0
  0
LINE
  5
262
100
AcDbEntity
  8
200
100
AcDbLine
370
-1
  6
AUSGEZOGEN
 10
897.08
 20
140.34
 30
0
 11
891
 21
155.04
 31
0
  0
LINE
  5
263
100
AcDbEntity
  8
200
100
AcDbLine
370
-1
  6
AUSGEZOGEN
 10
861
 20
149.06
 30
0
 11
871.66
 21
123.36
 31
0
  0
LINE
  5
264
100
AcDbEntity
  8
200
100
AcDbLine
370
-1
  6
AUSGEZOGEN
 10
1162.92
 20
331.66
 30
0
 11
1169
 21
316.96
 31
0
  0
LINE
  5
265
100
AcDbEntity
  8
200
100
AcDbLine
370
-1
  6
AUSGEZOGEN
 10
1199
 20
322.94
 30
0
 11
1188.34
 21
348.64
 31
0
  0
LINE
  5
266
100
AcDbEntity
  8
200
100
AcDbLine
370
-1
  6
AUSGEZOGEN
 10
981
 20
232
 30
0
 11
981
 21
240
 31
0
  0
LINE
  5
267
100
AcDbEntity
  8
200
100
AcDbLine
370
-1
  6
AUSGEZOGEN
 10
851
 20
232
 30
0
 11
981
 21
232
 31
0
  0
LINE
  5
268
100
AcDbEntity
  8
200
100
AcDbLine
370
-1
  6
AUSGEZOGEN
 10
981
 20
240
 30
0
 11
851
 21
240
 31
0
  0
LINE
  5
269
100
AcDbEntity
  8
200
100
AcDbLine
370
-1
  6
AUSGEZOGEN
 10
1079
 20
232
 30
0
 11
1079
 21
240
 31
0
  0
LINE
  5
26A
100
AcDbEntity
  8
200
100
AcDbLine
370
-1
  6
AUSGEZOGEN
 10
1209
 20
240
 30
0
 11
1079
 21
240
 31
0
  0
LINE
  5
26B
100
AcDbEntity
  8
200
100
AcDbLine
370
-1
  6
AUSGEZOGEN
 10
1079
 20
232
 30
0
 11
1209
 21
232
 31
0
  0
LINE
  5
26C
100
AcDbEntity
  8
200
100
AcDbLine
370
-1
  6
AUSGEZOGEN
 10
1026
 20
309
 30
0
 11
1034
 21
309
 31
0
  0
LINE
  5
26D
100
AcDbEntity
  8
200
100
AcDbLine
370
-1
  6
AUSGEZOGEN
 10
1034
 20
163
 30
0
 11
1026
 21
163
 31
0
  0
LINE
  5
26E
100
AcDbEntity
  8
200
100
AcDbLine
370
-1
  6
AUSGEZOGEN
 10
1034
 20
83
 30
0
 11
1034
 21
163
 31
0
  0
LINE
  5
26F
100
AcDbEntity
  8
200
100
AcDbLine
370
-1
  6
AUSGEZOGEN
 10
1026
 20
163
 30
0
 11
1026
 21
83
 31
0
  0
LINE
  5
270
100
AcDbEntity
  8
200
100
AcDbLine
370
-1
  6
AUSGEZOGEN
 10
931.92
 20
169.58
 30
0
 11
937.58
 21
163.92
 31
0
  0
LINE
  5
271
100
AcDbEntity
  8
200
100
AcDbLine
370
-1
  6
AUSGEZOGEN
 10
898.4
 20
124.74
 30
0
 11
937.58
 21
163.92
 31
0
  0
LINE
  5
272
100
AcDbEntity
  8
200
100
AcDbLine
370
-1
  6
AUSGEZOGEN
 10
931.92
 20
169.58
 30
0
 11
892.74
 21
130.4
 31
0
  0
LINE
  5
273
100
AcDbEntity
  8
200
100
AcDbLine
370
-1
  6
AUSGEZOGEN
 10
887.24
 20
113.58
 30
0
 11
898.4
 21
124.74
 31
0
  0
LINE
  5
274
100
AcDbEntity
  8
200
100
AcDbLine
370
-1
  6
AUSGEZOGEN
 10
892.74
 20
130.4
 30
0
 11
881.58
 21
119.24
 31
0
  0
LINE
  5
275
100
AcDbEntity
  8
200
100
AcDbLine
370
-1
  6
AUSGEZOGEN
 10
856.66
 20
83
 30
0
 11
887.24
 21
113.58
 31
0
  0
LINE
  5
276
100
AcDbEntity
  8
200
100
AcDbLine
370
-1
  6
AUSGEZOGEN
 10
881.58
 20
119.24
 30
0
 11
851
 21
88.66
 31
0
  0
LINE
  5
277
100
AcDbEntity
  8
200
100
AcDbLine
370
-1
  6
AUSGEZOGEN
 10
1167.26
 20
130.4
 30
0
 11
1128.08
 21
169.58
 31
0
  0
LINE
  5
278
100
AcDbEntity
  8
200
100
AcDbLine
370
-1
  6
AUSGEZOGEN
 10
1122.42
 20
163.92
 30
0
 11
1161.6
 21
124.74
 31
0
  0
LINE
  5
279
100
AcDbEntity
  8
200
100
AcDbLine
370
-1
  6
AUSGEZOGEN
 10
1128.08
 20
169.58
 30
0
 11
1122.42
 21
163.92
 31
0
  0
LINE
  5
27A
100
AcDbEntity
  8
200
100
AcDbLine
370
-1
  6
AUSGEZOGEN
 10
1178.42
 20
119.24
 30
0
 11
1167.26
 21
130.4
 31
0
  0
LINE
  5
27B
100
AcDbEntity
  8
200
100
AcDbLine
370
-1
  6
AUSGEZOGEN
 10
1161.6
 20
124.74
 30
0
 11
1172.76
 21
113.58
 31
0
  0
LINE
  5
27C
100
AcDbEntity
  8
200
100
AcDbLine
370
-1
  6
AUSGEZOGEN
 10
851
 20
83
 30
0
 11
1209
 21
83
 31
0
  0
LINE
  5
27D
100
AcDbEntity
  8
200
100
AcDbLine
370
-1
  6
AUSGEZOGEN
 10
1209
 20
88.66
 30
0
 11
1178.42
 21
119.24
 31
0
  0
LINE
  5
27E
100
AcDbEntity
  8
200
100
AcDbLine
370
-1
  6
AUSGEZOGEN
 10
1172.76
 20
113.58
 30
0
 11
1203.34
 21
83
 31
0
  0
LINE
  5
27F
100
AcDbEntity
  8
200
100
AcDbLine
370
-1
  6
AUSGEZOGEN
 10
892.74
 20
341.6
 30
0
 11
931.92
 21
302.42
 31
0
  0
LINE
  5
280
100
AcDbEntity
  8
200
100
AcDbLine
370
-1
  6
AUSGEZOGEN
 10
937.58
 20
308.08
 30
0
 11
898.4
 21
347.26
 31
0
  0
LINE
  5
281
100
AcDbEntity
  8
200
100
AcDbLine
370
-1
  6
AUSGEZOGEN
 10
931.92
 20
302.42
 30
0
 11
937.58
 21
308.08
 31
0
  0
LINE
  5
282
100
AcDbEntity
  8
200
100
AcDbLine
370
-1
  6
AUSGEZOGEN
 10
881.58
 20
352.76
 30
0
 11
892.74
 21
341.6
 31
0
  0
LINE
  5
283
100
AcDbEntity
  8
200
100
AcDbLine
370
-1
  6
AUSGEZOGEN
 10
898.4
 20
347.26
 30
0
 11
887.24
 21
358.42
 31
0
  0
LINE
  5
284
100
AcDbEntity
  8
200
100
AcDbLine
370
-1
  6
AUSGEZOGEN
 10
851
 20
383.34
 30
0
 11
881.58
 21
352.76
 31
0
  0
LINE
  5
285
100
AcDbEntity
  8
200
100
AcDbLine
370
-1
  6
AUSGEZOGEN
 10
887.24
 20
358.42
 30
0
 11
856.66
 21
389
 31
0
  0
LINE
  5
286
100
AcDbEntity
  8
200
100
AcDbLine
370
-1
  6
AUSGEZOGEN
 10
1128.08
 20
302.42
 30
0
 11
1122.42
 21
308.08
 31
0
  0
LINE
  5
287
100
AcDbEntity
  8
200
100
AcDbLine
370
-1
  6
AUSGEZOGEN
 10
1161.6
 20
347.26
 30
0
 11
1122.42
 21
308.08
 31
0
  0
LINE
  5
288
100
AcDbEntity
  8
200
100
AcDbLine
370
-1
  6
AUSGEZOGEN
 10
1128.08
 20
302.42
 30
0
 11
1167.26
 21
341.6
 31
0
  0
LINE
  5
289
100
AcDbEntity
  8
200
100
AcDbLine
370
-1
  6
AUSGEZOGEN
 10
1172.76
 20
358.42
 30
0
 11
1161.6
 21
347.26
 31
0
  0
LINE
  5
28A
100
AcDbEntity
  8
200
100
AcDbLine
370
-1
  6
AUSGEZOGEN
 10
1167.26
 20
341.6
 30
0
 11
1178.42
 21
352.76
 31
0
  0
LINE
  5
28B
100
AcDbEntity
  8
200
100
AcDbLine
370
-1
  6
AUSGEZOGEN
 10
1203.34
 20
389
 30
0
 11
1172.76
 21
358.42
 31
0
  0
LINE
  5
28C
100
AcDbEntity
  8
200
100
AcDbLine
370
-1
  6
AUSGEZOGEN
 10
1178.42
 20
352.76
 30
0
 11
1209
 21
383.34
 31
0
  0
LINE
  5
28D
100
AcDbEntity
  8
200
100
AcDbLine
370
-1
  6
AUSGEZOGEN
 10
1019.07
 20
291
 30
0
 11
1040.93
 21
291
 31
0
  0
LINE
  5
28E
100
AcDbEntity
  8
200
100
AcDbLine
370
-1
  6
AUSGEZOGEN
 10
1040.94
 20
181
 30
0
 11
1019.04
 21
181
 31
0
  0
LINE
  5
28F
100
AcDbEntity
  8
200
100
AcDbLine
370
-1
  6
AUSGEZOGEN
 10
1085
 20
246.93
 30
0
 11
1085
 21
240
 31
0
  0
LINE
  5
290
100
AcDbEntity
  8
200
100
AcDbLine
370
-1
  6
AUSGEZOGEN
 10
1085
 20
225.06
 30
0
 11
1085
 21
232
 31
0
  0
LINE
  5
291
100
AcDbEntity
  8
200
100
AcDbLine
370
-1
  6
AUSGEZOGEN
 10
975
 20
232
 30
0
 11
975
 21
225.04
 31
0
  0
LINE
  5
292
100
AcDbEntity
  8
200
100
AcDbLine
370
-1
  6
AUSGEZOGEN
 10
975
 20
246.96
 30
0
 11
975
 21
240
 31
0
  0
LINE
  5
293
100
AcDbEntity
  8
200
100
AcDbLine
370
-1
  6
AUSGEZOGEN
 10
1061.15
 20
282.63
 30
0
 11
1076.62
 21
267.15
 31
0
  0
LINE
  5
294
100
AcDbEntity
  8
200
100
AcDbLine
370
-1
  6
AUSGEZOGEN
 10
983.36
 20
204.85
 30
0
 11
998.85
 21
189.36
 31
0
  0
LINE
  5
295
100
AcDbEntity
  8
200
100
AcDbLine
370
-1
  6
AUSGEZOGEN
 10
1076.63
 20
204.84
 30
0
 11
1061.15
 21
189.37
 31
0
  0
LINE
  5
296
100
AcDbEntity
  8
200
100
AcDbLine
370
-1
  6
AUSGEZOGEN
 10
998.84
 20
282.62
 30
0
 11
983.37
 21
267.15
 31
0
  0
LINE
  5
297
100
AcDbEntity
  8
200
100
AcDbLine
370
-1
  6
AUSGEZOGEN
 10
1085
 20
246.93
 30
0
 11
1076.62
 21
267.15
 31
0
  0
LINE
  5
298
100
AcDbEntity
  8
200
100
AcDbLine
370
-1
  6
AUSGEZOGEN
 10
983.36
 20
204.85
 30
0
 11
975
 21
225.04
 31
0
  0
LINE
  5
299
100
AcDbEntity
  8
200
100
AcDbLine
370
-1
  6
AUSGEZOGEN
 10
1061.15
 20
189.37
 30
0
 11
1040.94
 21
181
 31
0
  0
LINE
  5
29A
100
AcDbEntity
  8
200
100
AcDbLine
370
-1
  6
AUSGEZOGEN
 10
998.84
 20
282.62
 30
0
 11
1019.07
 21
291
 31
0
  0
LINE
  5
29B
100
AcDbEntity
  8
200
100
AcDbLine
370
-1
  6
AUSGEZOGEN
 10
975
 20
246.96
 30
0
 11
983.37
 21
267.15
 31
0
  0
LINE
  5
29C
100
AcDbEntity
  8
200
100
AcDbLine
370
-1
  6
AUSGEZOGEN
 10
1076.63
 20
204.84
 30
0
 11
1085
 21
225.06
 31
0
  0
LINE
  5
29D
100
AcDbEntity
  8
200
100
AcDbLine
370
-1
  6
AUSGEZOGEN
 10
1040.93
 20
291
 30
0
 11
1061.15
 21
282.63
 31
0
  0
LINE
  5
29E
100
AcDbEntity
  8
200
100
AcDbLine
370
-1
  6
AUSGEZOGEN
 10
998.85
 20
189.36
 30
0
 11
1019.04
 21
181
 31
0
  0
LINE
  5
29F
100
AcDbEntity
  8
200
100
AcDbLine
370
-1
  6
AUSGEZOGEN
 10
1048.69
 20
263.98
 30
0
 11
1036.57
 21
269
 31
0
  0
LINE
  5
2A0
100
AcDbEntity
  8
200
100
AcDbLine
370
-1
  6
AUSGEZOGEN
 10
1057.98
 20
254.69
 30
0
 11
1048.69
 21
263.98
 31
0
  0
LINE
  5
2A1
100
AcDbEntity
  8
200
100
AcDbLine
370
-1
  6
AUSGEZOGEN
 10
1063
 20
242.57
 30
0
 11
1057.98
 21
254.69
 31
0
  0
LINE
  5
2A2
100
AcDbEntity
  8
200
100
AcDbLine
370
-1
  6
AUSGEZOGEN
 10
1057.98
 20
217.31
 30
0
 11
1063
 21
229.43
 31
0
  0
LINE
  5
2A3
100
AcDbEntity
  8
200
100
AcDbLine
370
-1
  6
AUSGEZOGEN
 10
1048.69
 20
208.02
 30
0
 11
1057.98
 21
217.31
 31
0
  0
LINE
  5
2A4
100
AcDbEntity
  8
200
100
AcDbLine
370
-1
  6
AUSGEZOGEN
 10
1036.57
 20
203
 30
0
 11
1048.69
 21
208.02
 31
0
  0
LINE
  5
2A5
100
AcDbEntity
  8
200
100
AcDbLine
370
-1
  6
AUSGEZOGEN
 10
1011.31
 20
208.02
 30
0
 11
1023.43
 21
203
 31
0
  0
LINE
  5
2A6
100
AcDbEntity
  8
200
100
AcDbLine
370
-1
  6
AUSGEZOGEN
 10
1002.02
 20
217.31
 30
0
 11
1011.31
 21
208.02
 31
0
  0
LINE
  5
2A7
100
AcDbEntity
  8
200
100
AcDbLine
370
-1
  6
AUSGEZOGEN
 10
997
 20
229.43
 30
0
 11
1002.02
 21
217.31
 31
0
  0
LINE
  5
2A8
100
AcDbEntity
  8
200
100
AcDbLine
370
-1
  6
AUSGEZOGEN
 10
997
 20
242.57
 30
0
 11
997
 21
229.43
 31
0
  0
LINE
  5
2A9
100
AcDbEntity
  8
200
100
AcDbLine
370
-1
  6
AUSGEZOGEN
 10
1002.02
 20
254.69
 30
0
 11
997
 21
242.57
 31
0
  0
LINE
  5
2AA
100
AcDbEntity
  8
200
100
AcDbLine
370
-1
  6
AUSGEZOGEN
 10
1011.31
 20
263.98
 30
0
 11
1002.02
 21
254.69
 31
0
  0
LINE
  5
2AB
100
AcDbEntity
  8
200
100
AcDbLine
370
-1
  6
AUSGEZOGEN
 10
1023.44
 20
269
 30
0
 11
1011.31
 21
263.98
 31
0
  0
LINE
  5
2AC
100
AcDbEntity
  8
200
100
AcDbLine
370
-1
  6
AUSGEZOGEN
 10
1036.57
 20
269
 30
0
 11
1023.44
 21
269
 31
0
  0
LINE
  5
2AD
100
AcDbEntity
  8
200
100
AcDbLine
370
-1
  6
AUSGEZOGEN
 10
1063
 20
229.43
 30
0
 11
1063
 21
242.57
 31
0
  0
LINE
  5
2AE
100
AcDbEntity
  8
200
100
AcDbLine
370
-1
  6
AUSGEZOGEN
 10
1023.43
 20
203
 30
0
 11
1036.57
 21
203
 31
0
  0
LINE
  5
2AF
100
AcDbEntity
  8
200
100
AcDbLine
370
-1
  6
AUSGEZOGEN
 10
1199
 20
628.92
 30
0
 11
1199
 21
546
 31
0
  0
LINE
  5
2B0
100
AcDbEntity
  8
200
100
AcDbLine
370
-1
  6
AUSGEZOGEN
 10
1199
 20
455.08
 30
0
 11
1199
 21
538
 31
0
  0
LINE
  5
2B1
100
AcDbEntity
  8
200
100
AcDbLine
370
-1
  6
AUSGEZOGEN
 10
1169
 20
538
 30
0
 11
1169
 21
461.04
 31
0
  0
LINE
  5
2B2
100
AcDbEntity
  8
200
100
AcDbLine
370
-1
  6
AUSGEZOGEN
 10
1169
 20
622.96
 30
0
 11
1169
 21
546
 31
0
  0
LINE
  5
2B3
100
AcDbEntity
  8
200
100
AcDbLine
370
-1
  6
AUSGEZOGEN
 10
861
 20
455.08
 30
0
 11
861
 21
538
 31
0
  0
LINE
  5
2B4
100
AcDbEntity
  8
200
100
AcDbLine
370
-1
  6
AUSGEZOGEN
 10
861
 20
628.92
 30
0
 11
861
 21
546
 31
0
  0
LINE
  5
2B5
100
AcDbEntity
  8
200
100
AcDbLine
370
-1
  6
AUSGEZOGEN
 10
891
 20
546
 30
0
 11
891
 21
622.96
 31
0
  0
LINE
  5
2B6
100
AcDbEntity
  8
200
100
AcDbLine
370
-1
  6
AUSGEZOGEN
 10
891
 20
461.04
 30
0
 11
891
 21
538
 31
0
  0
LINE
  5
2B7
100
AcDbEntity
  8
200
100
AcDbLine
370
-1
  6
AUSGEZOGEN
 10
1142.92
 20
399
 30
0
 11
1034
 21
399
 31
0
  0
LINE
  5
2B8
100
AcDbEntity
  8
200
100
AcDbLine
370
-1
  6
AUSGEZOGEN
 10
917.08
 20
399
 30
0
 11
1026
 21
399
 31
0
  0
LINE
  5
2B9
100
AcDbEntity
  8
200
100
AcDbLine
370
-1
  6
AUSGEZOGEN
 10
1026
 20
429
 30
0
 11
923.04
 21
429
 31
0
  0
LINE
  5
2BA
100
AcDbEntity
  8
200
100
AcDbLine
370
-1
  6
AUSGEZOGEN
 10
1136.96
 20
429
 30
0
 11
1034
 21
429
 31
0
  0
LINE
  5
2BB
100
AcDbEntity
  8
200
100
AcDbLine
370
-1
  6
AUSGEZOGEN
 10
917.08
 20
685
 30
0
 11
1026
 21
685
 31
0
  0
LINE
  5
2BC
100
AcDbEntity
  8
200
100
AcDbLine
370
-1
  6
AUSGEZOGEN
 10
1142.92
 20
685
 30
0
 11
1034
 21
685
 31
0
  0
LINE
  5
2BD
100
AcDbEntity
  8
200
100
AcDbLine
370
-1
  6
AUSGEZOGEN
 10
1034
 20
655
 30
0
 11
1136.96
 21
655
 31
0
  0
LINE
  5
2BE
100
AcDbEntity
  8
200
100
AcDbLine
370
-1
  6
AUSGEZOGEN
 10
923.04
 20
655
 30
0
 11
1026
 21
655
 31
0
  0
LINE
  5
2BF
100
AcDbEntity
  8
200
100
AcDbLine
370
-1
  6
AUSGEZOGEN
 10
1154.46
 20
437.88
 30
0
 11
1151.66
 21
435.08
 31
0
  0
LINE
  5
2C0
100
AcDbEntity
  8
200
100
AcDbLine
370
-1
  6
AUSGEZOGEN
 10
1162.92
 20
446.34
 30
0
 11
1160.12
 21
443.54
 31
0
  0
LINE
  5
2C1
100
AcDbEntity
  8
200
100
AcDbLine
370
-1
  6
AUSGEZOGEN
 10
1175.67
 20
416.67
 30
0
 11
1168.66
 21
409.66
 31
0
  0
LINE
  5
2C2
100
AcDbEntity
  8
200
100
AcDbLine
370
-1
  6
AUSGEZOGEN
 10
1188.34
 20
429.34
 30
0
 11
1181.33
 21
422.33
 31
0
  0
LINE
  5
2C3
100
AcDbEntity
  8
200
100
AcDbLine
370
-1
  6
AUSGEZOGEN
 10
905.54
 20
646.12
 30
0
 11
908.34
 21
648.92
 31
0
  0
LINE
  5
2C4
100
AcDbEntity
  8
200
100
AcDbLine
370
-1
  6
AUSGEZOGEN
 10
897.08
 20
637.66
 30
0
 11
899.88
 21
640.46
 31
0
  0
LINE
  5
2C5
100
AcDbEntity
  8
200
100
AcDbLine
370
-1
  6
AUSGEZOGEN
 10
884.33
 20
667.33
 30
0
 11
891.34
 21
674.34
 31
0
  0
LINE
  5
2C6
100
AcDbEntity
  8
200
100
AcDbLine
370
-1
  6
AUSGEZOGEN
 10
871.66
 20
654.66
 30
0
 11
878.67
 21
661.67
 31
0
  0
LINE
  5
2C7
100
AcDbEntity
  8
200
100
AcDbLine
370
-1
  6
AUSGEZOGEN
 10
899.88
 20
443.54
 30
0
 11
897.08
 21
446.34
 31
0
  0
LINE
  5
2C8
100
AcDbEntity
  8
200
100
AcDbLine
370
-1
  6
AUSGEZOGEN
 10
908.34
 20
435.08
 30
0
 11
905.54
 21
437.88
 31
0
  0
LINE
  5
2C9
100
AcDbEntity
  8
200
100
AcDbLine
370
-1
  6
AUSGEZOGEN
 10
878.67
 20
422.33
 30
0
 11
871.66
 21
429.34
 31
0
  0
LINE
  5
2CA
100
AcDbEntity
  8
200
100
AcDbLine
370
-1
  6
AUSGEZOGEN
 10
891.34
 20
409.66
 30
0
 11
884.33
 21
416.67
 31
0
  0
LINE
  5
2CB
100
AcDbEntity
  8
200
100
AcDbLine
370
-1
  6
AUSGEZOGEN
 10
1160.12
 20
640.46
 30
0
 11
1162.92
 21
637.66
 31
0
  0
LINE
  5
2CC
100
AcDbEntity
  8
200
100
AcDbLine
370
-1
  6
AUSGEZOGEN
 10
1151.66
 20
648.92
 30
0
 11
1154.46
 21
646.12
 31
0
  0
LINE
  5
2CD
100
AcDbEntity
  8
200
100
AcDbLine
370
-1
  6
AUSGEZOGEN
 10
1181.33
 20
661.67
 30
0
 11
1188.34
 21
654.66
 31
0
  0
LINE
  5
2CE
100
AcDbEntity
  8
200
100
AcDbLine
370
-1
  6
AUSGEZOGEN
 10
1168.66
 20
674.34
 30
0
 11
1175.67
 21
667.33
 31
0
  0
LINE
  5
2CF
100
AcDbEntity
  8
200
100
AcDbLine
370
-1
  6
AUSGEZOGEN
 10
1162.9
 20
446.34
 30
0
 11
1169
 21
461.04
 31
0
  0
LINE
  5
2D0
100
AcDbEntity
  8
200
100
AcDbLine
370
-1
  6
AUSGEZOGEN
 10
1199
 20
455.08
 30
0
 11
1188.34
 21
429.36
 31
0
  0
LINE
  5
2D1
100
AcDbEntity
  8
200
100
AcDbLine
370
-1
  6
AUSGEZOGEN
 10
897.1
 20
637.66
 30
0
 11
891
 21
622.96
 31
0
  0
LINE
  5
2D2
100
AcDbEntity
  8
200
100
AcDbLine
370
-1
  6
AUSGEZOGEN
 10
861
 20
628.92
 30
0
 11
871.66
 21
654.64
 31
0
  0
LINE
  5
2D3
100
AcDbEntity
  8
200
100
AcDbLine
370
-1
  6
AUSGEZOGEN
 10
923.04
 20
429
 30
0
 11
908.34
 21
435.1
 31
0
  0
LINE
  5
2D4
100
AcDbEntity
  8
200
100
AcDbLine
370
-1
  6
AUSGEZOGEN
 10
891.36
 20
409.66
 30
0
 11
917.08
 21
399
 31
0
  0
LINE
  5
2D5
100
AcDbEntity
  8
200
100
AcDbLine
370
-1
  6
AUSGEZOGEN
 10
1151.66
 20
648.9
 30
0
 11
1136.96
 21
655
 31
0
  0
LINE
  5
2D6
100
AcDbEntity
  8
200
100
AcDbLine
370
-1
  6
AUSGEZOGEN
 10
1142.92
 20
685
 30
0
 11
1168.64
 21
674.34
 31
0
  0
LINE
  5
2D7
100
AcDbEntity
  8
200
100
AcDbLine
370
-1
  6
AUSGEZOGEN
 10
1136.96
 20
429
 30
0
 11
1151.66
 21
435.08
 31
0
  0
LINE
  5
2D8
100
AcDbEntity
  8
200
100
AcDbLine
370
-1
  6
AUSGEZOGEN
 10
1168.64
 20
409.66
 30
0
 11
1142.94
 21
399
 31
0
  0
LINE
  5
2D9
100
AcDbEntity
  8
200
100
AcDbLine
370
-1
  6
AUSGEZOGEN
 10
908.34
 20
648.92
 30
0
 11
923.04
 21
655
 31
0
  0
LINE
  5
2DA
100
AcDbEntity
  8
200
100
AcDbLine
370
-1
  6
AUSGEZOGEN
 10
917.06
 20
685
 30
0
 11
891.36
 21
674.34
 31
0
  0
LINE
  5
2DB
100
AcDbEntity
  8
200
100
AcDbLine
370
-1
  6
AUSGEZOGEN
 10
897.08
 20
446.34
 30
0
 11
891
 21
461.04
 31
0
  0
LINE
  5
2DC
100
AcDbEntity
  8
200
100
AcDbLine
370
-1
  6
AUSGEZOGEN
 10
861
 20
455.06
 30
0
 11
871.66
 21
429.36
 31
0
  0
LINE
  5
2DD
100
AcDbEntity
  8
200
100
AcDbLine
370
-1
  6
AUSGEZOGEN
 10
1162.92
 20
637.66
 30
0
 11
1169
 21
622.96
 31
0
  0
LINE
  5
2DE
100
AcDbEntity
  8
200
100
AcDbLine
370
-1
  6
AUSGEZOGEN
 10
1199
 20
628.94
 30
0
 11
1188.34
 21
654.64
 31
0
  0
LINE
  5
2DF
100
AcDbEntity
  8
200
100
AcDbLine
370
-1
  6
AUSGEZOGEN
 10
981
 20
538
 30
0
 11
981
 21
546
 31
0
  0
LINE
  5
2E0
100
AcDbEntity
  8
200
100
AcDbLine
370
-1
  6
AUSGEZOGEN
 10
851
 20
538
 30
0
 11
981
 21
538
 31
0
  0
LINE
  5
2E1
100
AcDbEntity
  8
200
100
AcDbLine
370
-1
  6
AUSGEZOGEN
 10
981
 20
546
 30
0
 11
851
 21
546
 31
0
  0
LINE
  5
2E2
100
AcDbEntity
  8
200
100
AcDbLine
370
-1
  6
AUSGEZOGEN
 10
1079
 20
538
 30
0
 11
1079
 21
546
 31
0
  0
LINE
  5
2E3
100
AcDbEntity
  8
200
100
AcDbLine
370
-1
  6
AUSGEZOGEN
 10
1209
 20
546
 30
0
 11
1079
 21
546
 31
0
  0
LINE
  5
2E4
100
AcDbEntity
  8
200
100
AcDbLine
370
-1
  6
AUSGEZOGEN
 10
1079
 20
538
 30
0
 11
1209
 21
538
 31
0
  0
LINE
  5
2E5
100
AcDbEntity
  8
200
100
AcDbLine
370
-1
  6
AUSGEZOGEN
 10
1026
 20
615
 30
0
 11
1034
 21
615
 31
0
  0
LINE
  5
2E6
100
AcDbEntity
  8
200
100
AcDbLine
370
-1
  6
AUSGEZOGEN
 10
1026
 20
695
 30
0
 11
1026
 21
615
 31
0
  0
LINE
  5
2E7
100
AcDbEntity
  8
200
100
AcDbLine
370
-1
  6
AUSGEZOGEN
 10
1034
 20
615
 30
0
 11
1034
 21
695
 31
0
  0
LINE
  5
2E8
100
AcDbEntity
  8
200
100
AcDbLine
370
-1
  6
AUSGEZOGEN
 10
1026
 20
469
 30
0
 11
1034
 21
469
 31
0
  0
LINE
  5
2E9
100
AcDbEntity
  8
200
100
AcDbLine
370
-1
  6
AUSGEZOGEN
 10
1034
 20
309
 30
0
 11
1034
 21
469
 31
0
  0
LINE
  5
2EA
100
AcDbEntity
  8
200
100
AcDbLine
370
-1
  6
AUSGEZOGEN
 10
1026
 20
469
 30
0
 11
1026
 21
309
 31
0
  0
LINE
  5
2EB
100
AcDbEntity
  8
200
100
AcDbLine
370
-1
  6
AUSGEZOGEN
 10
931.92
 20
475.58
 30
0
 11
937.58
 21
469.92
 31
0
  0
LINE
  5
2EC
100
AcDbEntity
  8
200
100
AcDbLine
370
-1
  6
AUSGEZOGEN
 10
898.4
 20
430.74
 30
0
 11
937.58
 21
469.92
 31
0
  0
LINE
  5
2ED
100
AcDbEntity
  8
200
100
AcDbLine
370
-1
  6
AUSGEZOGEN
 10
931.92
 20
475.58
 30
0
 11
892.74
 21
436.4
 31
0
  0
LINE
  5
2EE
100
AcDbEntity
  8
200
100
AcDbLine
370
-1
  6
AUSGEZOGEN
 10
887.24
 20
419.58
 30
0
 11
898.4
 21
430.74
 31
0
  0
LINE
  5
2EF
100
AcDbEntity
  8
200
100
AcDbLine
370
-1
  6
AUSGEZOGEN
 10
892.74
 20
436.4
 30
0
 11
881.58
 21
425.24
 31
0
  0
LINE
  5
2F0
100
AcDbEntity
  8
200
100
AcDbLine
370
-1
  6
AUSGEZOGEN
 10
856.66
 20
389
 30
0
 11
887.24
 21
419.58
 31
0
  0
LINE
  5
2F1
100
AcDbEntity
  8
200
100
AcDbLine
370
-1
  6
AUSGEZOGEN
 10
881.58
 20
425.24
 30
0
 11
851
 21
394.66
 31
0
  0
LINE
  5
2F2
100
AcDbEntity
  8
200
100
AcDbLine
370
-1
  6
AUSGEZOGEN
 10
1167.26
 20
436.4
 30
0
 11
1128.08
 21
475.58
 31
0
  0
LINE
  5
2F3
100
AcDbEntity
  8
200
100
AcDbLine
370
-1
  6
AUSGEZOGEN
 10
1122.42
 20
469.92
 30
0
 11
1161.6
 21
430.74
 31
0
  0
LINE
  5
2F4
100
AcDbEntity
  8
200
100
AcDbLine
370
-1
  6
AUSGEZOGEN
 10
1128.08
 20
475.58
 30
0
 11
1122.42
 21
469.92
 31
0
  0
LINE
  5
2F5
100
AcDbEntity
  8
200
100
AcDbLine
370
-1
  6
AUSGEZOGEN
 10
1178.42
 20
425.24
 30
0
 11
1167.26
 21
436.4
 31
0
  0
LINE
  5
2F6
100
AcDbEntity
  8
200
100
AcDbLine
370
-1
  6
AUSGEZOGEN
 10
1161.6
 20
430.74
 30
0
 11
1172.76
 21
419.58
 31
0
  0
LINE
  5
2F7
100
AcDbEntity
  8
200
100
AcDbLine
370
-1
  6
AUSGEZOGEN
 10
851
 20
389
 30
0
 11
1209
 21
389
 31
0
  0
LINE
  5
2F8
100
AcDbEntity
  8
200
100
AcDbLine
370
-1
  6
AUSGEZOGEN
 10
1209
 20
394.66
 30
0
 11
1178.42
 21
425.24
 31
0
  0
LINE
  5
2F9
100
AcDbEntity
  8
200
100
AcDbLine
370
-1
  6
AUSGEZOGEN
 10
1172.76
 20
419.58
 30
0
 11
1203.34
 21
389
 31
0
  0
LINE
  5
2FA
100
AcDbEntity
  8
200
100
AcDbLine
370
-1
  6
AUSGEZOGEN
 10
892.74
 20
647.6
 30
0
 11
931.92
 21
608.42
 31
0
  0
LINE
  5
2FB
100
AcDbEntity
  8
200
100
AcDbLine
370
-1
  6
AUSGEZOGEN
 10
937.58
 20
614.08
 30
0
 11
898.4
 21
653.26
 31
0
  0
LINE
  5
2FC
100
AcDbEntity
  8
200
100
AcDbLine
370
-1
  6
AUSGEZOGEN
 10
931.92
 20
608.42
 30
0
 11
937.58
 21
614.08
 31
0
  0
LINE
  5
2FD
100
AcDbEntity
  8
200
100
AcDbLine
370
-1
  6
AUSGEZOGEN
 10
881.58
 20
658.76
 30
0
 11
892.74
 21
647.6
 31
0
  0
LINE
  5
2FE
100
AcDbEntity
  8
200
100
AcDbLine
370
-1
  6
AUSGEZOGEN
 10
898.4
 20
653.26
 30
0
 11
887.24
 21
664.42
 31
0
  0
LINE
  5
2FF
100
AcDbEntity
  8
200
100
AcDbLine
370
-1
  6
AUSGEZOGEN
 10
851
 20
689.34
 30
0
 11
881.58
 21
658.76
 31
0
  0
LINE
  5
300
100
AcDbEntity
  8
200
100
AcDbLine
370
-1
  6
AUSGEZOGEN
 10
851
 20
83
 30
0
 11
851
 21
695
 31
0
  0
LINE
  5
301
100
AcDbEntity
  8
200
100
AcDbLine
370
-1
  6
AUSGEZOGEN
 10
887.24
 20
664.42
 30
0
 11
856.66
 21
695
 31
0
  0
LINE
  5
302
100
AcDbEntity
  8
200
100
AcDbLine
370
-1
  6
AUSGEZOGEN
 10
1128.08
 20
608.42
 30
0
 11
1122.42
 21
614.08
 31
0
  0
LINE
  5
303
100
AcDbEntity
  8
200
100
AcDbLine
370
-1
  6
AUSGEZOGEN
 10
1161.6
 20
653.26
 30
0
 11
1122.42
 21
614.08
 31
0
  0
LINE
  5
304
100
AcDbEntity
  8
200
100
AcDbLine
370
-1
  6
AUSGEZOGEN
 10
1128.08
 20
608.42
 30
0
 11
1167.26
 21
647.6
 31
0
  0
LINE
  5
305
100
AcDbEntity
  8
200
100
AcDbLine
370
-1
  6
AUSGEZOGEN
 10
1172.76
 20
664.42
 30
0
 11
1161.6
 21
653.26
 31
0
  0
LINE
  5
306
100
AcDbEntity
  8
200
100
AcDbLine
370
-1
  6
AUSGEZOGEN
 10
1167.26
 20
647.6
 30
0
 11
1178.42
 21
658.76
 31
0
  0
LINE
  5
307
100
AcDbEntity
  8
200
100
AcDbLine
370
-1
  6
AUSGEZOGEN
 10
851
 20
695
 30
0
 11
1209
 21
695
 31
0
  0
LINE
  5
308
100
AcDbEntity
  8
200
100
AcDbLine
370
-1
  6
AUSGEZOGEN
 10
1203.34
 20
695
 30
0
 11
1172.76
 21
664.42
 31
0
  0
LINE
  5
309
100
AcDbEntity
  8
200
100
AcDbLine
370
-1
  6
AUSGEZOGEN
 10
1209
 20
83
 30
0
 11
1209
 21
695
 31
0
  0
LINE
  5
30A
100
AcDbEntity
  8
200
100
AcDbLine
370
-1
  6
AUSGEZOGEN
 10
1178.42
 20
658.76
 30
0
 11
1209
 21
689.34
 31
0
  0
LINE
  5
30B
100
AcDbEntity
  8
200
100
AcDbLine
370
-1
  6
AUSGEZOGEN
 10
1019.07
 20
597
 30
0
 11
1040.93
 21
597
 31
0
  0
LINE
  5
30C
100
AcDbEntity
  8
200
100
AcDbLine
370
-1
  6
AUSGEZOGEN
 10
1040.94
 20
487
 30
0
 11
1019.04
 21
487
 31
0
  0
LINE
  5
30D
100
AcDbEntity
  8
200
100
AcDbLine
370
-1
  6
AUSGEZOGEN
 10
1085
 20
552.93
 30
0
 11
1085
 21
546
 31
0
  0
LINE
  5
30E
100
AcDbEntity
  8
200
100
AcDbLine
370
-1
  6
AUSGEZOGEN
 10
1085
 20
531.06
 30
0
 11
1085
 21
538
 31
0
  0
LINE
  5
30F
100
AcDbEntity
  8
200
100
AcDbLine
370
-1
  6
AUSGEZOGEN
 10
975
 20
538
 30
0
 11
975
 21
531.04
 31
0
  0
LINE
  5
310
100
AcDbEntity
  8
200
100
AcDbLine
370
-1
  6
AUSGEZOGEN
 10
975
 20
552.96
 30
0
 11
975
 21
546
 31
0
  0
LINE
  5
311
100
AcDbEntity
  8
200
100
AcDbLine
370
-1
  6
AUSGEZOGEN
 10
1061.15
 20
588.63
 30
0
 11
1076.62
 21
573.15
 31
0
  0
LINE
  5
312
100
AcDbEntity
  8
200
100
AcDbLine
370
-1
  6
AUSGEZOGEN
 10
983.36
 20
510.85
 30
0
 11
998.85
 21
495.36
 31
0
  0
LINE
  5
313
100
AcDbEntity
  8
200
100
AcDbLine
370
-1
  6
AUSGEZOGEN
 10
1076.63
 20
510.84
 30
0
 11
1061.15
 21
495.37
 31
0
  0
LINE
  5
314
100
AcDbEntity
  8
200
100
AcDbLine
370
-1
  6
AUSGEZOGEN
 10
998.84
 20
588.62
 30
0
 11
983.37
 21
573.15
 31
0
  0
LINE
  5
315
100
AcDbEntity
  8
200
100
AcDbLine
370
-1
  6
AUSGEZOGEN
 10
1085
 20
552.93
 30
0
 11
1076.62
 21
573.15
 31
0
  0
LINE
  5
316
100
AcDbEntity
  8
200
100
AcDbLine
370
-1
  6
AUSGEZOGEN
 10
983.36
 20
510.85
 30
0
 11
975
 21
531.04
 31
0
  0
LINE
  5
317
100
AcDbEntity
  8
200
100
AcDbLine
370
-1
  6
AUSGEZOGEN
 10
1061.15
 20
495.37
 30
0
 11
1040.94
 21
487
 31
0
  0
LINE
  5
318
100
AcDbEntity
  8
200
100
AcDbLine
370
-1
  6
AUSGEZOGEN
 10
998.84
 20
588.62
 30
0
 11
1019.07
 21
597
 31
0
  0
LINE
  5
319
100
AcDbEntity
  8
200
100
AcDbLine
370
-1
  6
AUSGEZOGEN
 10
975
 20
552.96
 30
0
 11
983.37
 21
573.15
 31
0
  0
LINE
  5
31A
100
AcDbEntity
  8
200
100
AcDbLine
370
-1
  6
AUSGEZOGEN
 10
1076.63
 20
510.84
 30
0
 11
1085
 21
531.06
 31
0
  0
LINE
  5
31B
100
AcDbEntity
  8
200
100
AcDbLine
370
-1
  6
AUSGEZOGEN
 10
1040.93
 20
597
 30
0
 11
1061.15
 21
588.63
 31
0
  0
LINE
  5
31C
100
AcDbEntity
  8
200
100
AcDbLine
370
-1
  6
AUSGEZOGEN
 10
998.85
 20
495.36
 30
0
 11
1019.04
 21
487
 31
0
  0
LINE
  5
31D
100
AcDbEntity
  8
200
100
AcDbLine
370
-1
  6
AUSGEZOGEN
 10
1048.69
 20
569.98
 30
0
 11
1036.57
 21
575
 31
0
  0
LINE
  5
31E
100
AcDbEntity
  8
200
100
AcDbLine
370
-1
  6
AUSGEZOGEN
 10
1057.98
 20
560.69
 30
0
 11
1048.69
 21
569.98
 31
0
  0
LINE
  5
31F
100
AcDbEntity
  8
200
100
AcDbLine
370
-1
  6
AUSGEZOGEN
 10
1063
 20
548.57
 30
0
 11
1057.98
 21
560.69
 31
0
  0
LINE
  5
320
100
AcDbEntity
  8
200
100
AcDbLine
370
-1
  6
AUSGEZOGEN
 10
1057.98
 20
523.31
 30
0
 11
1063
 21
535.43
 31
0
  0
LINE
  5
321
100
AcDbEntity
  8
200
100
AcDbLine
370
-1
  6
AUSGEZOGEN
 10
1048.69
 20
514.02
 30
0
 11
1057.98
 21
523.31
 31
0
  0
LINE
  5
322
100
AcDbEntity
  8
200
100
AcDbLine
370
-1
  6
AUSGEZOGEN
 10
1036.57
 20
509
 30
0
 11
1048.69
 21
514.02
 31
0
  0
LINE
  5
323
100
AcDbEntity
  8
200
100
AcDbLine
370
-1
  6
AUSGEZOGEN
 10
1011.31
 20
514.02
 30
0
 11
1023.43
 21
509
 31
0
  0
LINE
  5
324
100
AcDbEntity
  8
200
100
AcDbLine
370
-1
  6
AUSGEZOGEN
 10
1002.02
 20
523.31
 30
0
 11
1011.31
 21
514.02
 31
0
  0
LINE
  5
325
100
AcDbEntity
  8
200
100
AcDbLine
370
-1
  6
AUSGEZOGEN
 10
997
 20
535.43
 30
0
 11
1002.02
 21
523.31
 31
0
  0
LINE
  5
326
100
AcDbEntity
  8
200
100
AcDbLine
370
-1
  6
AUSGEZOGEN
 10
997
 20
548.57
 30
0
 11
997
 21
535.43
 31
0
  0
LINE
  5
327
100
AcDbEntity
  8
200
100
AcDbLine
370
-1
  6
AUSGEZOGEN
 10
1002.02
 20
560.69
 30
0
 11
997
 21
548.57
 31
0
  0
LINE
  5
328
100
AcDbEntity
  8
200
100
AcDbLine
370
-1
  6
AUSGEZOGEN
 10
1011.31
 20
569.98
 30
0
 11
1002.02
 21
560.69
 31
0
  0
LINE
  5
329
100
AcDbEntity
  8
200
100
AcDbLine
370
-1
  6
AUSGEZOGEN
 10
1023.44
 20
575
 30
0
 11
1011.31
 21
569.98
 31
0
  0
LINE
  5
32A
100
AcDbEntity
  8
200
100
AcDbLine
370
-1
  6
AUSGEZOGEN
 10
1036.57
 20
575
 30
0
 11
1023.44
 21
575
 31
0
  0
LINE
  5
32B
100
AcDbEntity
  8
200
100
AcDbLine
370
-1
  6
AUSGEZOGEN
 10
1063
 20
535.43
 30
0
 11
1063
 21
548.57
 31
0
  0
LINE
  5
32C
100
AcDbEntity
  8
200
100
AcDbLine
370
-1
  6
AUSGEZOGEN
 10
1023.43
 20
509
 30
0
 11
1036.57
 21
509
 31
0
  0
ATTDEF
  5
32E
100
AcDbEntity
  8
0
100
AcDbText
370
-1
 10
0
 20
0
 30
0
 40
1
  1

 50
0
 41
1
 51
0
  7
STANDARD
 71
0
 72
0
 11
0
 21
0
 31
0
100
AcDbAttributeDefinition
  3

  2

 70
0
 74
0
1001
AcDbAttr
1070
0
1070
0
  0
ENDBLK
  5
34B
100
AcDbEntity
  8
0
100
AcDbBlockEnd
  0
BLOCK
  5
334
100
AcDbEntity
  8
450
100
AcDbBlockBegin
  2
INST_BLOCK_00001
 70
2
 10
0
 20
0
 30
0
  3
INST_BLOCK_00001
  1

  0
CIRCLE
  5
20
100
AcDbEntity
  8
450
100
AcDbCircle
370
-1
  6
AUSGEZOGEN
 10
75
 20
347
 30
0
 40
50
  0
LINE
  5
21
100
AcDbEntity
  8
450
100
AcDbLine
370
-1
  6
AUSGEZOGEN
 10
150
 20
347
 30
0
 11
75
 21
347
 31
0
  0
LINE
  5
22
100
AcDbEntity
  8
450
100
AcDbLine
370
-1
  6
AUSGEZOGEN
 10
0
 20
347
 30
0
 11
75
 21
347
 31
0
  0
LINE
  5
23
100
AcDbEntity
  8
450
100
AcDbLine
370
-1
  6
AUSGEZOGEN
 10
75
 20
422
 30
0
 11
75
 21
347
 31
0
  0
LINE
  5
24
100
AcDbEntity
  8
450
100
AcDbLine
370
-1
  6
AUSGEZOGEN
 10
75
 20
272
 30
0
 11
75
 21
347
 31
0
  0
ATTDEF
  5
333
100
AcDbEntity
  8
0
100
AcDbText
370
-1
 10
0
 20
0
 30
0
 40
1
  1

 50
0
 41
1
 51
0
  7
STANDARD
 71
0
 72
0
 11
0
 21
0
 31
0
100
AcDbAttributeDefinition
  3

  2

 70
0
 74
0
1001
AcDbAttr
1070
0
1070
0
  0
ENDBLK
  5
34C
100
AcDbEntity
  8
0
100
AcDbBlockEnd
  0
ENDSEC
  0
SECTION
  2
ENTITIES
  0
LINE
  5
1C
100
AcDbEntity
  8
450
100
AcDbLine
370
-1
  6
AUSGEZOGEN
 10
75
 20
347
 30
0
 11
1516.5
 21
638.5
 31
0
  0
LINE
  5
1F
100
AcDbEntity
  8
450
100
AcDbLine
370
-1
  6
AUSGEZOGEN
 10
1985
 20
638.5
 30
0
 11
1516.5
 21
638.5
 31
0
  0
TEXT
  5
32D
100
AcDbEntity
  8
450
100
AcDbText
370
-1
 10
1530
 20
652
 30
0
 40
45
  1
Ga: DN15 1/2" 36kW
 50
0
 41
0.600000023841858
 51
0
  7
STANDARD
 71
0
 72
0
 11
0
 21
0
 31
0
100
AcDbText
 73
0
  0
INSERT
  5
332
100
AcDbEntity
  8
200
100
AcDbBlockReference
370
-1
  6
BYLAYER
 66
1
  2
GER_BLOCK_00001
 10
0
 20
0
 30
0
 41
1
 42
1
 43
1
  0
ATTRIB
  5
331
100
AcDbEntity
  8
0
100
AcDbText
370
-1
 10
0
 20
0
 30
0
 40
20
  1

 50
0
 41
1
 51
0
  7
STANDARD
 71
0
 72
0
 11
0
 21
0
 31
0
100
AcDbAttribute
  2

 70
0
 74
0
1001
AcDbAttr
1070
0
1070
0
  0
SEQEND
  5
34D
100
AcDbEntity
  8
0
  0
INSERT
  5
337
100
AcDbEntity
  8
450
100
AcDbBlockReference
370
-1
  6
BYLAYER
 66
1
  2
INST_BLOCK_00001
 10
0
 20
0
 30
0
 41
1
 42
1
 43
1
  0
ATTRIB
  5
336
100
AcDbEntity
  8
0
100
AcDbText
370
-1
 10
0
 20
0
 30
0
 40
20
  1

 50
0
 41
1
 51
0
  7
STANDARD
 71
0
 72
0
 11
0
 21
0
 31
0
100
AcDbAttribute
  2

 70
0
 74
0
1001
AcDbAttr
1070
0
1070
0
  0
SEQEND
  5
34E
100
AcDbEntity
  8
0
  0
ATTDEF
  5
338
100
AcDbEntity
  8
550
100
AcDbText
370
-1
 10
10
 20
100
 30
0
 40
30
  1

 50
0
 41
1
 51
0
  7
STANDARD
 71
0
 72
0
 11
0
 21
0
 31
0
100
AcDbAttributeDefinition
  3
KBS-10421405
  2
KBS-10421405
 70
1
 74
0
1001
AcDbAttr
1070
0
1070
0
  0
TEXT
  5
339
100
AcDbEntity
  8
510
100
AcDbText
370
-1
 10
10
 20
-45
 30
0
 40
30
  1

 50
0
 41
1
 51
0
  7
STANDARD
 71
0
 72
0
 11
0
 21
0
 31
0
100
AcDbText
 73
0
  0
ENDSEC
  0
SECTION
  2
OBJECTS
  0
DICTIONARY
  5
34F
100
AcDbDictionary
  3
ACAD_GROUP
350
350
  3
ACAD_MATERIAL
350
351
  3
ACAD_WIPEOUT_VARS
350
352
  3
ACAD_MLINESTYLE
350
353
  3
ACAD_LAYOUT
350
354
  0
DICTIONARY
  5
350
330
34F
100
AcDbDictionary
  0
DICTIONARY
  5
351
330
34F
100
AcDbDictionary
  0
WIPEOUTVARIABLES
  5
352
330
34F
100
AcDbWipeoutVariables
 70
1
  0
DICTIONARY
  5
353
330
34F
100
AcDbDictionary
  3
STANDARD
350
355
  0
MLINESTYLE
  5
355
100
AcDbMlineStyle
  2
STANDARD
 70
0
  3

 62
256
 51
90
 52
90
 71
2
 49
0.5
 62
256
  6
ByLayer
 49
-0.5
 62
256
  6
ByLayer
  0
DICTIONARY
  5
354
100
AcDbDictionary
281
1
  3
Model
350
33A
  0
LAYOUT
  5
33A
102
{ACAD_REACTORS
330
354
102
}
330
354
100
AcDbPlotSettings
  1

  2
none_device
  4

  6

 40
0
 41
0
 42
0
 43
0
 44
0
 45
0
 46
0
 47
0
 48
0
 49
0
 70
1712
 72
1
 73
0
 74
5
 75
16
 76
0
 77
0
 78
100
140
0
141
0
142
1
143
1
147
1
148
0
149
0
100
AcDbLayout
  1
Model
 70
1
 71
1
 10
0
 20
0
 11
1985
 21
772
 12
0
 22
0
 32
0
 14
0
 24
0
 34
0
 15
1985
 25
772
 35
0
146
0
 13
0
 23
0
 33
0
 16
1
 26
0
 36
0
 17
0
 27
1
 37
0
 76
0
330
1E
  0
DICTIONARY
  5
356
100
AcDbDictionary
280
1
  3
XINFO
360
357
  0
XRECORD
  5
357
102
{ACAD_REACTORS
330
356
102
}
330
356
100
AcDbXrecord
280
0
310
8F24010003000900
311
EB461FCE95339F29
  0
ENDSEC
  0
EOF
